ISO-10303-21;
HEADER;
FILE_DESCRIPTION (( 'STEP AP203' ),
    '1' );
FILE_NAME ('11-0232-09_outokumpu.step',
    '2015-08-11T14:09:04',
    ( '' ),
    ( '' ),
    'SwSTEP 2.0',
    'SolidWorks 2008',
    '' );
FILE_SCHEMA (( 'CONFIG_CONTROL_DESIGN' ));
ENDSEC;

DATA;
#1 = CARTESIAN_POINT ( 'NONE',  ( 0.0000000000000000000, 34.75000000000000000, -18.50000000000000400 ) ) ;
#2 = AXIS2_PLACEMENT_3D ( 'NONE', #1, #4, #3 ) ;
#3 = DIRECTION ( 'NONE',  ( 0.0000000000000000000, -1.000000000000000000, 1.026055426312647600E-016 ) ) ;
#4 = DIRECTION ( 'NONE',  ( -0.0000000000000000000, 1.026055426312647600E-016, 1.000000000000000000 ) ) ;
#5 = VERTEX_POINT ( 'NONE', #127 ) ;
#6 = EDGE_CURVE ( 'NONE', #12, #5, #165, .T. ) ;
#7 = EDGE_CURVE ( 'NONE', #84, #12, #160, .T. ) ;
#8 = ADVANCED_FACE ( 'NONE', ( #161 ), #154, .F. ) ;
#9 = EDGE_CURVE ( 'NONE', #84, #62, #150, .T. ) ;
#10 = EDGE_CURVE ( 'NONE', #62, #5, #146, .T. ) ;
#11 = ORIENTED_EDGE ( 'NONE', *, *, #10, .F. ) ;
#12 = VERTEX_POINT ( 'NONE', #141 ) ;
#13 = ORIENTED_EDGE ( 'NONE', *, *, #14, .F. ) ;
#14 = EDGE_CURVE ( 'NONE', #118, #58, #195, .T. ) ;
#15 = ORIENTED_EDGE ( 'NONE', *, *, #115, .F. ) ;
#16 = ADVANCED_FACE ( 'NONE', ( #196 ), #187, .F. ) ;
#17 = EDGE_LOOP ( 'NONE', ( #135, #139, #136, #137 ) ) ;
#18 = ADVANCED_FACE ( 'NONE', ( #189 ), #177, .T. ) ;
#19 = ORIENTED_EDGE ( 'NONE', *, *, #79, .F. ) ;
#20 = EDGE_LOOP ( 'NONE', ( #13, #15 ) ) ;
#21 = ORIENTED_EDGE ( 'NONE', *, *, #82, .T. ) ;
#22 = EDGE_CURVE ( 'NONE', #59, #58, #173, .T. ) ;
#23 = PLANE ( 'NONE',  #2 ) ;
#24 = FACE_BOUND ( 'NONE', #133, .T. ) ;
#25 = DIRECTION ( 'NONE',  ( 0.0000000000000000000, -1.000000000000000000, 1.026055426312647600E-016 ) ) ;
#26 = DIRECTION ( 'NONE',  ( -0.0000000000000000000, 1.026055426312647600E-016, 1.000000000000000000 ) ) ;
#27 = CARTESIAN_POINT ( 'NONE',  ( 0.0000000000000000000, 0.0000000000000000000, 0.0000000000000000000 ) ) ;
#28 = AXIS2_PLACEMENT_3D ( 'NONE', #27, #26, #25 ) ;
#29 = FACE_OUTER_BOUND ( 'NONE', #209, .T. ) ;
#30 = CYLINDRICAL_SURFACE ( 'NONE', #28, 34.75000000000000000 ) ;
#31 = DIRECTION ( 'NONE',  ( 0.0000000000000000000, -1.000000000000000000, 1.026055426312647600E-016 ) ) ;
#32 = DIRECTION ( 'NONE',  ( -0.0000000000000000000, 1.026055426312647600E-016, 1.000000000000000000 ) ) ;
#33 = CARTESIAN_POINT ( 'NONE',  ( 0.0000000000000000000, 0.0000000000000000000, 0.0000000000000000000 ) ) ;
#34 = AXIS2_PLACEMENT_3D ( 'NONE', #33, #32, #31 ) ;
#35 = FACE_OUTER_BOUND ( 'NONE', #180, .T. ) ;
#36 = CYLINDRICAL_SURFACE ( 'NONE', #34, 29.80699999999999900 ) ;
#37 = FACE_OUTER_BOUND ( 'NONE', #112, .T. ) ;
#38 = DIRECTION ( 'NONE',  ( 0.0000000000000000000, -1.000000000000000000, 1.163970527712823800E-016 ) ) ;
#39 = DIRECTION ( 'NONE',  ( -0.0000000000000000000, 1.026055426312647600E-016, 1.000000000000000000 ) ) ;
#40 = CARTESIAN_POINT ( 'NONE',  ( 0.0000000000000000000, -1.791402135043397500E-015, -17.45911662375968400 ) ) ;
#41 = AXIS2_PLACEMENT_3D ( 'NONE', #40, #39, #38 ) ;
#42 = DIRECTION ( 'NONE',  ( 0.0000000000000000000, 1.000000000000000000, -1.163970527712823800E-016 ) ) ;
#43 = DIRECTION ( 'NONE',  ( 0.0000000000000000000, -1.026055426312647600E-016, -1.000000000000000000 ) ) ;
#44 = CARTESIAN_POINT ( 'NONE',  ( 0.0000000000000000000, -1.791402135043397500E-015, -17.45911662375968400 ) ) ;
#45 = AXIS2_PLACEMENT_3D ( 'NONE', #44, #43, #42 ) ;
#46 = CIRCLE ( 'NONE', #41, 29.80700000000000200 ) ;
#47 = CONICAL_SURFACE ( 'NONE', #45, 29.80700000000000200, 0.7853981633974466100 ) ;
#48 = FACE_OUTER_BOUND ( 'NONE', #183, .T. ) ;
#49 = DIRECTION ( 'NONE',  ( 0.0000000000000000000, -1.000000000000000000, 1.124695302312331400E-016 ) ) ;
#50 = DIRECTION ( 'NONE',  ( -0.0000000000000000000, 1.026055426312647600E-016, 1.000000000000000000 ) ) ;
#51 = CARTESIAN_POINT ( 'NONE',  ( 0.0000000000000000000, -1.898202538678397600E-015, -18.49999999999999600 ) ) ;
#52 = AXIS2_PLACEMENT_3D ( 'NONE', #51, #50, #49 ) ;
#53 = CIRCLE ( 'NONE', #52, 30.84788337624031100 ) ;
#54 = EDGE_CURVE ( 'NONE', #117, #116, #78, .T. ) ;
#55 = ORIENTED_EDGE ( 'NONE', *, *, #114, .F. ) ;
#56 = VERTEX_POINT ( 'NONE', #73 ) ;
#57 = ORIENTED_EDGE ( 'NONE', *, *, #54, .F. ) ;
#58 = VERTEX_POINT ( 'NONE', #72 ) ;
#59 = VERTEX_POINT ( 'NONE', #71 ) ;
#60 = ORIENTED_EDGE ( 'NONE', *, *, #22, .T. ) ;
#61 = ORIENTED_EDGE ( 'NONE', *, *, #7, .T. ) ;
#62 = VERTEX_POINT ( 'NONE', #70 ) ;
#63 = MANIFOLD_SOLID_BREP ( 'NONE', #129 ) ;
#64 = PLANE ( 'NONE',  #206 ) ;
#65 = FACE_OUTER_BOUND ( 'NONE', #20, .T. ) ;
#66 = DIRECTION ( 'NONE',  ( -0.0000000000000000000, 1.026055426312647600E-016, 1.000000000000000000 ) ) ;
#67 = VECTOR ( 'NONE', #66, 1000.000000000000000 ) ;
#68 = CARTESIAN_POINT ( 'NONE',  ( 0.0000000000000000000, -29.80699999999999900, 3.058363409210108500E-015 ) ) ;
#69 = LINE ( 'NONE', #68, #67 ) ;
#70 = CARTESIAN_POINT ( 'NONE',  ( 0.0000000000000000000, -34.75000000000000000, 18.50000000000001100 ) ) ;
#71 = CARTESIAN_POINT ( 'NONE',  ( 3.650184158838359400E-015, 29.80699999999999900, -17.45911662375968700 ) ) ;
#72 = CARTESIAN_POINT ( 'NONE',  ( 3.650184158838359400E-015, 29.80699999999999900, 11.50000000000000000 ) ) ;
#73 = CARTESIAN_POINT ( 'NONE',  ( 0.0000000000000000000, -29.80700000000000600, -17.45911662375968000 ) ) ;
#74 = DIRECTION ( 'NONE',  ( 0.0000000000000000000, -1.000000000000000000, 1.124695302312331400E-016 ) ) ;
#75 = DIRECTION ( 'NONE',  ( -0.0000000000000000000, 1.026055426312647600E-016, 1.000000000000000000 ) ) ;
#76 = CARTESIAN_POINT ( 'NONE',  ( 0.0000000000000000000, -1.898202538678397600E-015, -18.49999999999999600 ) ) ;
#77 = AXIS2_PLACEMENT_3D ( 'NONE', #76, #75, #74 ) ;
#78 = CIRCLE ( 'NONE', #77, 30.84788337624031100 ) ;
#79 = EDGE_CURVE ( 'NONE', #56, #118, #69, .T. ) ;
#80 = ADVANCED_FACE ( 'NONE', ( #65 ), #64, .F. ) ;
#81 = EDGE_CURVE ( 'NONE', #56, #116, #202, .T. ) ;
#82 = EDGE_CURVE ( 'NONE', #59, #56, #198, .T. ) ;
#83 = ORIENTED_EDGE ( 'NONE', *, *, #6, .T. ) ;
#84 = VERTEX_POINT ( 'NONE', #108 ) ;
#85 = DIRECTION ( 'NONE',  ( 0.0000000000000000000, 1.000000000000000000, -1.026055426312647600E-016 ) ) ;
#86 = DIRECTION ( 'NONE',  ( 0.0000000000000000000, -1.026055426312647600E-016, -1.000000000000000000 ) ) ;
#87 = AXIS2_PLACEMENT_3D ( 'NONE', #88, #86, #85 ) ;
#88 = CARTESIAN_POINT ( 'NONE',  ( 0.0000000000000000000, -1.898202538678398700E-015, 18.50000000000000700 ) ) ;
#89 = PLANE ( 'NONE',  #87 ) ;
#90 = FACE_OUTER_BOUND ( 'NONE', #178, .T. ) ;
#91 = DIRECTION ( 'NONE',  ( 0.0000000000000000000, -1.000000000000000000, 9.984020005621910900E-017 ) ) ;
#92 = DIRECTION ( 'NONE',  ( -0.0000000000000000000, 1.026055426312647600E-016, 1.000000000000000000 ) ) ;
#93 = CARTESIAN_POINT ( 'NONE',  ( 0.0000000000000000000, 1.898202538678398700E-015, 18.50000000000000700 ) ) ;
#94 = AXIS2_PLACEMENT_3D ( 'NONE', #93, #92, #91 ) ;
#95 = CIRCLE ( 'NONE', #94, 34.75000000000000000 ) ;
#96 = CARTESIAN_POINT ( 'NONE',  ( 0.0000000000000000000, -29.80699999999999900, 11.50000000000000700 ) ) ;
#97 = CARTESIAN_POINT ( 'NONE',  ( 0.0000000000000000000, 30.84788337624030800, -18.50000000000000000 ) ) ;
#98 = CARTESIAN_POINT ( 'NONE',  ( 3.777651398451557500E-015, -30.84788337624031500, -18.49999999999999300 ) ) ;
#99 = DIRECTION ( 'NONE',  ( 0.0000000000000000000, -1.000000000000000000, 1.163970527712824000E-016 ) ) ;
#100 = DIRECTION ( 'NONE',  ( -0.0000000000000000000, 1.026055426312647600E-016, 1.000000000000000000 ) ) ;
#101 = CARTESIAN_POINT ( 'NONE',  ( 0.0000000000000000000, 1.179963740259545000E-015, 11.50000000000000400 ) ) ;
#102 = AXIS2_PLACEMENT_3D ( 'NONE', #101, #100, #99 ) ;
#103 = CIRCLE ( 'NONE', #102, 29.80699999999999900 ) ;
#104 = DIRECTION ( 'NONE',  ( 0.0000000000000000000, 0.7071067811865462400, -0.7071067811865489100 ) ) ;
#105 = VECTOR ( 'NONE', #104, 999.9999999999998900 ) ;
#106 = CARTESIAN_POINT ( 'NONE',  ( 0.0000000000000000000, 29.80699999999999900, -17.45911662375968700 ) ) ;
#107 = LINE ( 'NONE', #106, #105 ) ;
#108 = CARTESIAN_POINT ( 'NONE',  ( 0.0000000000000000000, -34.75000000000000000, -18.49999999999999600 ) ) ;
#109 = DIRECTION ( 'NONE',  ( 0.0000000000000000000, -1.000000000000000000, 1.163970527712823800E-016 ) ) ;
#110 = DIRECTION ( 'NONE',  ( -0.0000000000000000000, 1.026055426312647600E-016, 1.000000000000000000 ) ) ;
#111 = CARTESIAN_POINT ( 'NONE',  ( 0.0000000000000000000, -1.791402135043397500E-015, -17.45911662375968400 ) ) ;
#112 = EDGE_LOOP ( 'NONE', ( #168, #60, #166, #19 ) ) ;
#113 = ORIENTED_EDGE ( 'NONE', *, *, #81, .T. ) ;
#114 = EDGE_CURVE ( 'NONE', #59, #117, #107, .T. ) ;
#115 = EDGE_CURVE ( 'NONE', #58, #118, #103, .T. ) ;
#116 = VERTEX_POINT ( 'NONE', #98 ) ;
#117 = VERTEX_POINT ( 'NONE', #97 ) ;
#118 = VERTEX_POINT ( 'NONE', #96 ) ;
#119 = EDGE_LOOP ( 'NONE', ( #21, #113, #57, #55 ) ) ;
#120 = ORIENTED_EDGE ( 'NONE', *, *, #9, .T. ) ;
#121 = ORIENTED_EDGE ( 'NONE', *, *, #122, .F. ) ;
#122 = EDGE_CURVE ( 'NONE', #5, #62, #95, .T. ) ;
#123 = ADVANCED_FACE ( 'NONE', ( #90 ), #89, .F. ) ;
#124 = ORIENTED_EDGE ( 'NONE', *, *, #114, .T. ) ;
#125 = ORIENTED_EDGE ( 'NONE', *, *, #126, .F. ) ;
#126 = EDGE_CURVE ( 'NONE', #116, #117, #53, .T. ) ;
#127 = CARTESIAN_POINT ( 'NONE',  ( 4.255507079532761800E-015, 34.75000000000000000, 18.50000000000000400 ) ) ;
#128 = ORIENTED_EDGE ( 'NONE', *, *, #10, .T. ) ;
#129 = CLOSED_SHELL ( 'NONE', ( #18, #8, #167, #80, #16, #138, #208, #179, #123 ) ) ;
#130 = ORIENTED_EDGE ( 'NONE', *, *, #122, .T. ) ;
#131 = ORIENTED_EDGE ( 'NONE', *, *, #81, .F. ) ;
#132 = ORIENTED_EDGE ( 'NONE', *, *, #140, .T. ) ;
#133 = EDGE_LOOP ( 'NONE', ( #134, #213 ) ) ;
#134 = ORIENTED_EDGE ( 'NONE', *, *, #54, .T. ) ;
#135 = ORIENTED_EDGE ( 'NONE', *, *, #22, .F. ) ;
#136 = ORIENTED_EDGE ( 'NONE', *, *, #79, .T. ) ;
#137 = ORIENTED_EDGE ( 'NONE', *, *, #14, .T. ) ;
#138 = ADVANCED_FACE ( 'NONE', ( #48 ), #47, .F. ) ;
#139 = ORIENTED_EDGE ( 'NONE', *, *, #140, .F. ) ;
#140 = EDGE_CURVE ( 'NONE', #56, #59, #46, .T. ) ;
#141 = CARTESIAN_POINT ( 'NONE',  ( 4.255507079532761800E-015, 34.75000000000000000, -18.50000000000000400 ) ) ;
#142 = DIRECTION ( 'NONE',  ( 0.0000000000000000000, -1.000000000000000000, 9.984020005621910900E-017 ) ) ;
#143 = DIRECTION ( 'NONE',  ( -0.0000000000000000000, 1.026055426312647600E-016, 1.000000000000000000 ) ) ;
#144 = CARTESIAN_POINT ( 'NONE',  ( 0.0000000000000000000, 1.898202538678398700E-015, 18.50000000000000700 ) ) ;
#145 = AXIS2_PLACEMENT_3D ( 'NONE', #144, #143, #142 ) ;
#146 = CIRCLE ( 'NONE', #145, 34.75000000000000000 ) ;
#147 = DIRECTION ( 'NONE',  ( -0.0000000000000000000, 1.026055426312647600E-016, 1.000000000000000000 ) ) ;
#148 = VECTOR ( 'NONE', #147, 1000.000000000000000 ) ;
#149 = CARTESIAN_POINT ( 'NONE',  ( 0.0000000000000000000, -34.75000000000000000, 3.565542606436450500E-015 ) ) ;
#150 = LINE ( 'NONE', #149, #148 ) ;
#151 = DIRECTION ( 'NONE',  ( 0.0000000000000000000, 1.000000000000000000, -1.163970527712823800E-016 ) ) ;
#152 = DIRECTION ( 'NONE',  ( 0.0000000000000000000, -1.026055426312647600E-016, -1.000000000000000000 ) ) ;
#153 = AXIS2_PLACEMENT_3D ( 'NONE', #155, #152, #151 ) ;
#154 = CONICAL_SURFACE ( 'NONE', #153, 29.80700000000000200, 0.7853981633974466100 ) ;
#155 = CARTESIAN_POINT ( 'NONE',  ( 0.0000000000000000000, -1.791402135043397500E-015, -17.45911662375968400 ) ) ;
#156 = DIRECTION ( 'NONE',  ( 0.0000000000000000000, -1.000000000000000000, 9.984020005621910900E-017 ) ) ;
#157 = DIRECTION ( 'NONE',  ( -0.0000000000000000000, 1.026055426312647600E-016, 1.000000000000000000 ) ) ;
#158 = CARTESIAN_POINT ( 'NONE',  ( 0.0000000000000000000, -1.898202538678398000E-015, -18.50000000000000000 ) ) ;
#159 = AXIS2_PLACEMENT_3D ( 'NONE', #158, #157, #156 ) ;
#160 = CIRCLE ( 'NONE', #159, 34.75000000000000000 ) ;
#161 = FACE_OUTER_BOUND ( 'NONE', #119, .T. ) ;
#162 = DIRECTION ( 'NONE',  ( -0.0000000000000000000, 1.026055426312647600E-016, 1.000000000000000000 ) ) ;
#163 = VECTOR ( 'NONE', #162, 1000.000000000000000 ) ;
#164 = CARTESIAN_POINT ( 'NONE',  ( 4.255507079532761800E-015, 34.75000000000000000, -3.565542606436450500E-015 ) ) ;
#165 = LINE ( 'NONE', #164, #163 ) ;
#166 = ORIENTED_EDGE ( 'NONE', *, *, #115, .T. ) ;
#167 = ADVANCED_FACE ( 'NONE', ( #37 ), #36, .F. ) ;
#168 = ORIENTED_EDGE ( 'NONE', *, *, #82, .F. ) ;
#169 = ORIENTED_EDGE ( 'NONE', *, *, #9, .F. ) ;
#170 = DIRECTION ( 'NONE',  ( -0.0000000000000000000, 1.026055426312647600E-016, 1.000000000000000000 ) ) ;
#171 = VECTOR ( 'NONE', #170, 1000.000000000000000 ) ;
#172 = CARTESIAN_POINT ( 'NONE',  ( 3.650184158838359400E-015, 29.80699999999999900, -3.058363409210108500E-015 ) ) ;
#173 = LINE ( 'NONE', #172, #171 ) ;
#174 = DIRECTION ( 'NONE',  ( 0.0000000000000000000, -1.000000000000000000, 1.026055426312647600E-016 ) ) ;
#175 = DIRECTION ( 'NONE',  ( -0.0000000000000000000, 1.026055426312647600E-016, 1.000000000000000000 ) ) ;
#176 = AXIS2_PLACEMENT_3D ( 'NONE', #188, #175, #174 ) ;
#177 = CYLINDRICAL_SURFACE ( 'NONE', #176, 34.75000000000000000 ) ;
#178 = EDGE_LOOP ( 'NONE', ( #128, #130 ) ) ;
#179 = ADVANCED_FACE ( 'NONE', ( #35 ), #30, .T. ) ;
#180 = EDGE_LOOP ( 'NONE', ( #181, #182, #120, #121 ) ) ;
#181 = ORIENTED_EDGE ( 'NONE', *, *, #6, .F. ) ;
#182 = ORIENTED_EDGE ( 'NONE', *, *, #212, .T. ) ;
#183 = EDGE_LOOP ( 'NONE', ( #131, #132, #124, #125 ) ) ;
#184 = DIRECTION ( 'NONE',  ( 0.0000000000000000000, -1.000000000000000000, 1.026055426312647600E-016 ) ) ;
#185 = DIRECTION ( 'NONE',  ( -0.0000000000000000000, 1.026055426312647600E-016, 1.000000000000000000 ) ) ;
#186 = AXIS2_PLACEMENT_3D ( 'NONE', #190, #185, #184 ) ;
#187 = CYLINDRICAL_SURFACE ( 'NONE', #186, 29.80699999999999900 ) ;
#188 = CARTESIAN_POINT ( 'NONE',  ( 0.0000000000000000000, 0.0000000000000000000, 0.0000000000000000000 ) ) ;
#189 = FACE_OUTER_BOUND ( 'NONE', #207, .T. ) ;
#190 = CARTESIAN_POINT ( 'NONE',  ( 0.0000000000000000000, 0.0000000000000000000, 0.0000000000000000000 ) ) ;
#191 = DIRECTION ( 'NONE',  ( 0.0000000000000000000, -1.000000000000000000, 1.163970527712824000E-016 ) ) ;
#192 = DIRECTION ( 'NONE',  ( -0.0000000000000000000, 1.026055426312647600E-016, 1.000000000000000000 ) ) ;
#193 = CARTESIAN_POINT ( 'NONE',  ( 0.0000000000000000000, 1.179963740259545000E-015, 11.50000000000000400 ) ) ;
#194 = AXIS2_PLACEMENT_3D ( 'NONE', #193, #192, #191 ) ;
#195 = CIRCLE ( 'NONE', #194, 29.80699999999999900 ) ;
#196 = FACE_OUTER_BOUND ( 'NONE', #17, .T. ) ;
#197 = AXIS2_PLACEMENT_3D ( 'NONE', #111, #110, #109 ) ;
#198 = CIRCLE ( 'NONE', #197, 29.80700000000000200 ) ;
#199 = DIRECTION ( 'NONE',  ( 8.659274570719341900E-017, -0.7071067811865464600, -0.7071067811865486800 ) ) ;
#200 = VECTOR ( 'NONE', #199, 999.9999999999998900 ) ;
#201 = CARTESIAN_POINT ( 'NONE',  ( 3.650184158838360200E-015, -29.80700000000000600, -17.45911662375968000 ) ) ;
#202 = LINE ( 'NONE', #201, #200 ) ;
#203 = DIRECTION ( 'NONE',  ( 0.0000000000000000000, -1.000000000000000000, 1.026055426312647600E-016 ) ) ;
#204 = DIRECTION ( 'NONE',  ( -0.0000000000000000000, 1.026055426312647600E-016, 1.000000000000000000 ) ) ;
#205 = CARTESIAN_POINT ( 'NONE',  ( 0.0000000000000000000, 29.80699999999999900, 11.49999999999999800 ) ) ;
#206 = AXIS2_PLACEMENT_3D ( 'NONE', #205, #204, #203 ) ;
#207 = EDGE_LOOP ( 'NONE', ( #61, #83, #11, #169 ) ) ;
#208 = ADVANCED_FACE ( 'NONE', ( #29, #24 ), #23, .F. ) ;
#209 = EDGE_LOOP ( 'NONE', ( #210, #211 ) ) ;
#210 = ORIENTED_EDGE ( 'NONE', *, *, #7, .F. ) ;
#211 = ORIENTED_EDGE ( 'NONE', *, *, #212, .F. ) ;
#212 = EDGE_CURVE ( 'NONE', #12, #84, #257, .T. ) ;
#213 = ORIENTED_EDGE ( 'NONE', *, *, #126, .T. ) ;
#214 = DIRECTION ( 'NONE',  ( -0.0000000000000000000, 1.026055426312647600E-016, 1.000000000000000000 ) ) ;
#215 = DIRECTION ( 'NONE',  ( 0.0000000000000000000, 0.0000000000000000000, 1.000000000000000000 ) ) ;
#216 = CARTESIAN_POINT ( 'NONE',  ( 0.0000000000000000000, 0.0000000000000000000, 0.0000000000000000000 ) ) ;
#217 = APPLICATION_CONTEXT ( 'configuration controlled 3d designs of mechanical parts and assemblies' ) ;
#218 = ADVANCED_BREP_SHAPE_REPRESENTATION ( '11-0232-09_outokumpu', ( #63, #220 ), #234 ) ;
#219 =( LENGTH_UNIT ( ) NAMED_UNIT ( * ) SI_UNIT ( .MILLI., .METRE. ) );
#220 = AXIS2_PLACEMENT_3D ( 'NONE', #216, #215, #255 ) ;
#221 = APPROVAL_ROLE ( '' ) ;
#222 = APPROVAL ( #223, 'UNSPECIFIED' ) ;
#223 = APPROVAL_STATUS ( 'not_yet_approved' ) ;
#224 = PERSON_AND_ORGANIZATION ( #233, #232 ) ;
#225 = PRODUCT_DEFINITION ( 'UNKNOWN', '', #302, #226 ) ;
#226 = DESIGN_CONTEXT ( 'detailed design', #228, 'design' ) ;
#227 = APPLICATION_PROTOCOL_DEFINITION ( 'international standard', 'config_control_design', 1994, #228 ) ;
#228 = APPLICATION_CONTEXT ( 'configuration controlled 3d designs of mechanical parts and assemblies' ) ;
#229 = CC_DESIGN_PERSON_AND_ORGANIZATION_ASSIGNMENT ( #231, #230, ( #259 ) ) ;
#230 = PERSON_AND_ORGANIZATION_ROLE ( 'design_owner' ) ;
#231 = PERSON_AND_ORGANIZATION ( #233, #232 ) ;
#232 = ORGANIZATION ( 'UNSPECIFIED', 'UNSPECIFIED', '' ) ;
#233 = PERSON ( 'UNSPECIFIED', 'UNSPECIFIED', 'UNSPECIFIED', ('UNSPECIFIED'), ('UNSPECIFIED'), ('UNSPECIFIED') ) ;
#234 =( GEOMETRIC_REPRESENTATION_CONTEXT ( 3 ) GLOBAL_UNCERTAINTY_ASSIGNED_CONTEXT ( ( #303 ) ) GLOBAL_UNIT_ASSIGNED_CONTEXT ( ( #219, #256, #258 ) ) REPRESENTATION_CONTEXT ( 'NONE', 'WORKASPACE' ) );
#235 = PRODUCT_DEFINITION_SHAPE ( 'NONE', 'NONE',  #225 ) ;
#236 = PRODUCT_RELATED_PRODUCT_CATEGORY ( 'detail', '', ( #259 ) ) ;
#237 = CC_DESIGN_SECURITY_CLASSIFICATION ( #284, ( #302 ) ) ;
#238 = CC_DESIGN_APPROVAL ( #246, ( #284 ) ) ;
#239 = APPROVAL_DATE_TIME ( #240, #246 ) ;
#240 = DATE_AND_TIME ( #241, #242 ) ;
#241 = CALENDAR_DATE ( 2015, 11, 8 ) ;
#242 = LOCAL_TIME ( 16, 9, 4.000000000000000000, #243 ) ;
#243 = COORDINATED_UNIVERSAL_TIME_OFFSET ( 1, 0, .AHEAD. ) ;
#244 = APPROVAL_PERSON_ORGANIZATION ( #248, #246, #245 ) ;
#245 = APPROVAL_ROLE ( '' ) ;
#246 = APPROVAL ( #247, 'UNSPECIFIED' ) ;
#247 = APPROVAL_STATUS ( 'not_yet_approved' ) ;
#248 = PERSON_AND_ORGANIZATION ( #233, #232 ) ;
#249 = CC_DESIGN_DATE_AND_TIME_ASSIGNMENT ( #251, #250, ( #284 ) ) ;
#250 = DATE_TIME_ROLE ( 'classification_date' ) ;
#251 = DATE_AND_TIME ( #252, #279 ) ;
#252 = CALENDAR_DATE ( 2015, 11, 8 ) ;
#253 = DIRECTION ( 'NONE',  ( 0.0000000000000000000, -1.000000000000000000, 9.984020005621910900E-017 ) ) ;
#254 = SHAPE_DEFINITION_REPRESENTATION ( #235, #218 ) ;
#255 = DIRECTION ( 'NONE',  ( 1.000000000000000000, 0.0000000000000000000, 0.0000000000000000000 ) ) ;
#256 =( NAMED_UNIT ( * ) PLANE_ANGLE_UNIT ( ) SI_UNIT ( $, .RADIAN. ) );
#257 = CIRCLE ( 'NONE', #304, 34.75000000000000000 ) ;
#258 =( NAMED_UNIT ( * ) SI_UNIT ( $, .STERADIAN. ) SOLID_ANGLE_UNIT ( ) );
#259 = PRODUCT ( '11-0232-09_outokumpu', '11-0232-09_outokumpu', '', ( #260 ) ) ;
#260 = MECHANICAL_CONTEXT ( 'NONE', #217, 'mechanical' ) ;
#261 = APPLICATION_PROTOCOL_DEFINITION ( 'international standard', 'config_control_design', 1994, #217 ) ;
#262 = PERSON_AND_ORGANIZATION ( #233, #232 ) ;
#263 = CC_DESIGN_DATE_AND_TIME_ASSIGNMENT ( #265, #264, ( #225 ) ) ;
#264 = DATE_TIME_ROLE ( 'creation_date' ) ;
#265 = DATE_AND_TIME ( #266, #267 ) ;
#266 = CALENDAR_DATE ( 2015, 11, 8 ) ;
#267 = LOCAL_TIME ( 16, 9, 4.000000000000000000, #268 ) ;
#268 = COORDINATED_UNIVERSAL_TIME_OFFSET ( 1, 0, .AHEAD. ) ;
#269 = CC_DESIGN_PERSON_AND_ORGANIZATION_ASSIGNMENT ( #271, #270, ( #225 ) ) ;
#270 = PERSON_AND_ORGANIZATION_ROLE ( 'creator' ) ;
#271 = PERSON_AND_ORGANIZATION ( #233, #232 ) ;
#272 = CC_DESIGN_APPROVAL ( #222, ( #225 ) ) ;
#273 = APPROVAL_DATE_TIME ( #274, #222 ) ;
#274 = DATE_AND_TIME ( #275, #276 ) ;
#275 = CALENDAR_DATE ( 2015, 11, 8 ) ;
#276 = LOCAL_TIME ( 16, 9, 4.000000000000000000, #277 ) ;
#277 = COORDINATED_UNIVERSAL_TIME_OFFSET ( 1, 0, .AHEAD. ) ;
#278 = APPROVAL_PERSON_ORGANIZATION ( #224, #222, #221 ) ;
#279 = LOCAL_TIME ( 16, 9, 4.000000000000000000, #280 ) ;
#280 = COORDINATED_UNIVERSAL_TIME_OFFSET ( 1, 0, .AHEAD. ) ;
#281 = CC_DESIGN_PERSON_AND_ORGANIZATION_ASSIGNMENT ( #283, #282, ( #284 ) ) ;
#282 = PERSON_AND_ORGANIZATION_ROLE ( 'classification_officer' ) ;
#283 = PERSON_AND_ORGANIZATION ( #233, #232 ) ;
#284 = SECURITY_CLASSIFICATION ( '', '', #285 ) ;
#285 = SECURITY_CLASSIFICATION_LEVEL ( 'unclassified' ) ;
#286 = CC_DESIGN_PERSON_AND_ORGANIZATION_ASSIGNMENT ( #288, #287, ( #302 ) ) ;
#287 = PERSON_AND_ORGANIZATION_ROLE ( 'design_supplier' ) ;
#288 = PERSON_AND_ORGANIZATION ( #233, #232 ) ;
#289 = CC_DESIGN_PERSON_AND_ORGANIZATION_ASSIGNMENT ( #291, #290, ( #302 ) ) ;
#290 = PERSON_AND_ORGANIZATION_ROLE ( 'creator' ) ;
#291 = PERSON_AND_ORGANIZATION ( #233, #232 ) ;
#292 = CC_DESIGN_APPROVAL ( #300, ( #302 ) ) ;
#293 = APPROVAL_DATE_TIME ( #294, #300 ) ;
#294 = DATE_AND_TIME ( #295, #296 ) ;
#295 = CALENDAR_DATE ( 2015, 11, 8 ) ;
#296 = LOCAL_TIME ( 16, 9, 4.000000000000000000, #297 ) ;
#297 = COORDINATED_UNIVERSAL_TIME_OFFSET ( 1, 0, .AHEAD. ) ;
#298 = APPROVAL_PERSON_ORGANIZATION ( #262, #300, #299 ) ;
#299 = APPROVAL_ROLE ( '' ) ;
#300 = APPROVAL ( #301, 'UNSPECIFIED' ) ;
#301 = APPROVAL_STATUS ( 'not_yet_approved' ) ;
#302 = PRODUCT_DEFINITION_FORMATION_WITH_SPECIFIED_SOURCE ( 'ANY', '', #259, .NOT_KNOWN. ) ;
#303 = UNCERTAINTY_MEASURE_WITH_UNIT (LENGTH_MEASURE( 1.000000000000000100E-005 ), #219, 'distance_accuracy_value', 'NONE');
#304 = AXIS2_PLACEMENT_3D ( 'NONE', #305, #214, #253 ) ;
#305 = CARTESIAN_POINT ( 'NONE',  ( 0.0000000000000000000, -1.898202538678398000E-015, -18.50000000000000000 ) ) ;
ENDSEC;
END-ISO-10303-21;
