ISO-10303-21;
HEADER;
FILE_DESCRIPTION (( 'STEP AP203' ),
    '1' );
FILE_NAME ('3D_R245_168.3_17386180.STEP',
    '2024-08-06T09:36:20',
    ( '' ),
    ( '' ),
    'SwSTEP 2.0',
    'SolidWorks 2024',
    '' );
FILE_SCHEMA (( 'CONFIG_CONTROL_DESIGN' ));
ENDSEC;

DATA;
#1 = ADVANCED_FACE ( 'NONE', ( #90 ), #71, .F. ) ;
#2 = ORIENTED_EDGE ( 'NONE', *, *, #172, .F. ) ;
#3 = DIRECTION ( 'NONE',  ( 0.000000000000000000, 1.000000000000000000, 0.000000000000000000 ) ) ;
#4 = CIRCLE ( 'NONE', #154, 134.7500000000000000 ) ;
#5 = LINE ( 'NONE', #88, #240 ) ;
#6 = CARTESIAN_POINT ( 'NONE',  ( 0.000000000000000000, 4.000000000000000000, 0.000000000000000000 ) ) ;
#7 = FACE_OUTER_BOUND ( 'NONE', #106, .T. ) ;
#8 = PRODUCT_DEFINITION ( 'UNKNOWN', '', #248, #134 ) ;
#9 = FACE_OUTER_BOUND ( 'NONE', #185, .T. ) ;
#10 = LINE ( 'NONE', #11, #41 ) ;
#11 = CARTESIAN_POINT ( 'NONE',  ( 0.000000000000000000, 4.000000000000000000, -134.7500000000000000 ) ) ;
#12 = EDGE_CURVE ( 'NONE', #230, #27, #87, .T. ) ;
#13 = LOCAL_TIME ( 11, 36, 20.00000000000000000, #64 ) ;
#14 = AXIS2_PLACEMENT_3D ( 'NONE', #188, #238, #132 ) ;
#15 = PERSON_AND_ORGANIZATION_ROLE ( 'classification_officer' ) ;
#16 = ORIENTED_EDGE ( 'NONE', *, *, #159, .T. ) ;
#17 = ADVANCED_FACE ( 'NONE', ( #234 ), #166, .T. ) ;
#18 = CALENDAR_DATE ( 2024, 6, 8 ) ;
#19 = ORIENTED_EDGE ( 'NONE', *, *, #58, .F. ) ;
#20 = CLOSED_SHELL ( 'NONE', ( #1, #209, #77, #219, #17, #105 ) ) ;
#21 = APPROVAL_STATUS ( 'not_yet_approved' ) ;
#22 = CALENDAR_DATE ( 2024, 6, 8 ) ;
#23 = PERSON_AND_ORGANIZATION ( #83, #156 ) ;
#24 = ORIENTED_EDGE ( 'NONE', *, *, #62, .T. ) ;
#25 = DIRECTION ( 'NONE',  ( 0.000000000000000000, 1.000000000000000000, 0.000000000000000000 ) ) ;
#26 = ORIENTED_EDGE ( 'NONE', *, *, #102, .F. ) ;
#27 = VERTEX_POINT ( 'NONE', #126 ) ;
#28 =( GEOMETRIC_REPRESENTATION_CONTEXT ( 3 ) GLOBAL_UNCERTAINTY_ASSIGNED_CONTEXT ( ( #226 ) ) GLOBAL_UNIT_ASSIGNED_CONTEXT ( ( #110, #150, #54 ) ) REPRESENTATION_CONTEXT ( 'NONE', 'WORKASPACE' ) );
#29 = DIRECTION ( 'NONE',  ( 0.000000000000000000, 1.000000000000000000, 0.000000000000000000 ) ) ;
#30 = DIRECTION ( 'NONE',  ( 0.000000000000000000, -0.000000000000000000, 1.000000000000000000 ) ) ;
#31 = APPROVAL ( #211, 'UNSPECIFIED' ) ;
#32 = PRODUCT_DEFINITION_SHAPE ( 'NONE', 'NONE',  #8 ) ;
#33 = VECTOR ( 'NONE', #232, 1000.000000000000000 ) ;
#34 = DIRECTION ( 'NONE',  ( -0.000000000000000000, -1.000000000000000000, -0.000000000000000000 ) ) ;
#35 = APPROVAL_PERSON_ORGANIZATION ( #38, #31, #39 ) ;
#36 = DATE_TIME_ROLE ( 'creation_date' ) ;
#37 = CC_DESIGN_DATE_AND_TIME_ASSIGNMENT ( #63, #80, ( #236 ) ) ;
#38 = PERSON_AND_ORGANIZATION ( #83, #156 ) ;
#39 = APPROVAL_ROLE ( '' ) ;
#40 = AXIS2_PLACEMENT_3D ( 'NONE', #186, #48, #30 ) ;
#41 = VECTOR ( 'NONE', #34, 1000.000000000000000 ) ;
#42 = CC_DESIGN_PERSON_AND_ORGANIZATION_ASSIGNMENT ( #99, #117, ( #248 ) ) ;
#43 = CALENDAR_DATE ( 2024, 6, 8 ) ;
#44 = PERSON_AND_ORGANIZATION_ROLE ( 'design_supplier' ) ;
#45 = LOCAL_TIME ( 11, 36, 20.00000000000000000, #141 ) ;
#46 = DIRECTION ( 'NONE',  ( 0.000000000000000000, 0.000000000000000000, -1.000000000000000000 ) ) ;
#47 = FACE_BOUND ( 'NONE', #193, .T. ) ;
#48 = DIRECTION ( 'NONE',  ( 0.000000000000000000, 1.000000000000000000, 0.000000000000000000 ) ) ;
#49 = CIRCLE ( 'NONE', #139, 134.7500000000000000 ) ;
#50 = EDGE_CURVE ( 'NONE', #220, #231, #233, .T. ) ;
#51 = DIRECTION ( 'NONE',  ( 0.000000000000000000, 0.000000000000000000, 1.000000000000000000 ) ) ;
#52 = PRODUCT ( '3D_R245_168.3_17386180', '3D_R245_168.3_17386180', '', ( #173 ) ) ;
#53 = AXIS2_PLACEMENT_3D ( 'NONE', #204, #184, #86 ) ;
#54 =( NAMED_UNIT ( * ) SI_UNIT ( $, .STERADIAN. ) SOLID_ANGLE_UNIT ( ) );
#55 = APPLICATION_PROTOCOL_DEFINITION ( 'international standard', 'config_control_design', 1994, #116 ) ;
#56 = CARTESIAN_POINT ( 'NONE',  ( 1.650211561851058646E-14, 0.000000000000000000, 134.7500000000000000 ) ) ;
#57 = CC_DESIGN_APPROVAL ( #31, ( #248 ) ) ;
#58 = EDGE_CURVE ( 'NONE', #27, #230, #225, .T. ) ;
#59 = APPROVAL_DATE_TIME ( #213, #130 ) ;
#60 = ADVANCED_BREP_SHAPE_REPRESENTATION ( '3D_R245_168.3_17386180', ( #174, #222 ), #28 ) ;
#61 = CALENDAR_DATE ( 2024, 6, 8 ) ;
#62 = EDGE_CURVE ( 'NONE', #163, #231, #107, .T. ) ;
#63 = DATE_AND_TIME ( #18, #45 ) ;
#64 = COORDINATED_UNIVERSAL_TIME_OFFSET ( 1, 0, .AHEAD. ) ;
#65 = ORIENTED_EDGE ( 'NONE', *, *, #148, .F. ) ;
#66 = VERTEX_POINT ( 'NONE', #128 ) ;
#67 = PRODUCT_RELATED_PRODUCT_CATEGORY ( 'detail', '', ( #52 ) ) ;
#68 = EDGE_LOOP ( 'NONE', ( #2, #217, #214, #196 ) ) ;
#69 = FACE_OUTER_BOUND ( 'NONE', #147, .T. ) ;
#70 = LOCAL_TIME ( 11, 36, 20.00000000000000000, #78 ) ;
#71 = CYLINDRICAL_SURFACE ( 'NONE', #143, 84.75000000000001421 ) ;
#72 = DIRECTION ( 'NONE',  ( 0.000000000000000000, 0.000000000000000000, -1.000000000000000000 ) ) ;
#73 = DIRECTION ( 'NONE',  ( 0.000000000000000000, 1.000000000000000000, 0.000000000000000000 ) ) ;
#74 = AXIS2_PLACEMENT_3D ( 'NONE', #125, #109, #201 ) ;
#75 = LINE ( 'NONE', #135, #76 ) ;
#76 = VECTOR ( 'NONE', #224, 1000.000000000000000 ) ;
#77 = ADVANCED_FACE ( 'NONE', ( #69, #47 ), #123, .T. ) ;
#78 = COORDINATED_UNIVERSAL_TIME_OFFSET ( 1, 0, .AHEAD. ) ;
#79 = CC_DESIGN_SECURITY_CLASSIFICATION ( #236, ( #248 ) ) ;
#80 = DATE_TIME_ROLE ( 'classification_date' ) ;
#81 = CC_DESIGN_APPROVAL ( #216, ( #8 ) ) ;
#82 = PERSON_AND_ORGANIZATION_ROLE ( 'design_owner' ) ;
#83 = PERSON ( 'UNSPECIFIED', 'UNSPECIFIED', 'UNSPECIFIED', ('UNSPECIFIED'), ('UNSPECIFIED'), ('UNSPECIFIED') ) ;
#84 = EDGE_LOOP ( 'NONE', ( #24, #98 ) ) ;
#85 = EDGE_CURVE ( 'NONE', #231, #163, #183, .T. ) ;
#86 = DIRECTION ( 'NONE',  ( 0.000000000000000000, 0.000000000000000000, -1.000000000000000000 ) ) ;
#87 = CIRCLE ( 'NONE', #164, 134.7500000000000000 ) ;
#88 = CARTESIAN_POINT ( 'NONE',  ( 1.650211561851058646E-14, 4.000000000000000000, 134.7500000000000000 ) ) ;
#89 = ORIENTED_EDGE ( 'NONE', *, *, #194, .T. ) ;
#90 = FACE_OUTER_BOUND ( 'NONE', #142, .T. ) ;
#91 = DIRECTION ( 'NONE',  ( 0.000000000000000000, 1.000000000000000000, 0.000000000000000000 ) ) ;
#92 = FACE_BOUND ( 'NONE', #84, .T. ) ;
#93 = LOCAL_TIME ( 11, 36, 20.00000000000000000, #176 ) ;
#94 = DIRECTION ( 'NONE',  ( 0.000000000000000000, 1.000000000000000000, 0.000000000000000000 ) ) ;
#95 = DIRECTION ( 'NONE',  ( 0.000000000000000000, 0.000000000000000000, 1.000000000000000000 ) ) ;
#96 = FACE_OUTER_BOUND ( 'NONE', #68, .T. ) ;
#97 = DIRECTION ( 'NONE',  ( 1.000000000000000000, 0.000000000000000000, 0.000000000000000000 ) ) ;
#98 = ORIENTED_EDGE ( 'NONE', *, *, #85, .T. ) ;
#99 = PERSON_AND_ORGANIZATION ( #83, #156 ) ;
#100 = ORIENTED_EDGE ( 'NONE', *, *, #50, .T. ) ;
#101 = SECURITY_CLASSIFICATION_LEVEL ( 'unclassified' ) ;
#102 = EDGE_CURVE ( 'NONE', #121, #230, #5, .T. ) ;
#103 = DIRECTION ( 'NONE',  ( 0.000000000000000000, 0.000000000000000000, 1.000000000000000000 ) ) ;
#104 = CARTESIAN_POINT ( 'NONE',  ( 1.037888162277381958E-14, 4.000000000000000000, 84.75000000000001421 ) ) ;
#105 = ADVANCED_FACE ( 'NONE', ( #7 ), #108, .F. ) ;
#106 = EDGE_LOOP ( 'NONE', ( #181, #200, #215, #198 ) ) ;
#107 = CIRCLE ( 'NONE', #153, 84.75000000000001421 ) ;
#108 = CYLINDRICAL_SURFACE ( 'NONE', #119, 84.75000000000001421 ) ;
#109 = DIRECTION ( 'NONE',  ( 0.000000000000000000, 1.000000000000000000, 0.000000000000000000 ) ) ;
#110 =( LENGTH_UNIT ( ) NAMED_UNIT ( * ) SI_UNIT ( .MILLI., .METRE. ) );
#111 = CC_DESIGN_PERSON_AND_ORGANIZATION_ASSIGNMENT ( #180, #15, ( #236 ) ) ;
#112 = CARTESIAN_POINT ( 'NONE',  ( 1.037888162277381958E-14, 0.000000000000000000, 84.75000000000001421 ) ) ;
#113 = LOCAL_TIME ( 11, 36, 20.00000000000000000, #249 ) ;
#114 = CC_DESIGN_PERSON_AND_ORGANIZATION_ASSIGNMENT ( #120, #82, ( #52 ) ) ;
#115 = APPROVAL_DATE_TIME ( #118, #31 ) ;
#116 = APPLICATION_CONTEXT ( 'configuration controlled 3d designs of mechanical parts and assemblies' ) ;
#117 = PERSON_AND_ORGANIZATION_ROLE ( 'creator' ) ;
#118 = DATE_AND_TIME ( #22, #70 ) ;
#119 = AXIS2_PLACEMENT_3D ( 'NONE', #168, #235, #72 ) ;
#120 = PERSON_AND_ORGANIZATION ( #83, #156 ) ;
#121 = VERTEX_POINT ( 'NONE', #223 ) ;
#122 = PERSON_AND_ORGANIZATION ( #83, #156 ) ;
#123 = PLANE ( 'NONE',  #40 ) ;
#124 = DIRECTION ( 'NONE',  ( 0.000000000000000000, 0.000000000000000000, 1.000000000000000000 ) ) ;
#125 = CARTESIAN_POINT ( 'NONE',  ( 0.000000000000000000, 0.000000000000000000, 0.000000000000000000 ) ) ;
#126 = CARTESIAN_POINT ( 'NONE',  ( 0.000000000000000000, 0.000000000000000000, -134.7500000000000000 ) ) ;
#127 = AXIS2_PLACEMENT_3D ( 'NONE', #129, #73, #239 ) ;
#128 = CARTESIAN_POINT ( 'NONE',  ( 0.000000000000000000, 4.000000000000000000, -84.75000000000001421 ) ) ;
#129 = CARTESIAN_POINT ( 'NONE',  ( 0.000000000000000000, 0.000000000000000000, 0.000000000000000000 ) ) ;
#130 = APPROVAL ( #138, 'UNSPECIFIED' ) ;
#131 = DIRECTION ( 'NONE',  ( 0.000000000000000000, 0.000000000000000000, 1.000000000000000000 ) ) ;
#132 = DIRECTION ( 'NONE',  ( 0.000000000000000000, 0.000000000000000000, 1.000000000000000000 ) ) ;
#133 = CC_DESIGN_DATE_AND_TIME_ASSIGNMENT ( #136, #36, ( #8 ) ) ;
#134 = DESIGN_CONTEXT ( 'detailed design', #205, 'design' ) ;
#135 = CARTESIAN_POINT ( 'NONE',  ( 0.000000000000000000, 4.000000000000000000, -84.75000000000001421 ) ) ;
#136 = DATE_AND_TIME ( #43, #113 ) ;
#137 = ORIENTED_EDGE ( 'NONE', *, *, #172, .T. ) ;
#138 = APPROVAL_STATUS ( 'not_yet_approved' ) ;
#139 = AXIS2_PLACEMENT_3D ( 'NONE', #151, #94, #95 ) ;
#140 = EDGE_LOOP ( 'NONE', ( #26, #178, #89, #212 ) ) ;
#141 = COORDINATED_UNIVERSAL_TIME_OFFSET ( 1, 0, .AHEAD. ) ;
#142 = EDGE_LOOP ( 'NONE', ( #16, #100, #149, #165 ) ) ;
#143 = AXIS2_PLACEMENT_3D ( 'NONE', #6, #144, #46 ) ;
#144 = DIRECTION ( 'NONE',  ( -0.000000000000000000, -1.000000000000000000, -0.000000000000000000 ) ) ;
#145 = CARTESIAN_POINT ( 'NONE',  ( 0.000000000000000000, 0.000000000000000000, 0.000000000000000000 ) ) ;
#146 = CARTESIAN_POINT ( 'NONE',  ( 0.000000000000000000, 0.000000000000000000, 0.000000000000000000 ) ) ;
#147 = EDGE_LOOP ( 'NONE', ( #162, #137 ) ) ;
#148 = EDGE_CURVE ( 'NONE', #220, #66, #203, .T. ) ;
#149 = ORIENTED_EDGE ( 'NONE', *, *, #62, .F. ) ;
#150 =( NAMED_UNIT ( * ) PLANE_ANGLE_UNIT ( ) SI_UNIT ( $, .RADIAN. ) );
#151 = CARTESIAN_POINT ( 'NONE',  ( 0.000000000000000000, 4.000000000000000000, 0.000000000000000000 ) ) ;
#152 = EDGE_CURVE ( 'NONE', #244, #121, #49, .T. ) ;
#153 = AXIS2_PLACEMENT_3D ( 'NONE', #145, #29, #182 ) ;
#154 = AXIS2_PLACEMENT_3D ( 'NONE', #171, #91, #131 ) ;
#155 = CC_DESIGN_APPROVAL ( #130, ( #236 ) ) ;
#156 = ORGANIZATION ( 'UNSPECIFIED', 'UNSPECIFIED', '' ) ;
#157 = PERSON_AND_ORGANIZATION ( #83, #156 ) ;
#158 = SHAPE_DEFINITION_REPRESENTATION ( #32, #60 ) ;
#159 = EDGE_CURVE ( 'NONE', #66, #220, #169, .T. ) ;
#160 = CALENDAR_DATE ( 2024, 6, 8 ) ;
#161 = AXIS2_PLACEMENT_3D ( 'NONE', #199, #25, #103 ) ;
#162 = ORIENTED_EDGE ( 'NONE', *, *, #152, .T. ) ;
#163 = VERTEX_POINT ( 'NONE', #187 ) ;
#164 = AXIS2_PLACEMENT_3D ( 'NONE', #221, #3, #124 ) ;
#165 = ORIENTED_EDGE ( 'NONE', *, *, #237, .F. ) ;
#166 = CYLINDRICAL_SURFACE ( 'NONE', #53, 134.7500000000000000 ) ;
#167 = ORIENTED_EDGE ( 'NONE', *, *, #159, .F. ) ;
#168 = CARTESIAN_POINT ( 'NONE',  ( 0.000000000000000000, 4.000000000000000000, 0.000000000000000000 ) ) ;
#169 = CIRCLE ( 'NONE', #14, 84.75000000000001421 ) ;
#170 = CARTESIAN_POINT ( 'NONE',  ( 0.000000000000000000, 4.000000000000000000, 0.000000000000000000 ) ) ;
#171 = CARTESIAN_POINT ( 'NONE',  ( 0.000000000000000000, 4.000000000000000000, 0.000000000000000000 ) ) ;
#172 = EDGE_CURVE ( 'NONE', #121, #244, #4, .T. ) ;
#173 = MECHANICAL_CONTEXT ( 'NONE', #116, 'mechanical' ) ;
#174 = MANIFOLD_SOLID_BREP ( 'Aufsatz-Linear austragen1', #20 ) ;
#175 = AXIS2_PLACEMENT_3D ( 'NONE', #146, #218, #51 ) ;
#176 = COORDINATED_UNIVERSAL_TIME_OFFSET ( 1, 0, .AHEAD. ) ;
#177 = APPROVAL_DATE_TIME ( #191, #216 ) ;
#178 = ORIENTED_EDGE ( 'NONE', *, *, #152, .F. ) ;
#179 = CC_DESIGN_PERSON_AND_ORGANIZATION_ASSIGNMENT ( #122, #197, ( #8 ) ) ;
#180 = PERSON_AND_ORGANIZATION ( #83, #156 ) ;
#181 = ORIENTED_EDGE ( 'NONE', *, *, #50, .F. ) ;
#182 = DIRECTION ( 'NONE',  ( 0.000000000000000000, 0.000000000000000000, 1.000000000000000000 ) ) ;
#183 = CIRCLE ( 'NONE', #74, 84.75000000000001421 ) ;
#184 = DIRECTION ( 'NONE',  ( -0.000000000000000000, -1.000000000000000000, -0.000000000000000000 ) ) ;
#185 = EDGE_LOOP ( 'NONE', ( #19, #247 ) ) ;
#186 = CARTESIAN_POINT ( 'NONE',  ( 0.000000000000000000, 4.000000000000000000, 0.000000000000000000 ) ) ;
#187 = CARTESIAN_POINT ( 'NONE',  ( 0.000000000000000000, 0.000000000000000000, -84.75000000000001421 ) ) ;
#188 = CARTESIAN_POINT ( 'NONE',  ( 0.000000000000000000, 4.000000000000000000, 0.000000000000000000 ) ) ;
#189 = APPROVAL_PERSON_ORGANIZATION ( #23, #216, #243 ) ;
#190 = CYLINDRICAL_SURFACE ( 'NONE', #229, 134.7500000000000000 ) ;
#191 = DATE_AND_TIME ( #61, #13 ) ;
#192 = APPROVAL_ROLE ( '' ) ;
#193 = EDGE_LOOP ( 'NONE', ( #167, #65 ) ) ;
#194 = EDGE_CURVE ( 'NONE', #244, #27, #10, .T. ) ;
#195 = DIRECTION ( 'NONE',  ( 0.000000000000000000, 0.000000000000000000, 1.000000000000000000 ) ) ;
#196 = ORIENTED_EDGE ( 'NONE', *, *, #194, .F. ) ;
#197 = PERSON_AND_ORGANIZATION_ROLE ( 'creator' ) ;
#198 = ORIENTED_EDGE ( 'NONE', *, *, #85, .F. ) ;
#199 = CARTESIAN_POINT ( 'NONE',  ( 0.000000000000000000, 4.000000000000000000, 0.000000000000000000 ) ) ;
#200 = ORIENTED_EDGE ( 'NONE', *, *, #148, .T. ) ;
#201 = DIRECTION ( 'NONE',  ( 0.000000000000000000, 0.000000000000000000, 1.000000000000000000 ) ) ;
#202 = DIRECTION ( 'NONE',  ( -0.000000000000000000, -1.000000000000000000, -0.000000000000000000 ) ) ;
#203 = CIRCLE ( 'NONE', #161, 84.75000000000001421 ) ;
#204 = CARTESIAN_POINT ( 'NONE',  ( 0.000000000000000000, 4.000000000000000000, 0.000000000000000000 ) ) ;
#205 = APPLICATION_CONTEXT ( 'configuration controlled 3d designs of mechanical parts and assemblies' ) ;
#206 = PLANE ( 'NONE',  #127 ) ;
#207 = CARTESIAN_POINT ( 'NONE',  ( 1.037888162277381958E-14, 4.000000000000000000, 84.75000000000001421 ) ) ;
#208 = CARTESIAN_POINT ( 'NONE',  ( 0.000000000000000000, 4.000000000000000000, -134.7500000000000000 ) ) ;
#209 = ADVANCED_FACE ( 'NONE', ( #96 ), #190, .T. ) ;
#210 = APPLICATION_PROTOCOL_DEFINITION ( 'international standard', 'config_control_design', 1994, #205 ) ;
#211 = APPROVAL_STATUS ( 'not_yet_approved' ) ;
#212 = ORIENTED_EDGE ( 'NONE', *, *, #58, .T. ) ;
#213 = DATE_AND_TIME ( #160, #93 ) ;
#214 = ORIENTED_EDGE ( 'NONE', *, *, #12, .T. ) ;
#215 = ORIENTED_EDGE ( 'NONE', *, *, #237, .T. ) ;
#216 = APPROVAL ( #21, 'UNSPECIFIED' ) ;
#217 = ORIENTED_EDGE ( 'NONE', *, *, #102, .T. ) ;
#218 = DIRECTION ( 'NONE',  ( 0.000000000000000000, 1.000000000000000000, 0.000000000000000000 ) ) ;
#219 = ADVANCED_FACE ( 'NONE', ( #9, #92 ), #206, .F. ) ;
#220 = VERTEX_POINT ( 'NONE', #207 ) ;
#221 = CARTESIAN_POINT ( 'NONE',  ( 0.000000000000000000, 0.000000000000000000, 0.000000000000000000 ) ) ;
#222 = AXIS2_PLACEMENT_3D ( 'NONE', #246, #195, #97 ) ;
#223 = CARTESIAN_POINT ( 'NONE',  ( 1.650211561851058646E-14, 4.000000000000000000, 134.7500000000000000 ) ) ;
#224 = DIRECTION ( 'NONE',  ( -0.000000000000000000, -1.000000000000000000, -0.000000000000000000 ) ) ;
#225 = CIRCLE ( 'NONE', #175, 134.7500000000000000 ) ;
#226 = UNCERTAINTY_MEASURE_WITH_UNIT (LENGTH_MEASURE( 1.000000000000000082E-05 ), #110, 'distance_accuracy_value', 'NONE');
#227 = DIRECTION ( 'NONE',  ( 0.000000000000000000, 0.000000000000000000, -1.000000000000000000 ) ) ;
#228 = PERSON_AND_ORGANIZATION ( #83, #156 ) ;
#229 = AXIS2_PLACEMENT_3D ( 'NONE', #170, #242, #227 ) ;
#230 = VERTEX_POINT ( 'NONE', #56 ) ;
#231 = VERTEX_POINT ( 'NONE', #112 ) ;
#232 = DIRECTION ( 'NONE',  ( -0.000000000000000000, -1.000000000000000000, -0.000000000000000000 ) ) ;
#233 = LINE ( 'NONE', #104, #33 ) ;
#234 = FACE_OUTER_BOUND ( 'NONE', #140, .T. ) ;
#235 = DIRECTION ( 'NONE',  ( -0.000000000000000000, -1.000000000000000000, -0.000000000000000000 ) ) ;
#236 = SECURITY_CLASSIFICATION ( '', '', #101 ) ;
#237 = EDGE_CURVE ( 'NONE', #66, #163, #75, .T. ) ;
#238 = DIRECTION ( 'NONE',  ( 0.000000000000000000, 1.000000000000000000, 0.000000000000000000 ) ) ;
#239 = DIRECTION ( 'NONE',  ( 0.000000000000000000, -0.000000000000000000, 1.000000000000000000 ) ) ;
#240 = VECTOR ( 'NONE', #202, 1000.000000000000000 ) ;
#241 = CC_DESIGN_PERSON_AND_ORGANIZATION_ASSIGNMENT ( #157, #44, ( #248 ) ) ;
#242 = DIRECTION ( 'NONE',  ( -0.000000000000000000, -1.000000000000000000, -0.000000000000000000 ) ) ;
#243 = APPROVAL_ROLE ( '' ) ;
#244 = VERTEX_POINT ( 'NONE', #208 ) ;
#245 = APPROVAL_PERSON_ORGANIZATION ( #228, #130, #192 ) ;
#246 = CARTESIAN_POINT ( 'NONE',  ( 0.000000000000000000, 0.000000000000000000, 0.000000000000000000 ) ) ;
#247 = ORIENTED_EDGE ( 'NONE', *, *, #12, .F. ) ;
#248 = PRODUCT_DEFINITION_FORMATION_WITH_SPECIFIED_SOURCE ( 'ANY', '', #52, .NOT_KNOWN. ) ;
#249 = COORDINATED_UNIVERSAL_TIME_OFFSET ( 1, 0, .AHEAD. ) ;
ENDSEC;
END-ISO-10303-21;
