ISO-10303-21;
HEADER;
FILE_DESCRIPTION (( 'STEP AP203' ),
    '1' );
FILE_NAME ('6018279_OSTP.step',
    '2024-03-20T08:45:46',
    ( '' ),
    ( '' ),
    'SwSTEP 2.0',
    'SolidWorks 2014',
    '' );
FILE_SCHEMA (( 'CONFIG_CONTROL_DESIGN' ));
ENDSEC;

DATA;
#1 = DIRECTION ( 'NONE',  ( 1.000000000000000000, -1.982489495665708100E-016, 0.0000000000000000000 ) ) ;
#2 = ORIENTED_EDGE ( 'NONE', *, *, #79, .F. ) ;
#3 = CARTESIAN_POINT ( 'NONE',  ( -154.0000000000000300, 8.000000000000076400, 0.0000000000000000000 ) ) ;
#4 = ADVANCED_BREP_SHAPE_REPRESENTATION ( '6018279_OSTP', ( #318, #88 ), #402 ) ;
#5 = DIRECTION ( 'NONE',  ( -1.000000000000000000, 1.982489495665708400E-016, 0.0000000000000000000 ) ) ;
#6 = CARTESIAN_POINT ( 'NONE',  ( 7.929957982662913300E-016, 4.000000000000043500, 0.0000000000000000000 ) ) ;
#7 = FACE_BOUND ( 'NONE', #329, .T. ) ;
#8 = CARTESIAN_POINT ( 'NONE',  ( -150.0000000000000900, 1.511679857533621400E-013, 0.0000000000000000000 ) ) ;
#9 = DIRECTION ( 'NONE',  ( -1.982489495665708100E-016, -1.000000000000000000, 0.0000000000000000000 ) ) ;
#10 = ORIENTED_EDGE ( 'NONE', *, *, #335, .F. ) ;
#11 = EDGE_CURVE ( 'NONE', #374, #55, #215, .T. ) ;
#12 = CARTESIAN_POINT ( 'NONE',  ( 180.0000000000000000, 1.100319610600690500E-013, 0.0000000000000000000 ) ) ;
#13 = CIRCLE ( 'NONE', #172, 150.0000000000000900 ) ;
#14 = ORIENTED_EDGE ( 'NONE', *, *, #350, .T. ) ;
#15 = CARTESIAN_POINT ( 'NONE',  ( 2.850376317693109100E-029, 1.457167719820518000E-013, 0.0000000000000000000 ) ) ;
#16 = AXIS2_PLACEMENT_3D ( 'NONE', #64, #31, #33 ) ;
#17 = DIRECTION ( 'NONE',  ( 1.000000000000000000, -1.971276677246371800E-016, 0.0000000000000000000 ) ) ;
#18 = ADVANCED_FACE ( 'NONE', ( #91 ), #168, .F. ) ;
#19 = EDGE_LOOP ( 'NONE', ( #114, #279 ) ) ;
#20 = ORIENTED_EDGE ( 'NONE', *, *, #286, .F. ) ;
#21 = DIRECTION ( 'NONE',  ( 1.982489495665708100E-016, 1.000000000000000000, -0.0000000000000000000 ) ) ;
#22 = COORDINATED_UNIVERSAL_TIME_OFFSET ( 1, 0, .AHEAD. ) ;
#23 = PERSON_AND_ORGANIZATION ( #173, #356 ) ;
#24 = ORIENTED_EDGE ( 'NONE', *, *, #232, .F. ) ;
#25 = DIRECTION ( 'NONE',  ( 0.0000000000000000000, -0.0000000000000000000, -1.000000000000000000 ) ) ;
#26 = ADVANCED_FACE ( 'NONE', ( #254, #7 ), #234, .F. ) ;
#27 = AXIS2_PLACEMENT_3D ( 'NONE', #134, #137, #162 ) ;
#28 =( LENGTH_UNIT ( ) NAMED_UNIT ( * ) SI_UNIT ( .MILLI., .METRE. ) );
#29 = DIRECTION ( 'NONE',  ( 1.000000000000000000, -1.976267251112817900E-016, 0.0000000000000000000 ) ) ;
#30 = CARTESIAN_POINT ( 'NONE',  ( 180.0000000000000000, 9.802799108679081900E-014, 0.0000000000000000000 ) ) ;
#31 = DIRECTION ( 'NONE',  ( 1.982489495665708100E-016, 1.000000000000000000, -0.0000000000000000000 ) ) ;
#32 = CIRCLE ( 'NONE', #150, 154.0000000000000300 ) ;
#33 = DIRECTION ( 'NONE',  ( 1.000000000000000000, -2.027598868024839000E-016, 0.0000000000000000000 ) ) ;
#34 = APPROVAL_ROLE ( '' ) ;
#35 = TOROIDAL_SURFACE ( 'NONE', #61, 150.0000000000000300, 4.000000000000000000 ) ;
#36 = CARTESIAN_POINT ( 'NONE',  ( -154.0000000000000300, 28.00000000000000400, 0.0000000000000000000 ) ) ;
#37 = AXIS2_PLACEMENT_3D ( 'NONE', #211, #260, #107 ) ;
#38 = LINE ( 'NONE', #249, #197 ) ;
#39 = CARTESIAN_POINT ( 'NONE',  ( 5.550970587863977100E-015, 27.99999999999997200, 0.0000000000000000000 ) ) ;
#40 = CALENDAR_DATE ( 2024, 20, 3 ) ;
#41 = AXIS2_PLACEMENT_3D ( 'NONE', #63, #310, #1 ) ;
#42 = AXIS2_PLACEMENT_3D ( 'NONE', #39, #104, #250 ) ;
#43 = ORIENTED_EDGE ( 'NONE', *, *, #92, .T. ) ;
#44 = EDGE_LOOP ( 'NONE', ( #333, #304, #118, #320 ) ) ;
#45 = AXIS2_PLACEMENT_3D ( 'NONE', #373, #342, #98 ) ;
#46 = APPROVAL_PERSON_ORGANIZATION ( #112, #244, #34 ) ;
#47 = CYLINDRICAL_SURFACE ( 'NONE', #27, 154.0000000000000300 ) ;
#48 = AXIS2_PLACEMENT_3D ( 'NONE', #298, #360, #230 ) ;
#49 = DIRECTION ( 'NONE',  ( 1.000000000000000000, -1.982489495665708400E-016, 0.0000000000000000000 ) ) ;
#50 = DATE_AND_TIME ( #321, #83 ) ;
#51 = VERTEX_POINT ( 'NONE', #331 ) ;
#52 = ORIENTED_EDGE ( 'NONE', *, *, #157, .T. ) ;
#53 = DIRECTION ( 'NONE',  ( 1.982489495665708100E-016, 1.000000000000000000, -0.0000000000000000000 ) ) ;
#54 = PERSON_AND_ORGANIZATION ( #173, #356 ) ;
#55 = VERTEX_POINT ( 'NONE', #245 ) ;
#56 = PERSON_AND_ORGANIZATION_ROLE ( 'classification_officer' ) ;
#57 = SECURITY_CLASSIFICATION_LEVEL ( 'unclassified' ) ;
#58 = CARTESIAN_POINT ( 'NONE',  ( 1.585991596532574800E-015, 8.000000000000044400, 0.0000000000000000000 ) ) ;
#59 = VERTEX_POINT ( 'NONE', #262 ) ;
#60 = DATE_TIME_ROLE ( 'creation_date' ) ;
#61 = AXIS2_PLACEMENT_3D ( 'NONE', #353, #394, #328 ) ;
#62 = TOROIDAL_SURFACE ( 'NONE', #257, 158.0000000000000300, 4.000000000000000000 ) ;
#63 = CARTESIAN_POINT ( 'NONE',  ( 8.474091755303837800E-030, 4.510281037539698400E-014, 0.0000000000000000000 ) ) ;
#64 = CARTESIAN_POINT ( 'NONE',  ( 1.585991596532574800E-015, 8.000000000000044400, 0.0000000000000000000 ) ) ;
#65 = DIRECTION ( 'NONE',  ( 1.982489495665708100E-016, 1.000000000000000000, -0.0000000000000000000 ) ) ;
#66 = PERSON_AND_ORGANIZATION_ROLE ( 'creator' ) ;
#67 = EDGE_CURVE ( 'NONE', #225, #59, #401, .T. ) ;
#68 = CARTESIAN_POINT ( 'NONE',  ( 150.0000000000000300, 23.99999999999998200, 0.0000000000000000000 ) ) ;
#69 = ORIENTED_EDGE ( 'NONE', *, *, #67, .T. ) ;
#70 = DIRECTION ( 'NONE',  ( 1.982489495665708100E-016, 1.000000000000000000, -0.0000000000000000000 ) ) ;
#71 = CARTESIAN_POINT ( 'NONE',  ( 1.585991596532574800E-015, 8.000000000000044400, 0.0000000000000000000 ) ) ;
#72 = APPROVAL_DATE_TIME ( #50, #276 ) ;
#73 = DIRECTION ( 'NONE',  ( 1.000000000000000000, -1.971276677246371800E-016, 0.0000000000000000000 ) ) ;
#74 = ORIENTED_EDGE ( 'NONE', *, *, #385, .F. ) ;
#75 = TOROIDAL_SURFACE ( 'NONE', #41, 176.0000000000000000, 4.000000000000000000 ) ;
#76 = AXIS2_PLACEMENT_3D ( 'NONE', #222, #371, #339 ) ;
#77 = ORIENTED_EDGE ( 'NONE', *, *, #138, .T. ) ;
#78 = EDGE_LOOP ( 'NONE', ( #163, #77, #125, #135 ) ) ;
#79 = EDGE_CURVE ( 'NONE', #192, #291, #239, .T. ) ;
#80 = CALENDAR_DATE ( 2024, 20, 3 ) ;
#81 = CARTESIAN_POINT ( 'NONE',  ( 8.474091755303837800E-030, 4.510281037539698400E-014, 0.0000000000000000000 ) ) ;
#82 = ORIENTED_EDGE ( 'NONE', *, *, #307, .T. ) ;
#83 = LOCAL_TIME ( 9, 45, 46.00000000000000000, #404 ) ;
#84 = CIRCLE ( 'NONE', #226, 180.0000000000000000 ) ;
#85 = AXIS2_PLACEMENT_3D ( 'NONE', #354, #391, #189 ) ;
#86 = CIRCLE ( 'NONE', #340, 180.0000000000000000 ) ;
#87 = VERTEX_POINT ( 'NONE', #377 ) ;
#88 = AXIS2_PLACEMENT_3D ( 'NONE', #217, #246, #273 ) ;
#89 = APPROVAL_STATUS ( 'not_yet_approved' ) ;
#90 = PRODUCT_RELATED_PRODUCT_CATEGORY ( 'detail', '', ( #366 ) ) ;
#91 = FACE_OUTER_BOUND ( 'NONE', #223, .T. ) ;
#92 = EDGE_CURVE ( 'NONE', #87, #141, #231, .T. ) ;
#93 = APPROVAL_STATUS ( 'not_yet_approved' ) ;
#94 = FACE_OUTER_BOUND ( 'NONE', #261, .T. ) ;
#95 = DIRECTION ( 'NONE',  ( -1.000000000000000000, 1.982489495665708100E-016, 0.0000000000000000000 ) ) ;
#96 = APPLICATION_CONTEXT ( 'configuration controlled 3d designs of mechanical parts and assemblies' ) ;
#97 = ORIENTED_EDGE ( 'NONE', *, *, #385, .T. ) ;
#98 = DIRECTION ( 'NONE',  ( -1.000000000000000000, 0.0000000000000000000, 0.0000000000000000000 ) ) ;
#99 = CARTESIAN_POINT ( 'NONE',  ( 2.388153131040172500E-029, 1.214306433183765000E-013, 0.0000000000000000000 ) ) ;
#100 = PERSON_AND_ORGANIZATION ( #173, #356 ) ;
#101 = DIRECTION ( 'NONE',  ( 1.224646799147353200E-016, -2.427849415210259900E-032, 1.000000000000000000 ) ) ;
#102 = SECURITY_CLASSIFICATION ( '', '', #57 ) ;
#103 = EDGE_CURVE ( 'NONE', #141, #87, #32, .T. ) ;
#104 = DIRECTION ( 'NONE',  ( 1.982489495665708100E-016, 1.000000000000000000, -0.0000000000000000000 ) ) ;
#105 = CIRCLE ( 'NONE', #364, 4.000000000000003600 ) ;
#106 = DIRECTION ( 'NONE',  ( -1.000000000000000000, 0.0000000000000000000, 0.0000000000000000000 ) ) ;
#107 = DIRECTION ( 'NONE',  ( 1.000000000000000000, 0.0000000000000000000, -1.224646799147349500E-016 ) ) ;
#108 = CC_DESIGN_APPROVAL ( #244, ( #397 ) ) ;
#109 = AXIS2_PLACEMENT_3D ( 'NONE', #81, #330, #170 ) ;
#110 = ORIENTED_EDGE ( 'NONE', *, *, #350, .F. ) ;
#111 = EDGE_CURVE ( 'NONE', #305, #147, #158, .T. ) ;
#112 = PERSON_AND_ORGANIZATION ( #173, #356 ) ;
#113 = FACE_OUTER_BOUND ( 'NONE', #204, .T. ) ;
#114 = ORIENTED_EDGE ( 'NONE', *, *, #131, .T. ) ;
#115 = DIRECTION ( 'NONE',  ( 1.982489495665708100E-016, 1.000000000000000000, -0.0000000000000000000 ) ) ;
#116 = DIRECTION ( 'NONE',  ( 1.000000000000000000, -1.982489495665708400E-016, 0.0000000000000000000 ) ) ;
#117 = ORIENTED_EDGE ( 'NONE', *, *, #201, .T. ) ;
#118 = ORIENTED_EDGE ( 'NONE', *, *, #335, .T. ) ;
#119 = FACE_OUTER_BOUND ( 'NONE', #212, .T. ) ;
#120 = LOCAL_TIME ( 9, 45, 46.00000000000000000, #282 ) ;
#121 = CARTESIAN_POINT ( 'NONE',  ( 5.550970587863977100E-015, 27.99999999999997200, 0.0000000000000000000 ) ) ;
#122 = EDGE_CURVE ( 'NONE', #219, #147, #355, .T. ) ;
#123 = CIRCLE ( 'NONE', #48, 150.0000000000000900 ) ;
#124 = ADVANCED_FACE ( 'NONE', ( #301 ), #259, .F. ) ;
#125 = ORIENTED_EDGE ( 'NONE', *, *, #111, .T. ) ;
#126 = MECHANICAL_CONTEXT ( 'NONE', #160, 'mechanical' ) ;
#127 = ORIENTED_EDGE ( 'NONE', *, *, #232, .T. ) ;
#128 = EDGE_CURVE ( 'NONE', #297, #326, #86, .T. ) ;
#129 = TOROIDAL_SURFACE ( 'NONE', #182, 150.0000000000000300, 4.000000000000000000 ) ;
#130 = PERSON_AND_ORGANIZATION ( #173, #356 ) ;
#131 = EDGE_CURVE ( 'NONE', #55, #374, #235, .T. ) ;
#132 = DIRECTION ( 'NONE',  ( 1.982489495665708100E-016, 1.000000000000000000, -0.0000000000000000000 ) ) ;
#133 = LINE ( 'NONE', #36, #358 ) ;
#134 = CARTESIAN_POINT ( 'NONE',  ( 5.550970587863977100E-015, 27.99999999999997200, 0.0000000000000000000 ) ) ;
#135 = ORIENTED_EDGE ( 'NONE', *, *, #122, .F. ) ;
#136 = DIRECTION ( 'NONE',  ( 1.982489495665708100E-016, 1.000000000000000000, -0.0000000000000000000 ) ) ;
#137 = DIRECTION ( 'NONE',  ( 1.982489495665708100E-016, 1.000000000000000000, -0.0000000000000000000 ) ) ;
#138 = EDGE_CURVE ( 'NONE', #51, #305, #38, .T. ) ;
#139 = CARTESIAN_POINT ( 'NONE',  ( 150.0000000000001100, 27.99999999999996800, 1.836970198721031000E-014 ) ) ;
#140 = PERSON_AND_ORGANIZATION ( #173, #356 ) ;
#141 = VERTEX_POINT ( 'NONE', #3 ) ;
#142 = CARTESIAN_POINT ( 'NONE',  ( 4.757974789597702400E-015, 24.00000000000001400, 0.0000000000000000000 ) ) ;
#143 = ORIENTED_EDGE ( 'NONE', *, *, #157, .F. ) ;
#144 = EDGE_CURVE ( 'NONE', #147, #59, #270, .T. ) ;
#145 = CARTESIAN_POINT ( 'NONE',  ( 4.757974789597702400E-015, 24.00000000000001400, 0.0000000000000000000 ) ) ;
#146 = CARTESIAN_POINT ( 'NONE',  ( 154.0000000000000300, 27.99999999999994300, 1.885956070686924400E-014 ) ) ;
#147 = VERTEX_POINT ( 'NONE', #319 ) ;
#148 = CIRCLE ( 'NONE', #45, 4.000000000000003600 ) ;
#149 = CARTESIAN_POINT ( 'NONE',  ( 7.929957982662913300E-016, 4.000000000000043500, 0.0000000000000000000 ) ) ;
#150 = AXIS2_PLACEMENT_3D ( 'NONE', #58, #65, #325 ) ;
#151 = CARTESIAN_POINT ( 'NONE',  ( 154.0000000000000300, 4.000000000000013300, 0.0000000000000000000 ) ) ;
#152 = ORIENTED_EDGE ( 'NONE', *, *, #237, .T. ) ;
#153 = PRODUCT_DEFINITION ( 'UNKNOWN', '', #397, #361 ) ;
#154 = DATE_AND_TIME ( #390, #336 ) ;
#155 = DIRECTION ( 'NONE',  ( -1.000000000000000000, 0.0000000000000000000, 0.0000000000000000000 ) ) ;
#156 = ADVANCED_FACE ( 'NONE', ( #284 ), #47, .T. ) ;
#157 = EDGE_CURVE ( 'NONE', #147, #305, #184, .T. ) ;
#158 = CIRCLE ( 'NONE', #372, 150.0000000000001100 ) ;
#159 = APPROVAL_ROLE ( '' ) ;
#160 = APPLICATION_CONTEXT ( 'configuration controlled 3d designs of mechanical parts and assemblies' ) ;
#161 = APPROVAL_STATUS ( 'not_yet_approved' ) ;
#162 = DIRECTION ( 'NONE',  ( -1.000000000000000000, 2.027598868024839000E-016, 0.0000000000000000000 ) ) ;
#163 = ORIENTED_EDGE ( 'NONE', *, *, #258, .F. ) ;
#164 = CARTESIAN_POINT ( 'NONE',  ( 154.0000000000000300, 23.99999999999998200, 1.885956070686924400E-014 ) ) ;
#165 = AXIS2_PLACEMENT_3D ( 'NONE', #142, #9, #296 ) ;
#166 = CARTESIAN_POINT ( 'NONE',  ( 2.850376317693109100E-029, 1.457167719820518000E-013, 0.0000000000000000000 ) ) ;
#167 = DIRECTION ( 'NONE',  ( 1.982489495665708100E-016, 1.000000000000000000, -0.0000000000000000000 ) ) ;
#168 = CYLINDRICAL_SURFACE ( 'NONE', #207, 150.0000000000000900 ) ;
#169 = FACE_OUTER_BOUND ( 'NONE', #44, .T. ) ;
#170 = DIRECTION ( 'NONE',  ( 1.000000000000000000, -1.982489495665708100E-016, 0.0000000000000000000 ) ) ;
#171 = FACE_OUTER_BOUND ( 'NONE', #247, .T. ) ;
#172 = AXIS2_PLACEMENT_3D ( 'NONE', #99, #132, #348 ) ;
#173 = PERSON ( 'UNSPECIFIED', 'UNSPECIFIED', 'UNSPECIFIED', ('UNSPECIFIED'), ('UNSPECIFIED'), ('UNSPECIFIED') ) ;
#174 = CARTESIAN_POINT ( 'NONE',  ( -180.0000000000000000, 1.814015829040345400E-013, 2.204364238465235800E-014 ) ) ;
#175 = ORIENTED_EDGE ( 'NONE', *, *, #274, .F. ) ;
#176 = UNCERTAINTY_MEASURE_WITH_UNIT (LENGTH_MEASURE( 1.000000000000000100E-005 ), #28, 'distance_accuracy_value', 'NONE');
#177 = AXIS2_PLACEMENT_3D ( 'NONE', #149, #21, #17 ) ;
#178 = APPROVAL_PERSON_ORGANIZATION ( #23, #276, #159 ) ;
#179 = VECTOR ( 'NONE', #136, 1000.000000000000000 ) ;
#180 = ORIENTED_EDGE ( 'NONE', *, *, #315, .F. ) ;
#181 = DATE_AND_TIME ( #287, #387 ) ;
#182 = AXIS2_PLACEMENT_3D ( 'NONE', #145, #362, #116 ) ;
#183 = DIRECTION ( 'NONE',  ( -1.982489495665708100E-016, -1.000000000000000000, 0.0000000000000000000 ) ) ;
#184 = CIRCLE ( 'NONE', #393, 150.0000000000001100 ) ;
#185 = ORIENTED_EDGE ( 'NONE', *, *, #11, .F. ) ;
#186 = DIRECTION ( 'NONE',  ( 1.000000000000000000, -1.982489495665708400E-016, 0.0000000000000000000 ) ) ;
#187 = CARTESIAN_POINT ( 'NONE',  ( 176.0000000000000000, 1.021099525168052200E-014, 0.0000000000000000000 ) ) ;
#188 = PERSON_AND_ORGANIZATION ( #173, #356 ) ;
#189 = DIRECTION ( 'NONE',  ( 1.000000000000000000, 0.0000000000000000000, -1.224646799147349500E-016 ) ) ;
#190 = ORIENTED_EDGE ( 'NONE', *, *, #237, .F. ) ;
#191 = DIRECTION ( 'NONE',  ( 1.982489495665708100E-016, 1.000000000000000000, -0.0000000000000000000 ) ) ;
#192 = VERTEX_POINT ( 'NONE', #379 ) ;
#193 = DIRECTION ( 'NONE',  ( -1.000000000000000000, 2.081668171172167000E-016, 0.0000000000000000000 ) ) ;
#194 = AXIS2_PLACEMENT_3D ( 'NONE', #71, #199, #49 ) ;
#195 = COORDINATED_UNIVERSAL_TIME_OFFSET ( 1, 0, .AHEAD. ) ;
#196 = CARTESIAN_POINT ( 'NONE',  ( -150.0000000000000300, 24.00000000000004600, 1.836970198721030100E-014 ) ) ;
#197 = VECTOR ( 'NONE', #289, 1000.000000000000000 ) ;
#198 = SHAPE_DEFINITION_REPRESENTATION ( #256, #4 ) ;
#199 = DIRECTION ( 'NONE',  ( -1.982489495665708100E-016, -1.000000000000000000, 0.0000000000000000000 ) ) ;
#200 = CC_DESIGN_SECURITY_CLASSIFICATION ( #102, ( #397 ) ) ;
#201 = EDGE_CURVE ( 'NONE', #219, #51, #13, .T. ) ;
#202 = DIRECTION ( 'NONE',  ( 1.982489495665708100E-016, 1.000000000000000000, -0.0000000000000000000 ) ) ;
#203 = ORIENTED_EDGE ( 'NONE', *, *, #274, .T. ) ;
#204 = EDGE_LOOP ( 'NONE', ( #180, #110, #255, #292 ) ) ;
#205 = TOROIDAL_SURFACE ( 'NONE', #109, 176.0000000000000000, 4.000000000000000000 ) ;
#206 = FACE_OUTER_BOUND ( 'NONE', #359, .T. ) ;
#207 = AXIS2_PLACEMENT_3D ( 'NONE', #121, #53, #334 ) ;
#208 = DIRECTION ( 'NONE',  ( -1.000000000000000000, 1.982489495665708400E-016, 0.0000000000000000000 ) ) ;
#209 = CC_DESIGN_PERSON_AND_ORGANIZATION_ASSIGNMENT ( #140, #278, ( #366 ) ) ;
#210 = DATE_AND_TIME ( #40, #236 ) ;
#211 = CARTESIAN_POINT ( 'NONE',  ( -176.0000000000000000, 7.999462549911345800E-014, 2.155378366499341400E-014 ) ) ;
#212 = EDGE_LOOP ( 'NONE', ( #185, #82, #228, #10 ) ) ;
#213 = VECTOR ( 'NONE', #115, 1000.000000000000000 ) ;
#214 = AXIS2_PLACEMENT_3D ( 'NONE', #313, #380, #283 ) ;
#215 = CIRCLE ( 'NONE', #177, 176.0000000000000000 ) ;
#216 = ADVANCED_FACE ( 'NONE', ( #206 ), #347, .T. ) ;
#217 = CARTESIAN_POINT ( 'NONE',  ( 0.0000000000000000000, 0.0000000000000000000, 0.0000000000000000000 ) ) ;
#218 = PERSON_AND_ORGANIZATION_ROLE ( 'creator' ) ;
#219 = VERTEX_POINT ( 'NONE', #8 ) ;
#220 = APPLICATION_PROTOCOL_DEFINITION ( 'international standard', 'config_control_design', 1994, #160 ) ;
#221 = PERSON_AND_ORGANIZATION ( #173, #356 ) ;
#222 = CARTESIAN_POINT ( 'NONE',  ( 4.757974789597702400E-015, 24.00000000000001400, 0.0000000000000000000 ) ) ;
#223 = EDGE_LOOP ( 'NONE', ( #376, #343, #227, #52 ) ) ;
#224 = AXIS2_PLACEMENT_3D ( 'NONE', #6, #167, #73 ) ;
#225 = VERTEX_POINT ( 'NONE', #164 ) ;
#226 = AXIS2_PLACEMENT_3D ( 'NONE', #15, #202, #208 ) ;
#227 = ORIENTED_EDGE ( 'NONE', *, *, #122, .T. ) ;
#228 = ORIENTED_EDGE ( 'NONE', *, *, #286, .T. ) ;
#229 = CC_DESIGN_DATE_AND_TIME_ASSIGNMENT ( #181, #60, ( #153 ) ) ;
#230 = DIRECTION ( 'NONE',  ( -1.000000000000000000, 1.982489495665707900E-016, 0.0000000000000000000 ) ) ;
#231 = CIRCLE ( 'NONE', #16, 154.0000000000000300 ) ;
#232 = EDGE_CURVE ( 'NONE', #141, #59, #133, .T. ) ;
#233 = FACE_BOUND ( 'NONE', #381, .T. ) ;
#234 = PLANE ( 'NONE',  #252 ) ;
#235 = CIRCLE ( 'NONE', #224, 176.0000000000000000 ) ;
#236 = LOCAL_TIME ( 9, 45, 46.00000000000000000, #267 ) ;
#237 = EDGE_CURVE ( 'NONE', #305, #225, #105, .T. ) ;
#238 = APPLICATION_PROTOCOL_DEFINITION ( 'international standard', 'config_control_design', 1994, #96 ) ;
#239 = CIRCLE ( 'NONE', #300, 158.0000000000000300 ) ;
#240 =( NAMED_UNIT ( * ) PLANE_ANGLE_UNIT ( ) SI_UNIT ( $, .RADIAN. ) );
#241 = DIRECTION ( 'NONE',  ( 1.000000000000000000, -1.982489495665708100E-016, 0.0000000000000000000 ) ) ;
#242 = LINE ( 'NONE', #146, #213 ) ;
#243 = CARTESIAN_POINT ( 'NONE',  ( -176.0000000000000000, 4.000000000000078200, 2.179871302482288800E-014 ) ) ;
#244 = APPROVAL ( #161, 'UNSPECIFIED' ) ;
#245 = CARTESIAN_POINT ( 'NONE',  ( 176.0000000000000000, 4.000000000000008900, 0.0000000000000000000 ) ) ;
#246 = DIRECTION ( 'NONE',  ( 0.0000000000000000000, 0.0000000000000000000, 1.000000000000000000 ) ) ;
#247 = EDGE_LOOP ( 'NONE', ( #143, #395, #264, #190 ) ) ;
#248 = AXIS2_PLACEMENT_3D ( 'NONE', #196, #101, #251 ) ;
#249 = CARTESIAN_POINT ( 'NONE',  ( 150.0000000000000900, 27.99999999999994300, 1.836970198721030700E-014 ) ) ;
#250 = DIRECTION ( 'NONE',  ( -1.000000000000000000, 2.027598868024839000E-016, 0.0000000000000000000 ) ) ;
#251 = DIRECTION ( 'NONE',  ( 1.000000000000000000, 0.0000000000000000000, -1.224646799147349500E-016 ) ) ;
#252 = AXIS2_PLACEMENT_3D ( 'NONE', #151, #367, #241 ) ;
#253 = PLANE ( 'NONE',  #295 ) ;
#254 = FACE_OUTER_BOUND ( 'NONE', #19, .T. ) ;
#255 = ORIENTED_EDGE ( 'NONE', *, *, #323, .T. ) ;
#256 = PRODUCT_DEFINITION_SHAPE ( 'NONE', 'NONE',  #153 ) ;
#257 = AXIS2_PLACEMENT_3D ( 'NONE', #403, #183, #186 ) ;
#258 = EDGE_CURVE ( 'NONE', #51, #219, #123, .T. ) ;
#259 = CYLINDRICAL_SURFACE ( 'NONE', #214, 150.0000000000000900 ) ;
#260 = DIRECTION ( 'NONE',  ( 1.224646799147353200E-016, -2.427849415210259900E-032, 1.000000000000000000 ) ) ;
#261 = EDGE_LOOP ( 'NONE', ( #2, #369, #398, #277 ) ) ;
#262 = CARTESIAN_POINT ( 'NONE',  ( -154.0000000000000300, 24.00000000000004600, 0.0000000000000000000 ) ) ;
#263 = CC_DESIGN_PERSON_AND_ORGANIZATION_ASSIGNMENT ( #221, #56, ( #102 ) ) ;
#264 = ORIENTED_EDGE ( 'NONE', *, *, #67, .F. ) ;
#265 = ADVANCED_FACE ( 'NONE', ( #113 ), #368, .F. ) ;
#266 = CIRCLE ( 'NONE', #37, 4.000000000000003600 ) ;
#267 = COORDINATED_UNIVERSAL_TIME_OFFSET ( 1, 0, .AHEAD. ) ;
#268 = AXIS2_PLACEMENT_3D ( 'NONE', #187, #25, #155 ) ;
#269 = ADVANCED_FACE ( 'NONE', ( #171 ), #35, .T. ) ;
#270 = CIRCLE ( 'NONE', #248, 4.000000000000003600 ) ;
#271 = ORIENTED_EDGE ( 'NONE', *, *, #144, .F. ) ;
#272 = DATE_TIME_ROLE ( 'classification_date' ) ;
#273 = DIRECTION ( 'NONE',  ( 1.000000000000000000, 0.0000000000000000000, 0.0000000000000000000 ) ) ;
#274 = EDGE_CURVE ( 'NONE', #87, #225, #242, .T. ) ;
#275 = CARTESIAN_POINT ( 'NONE',  ( 7.929957982662911400E-016, 4.000000000000043500, 0.0000000000000000000 ) ) ;
#276 = APPROVAL ( #93, 'UNSPECIFIED' ) ;
#277 = ORIENTED_EDGE ( 'NONE', *, *, #323, .F. ) ;
#278 = PERSON_AND_ORGANIZATION_ROLE ( 'design_owner' ) ;
#279 = ORIENTED_EDGE ( 'NONE', *, *, #11, .T. ) ;
#280 = FACE_OUTER_BOUND ( 'NONE', #309, .T. ) ;
#281 = PERSON_AND_ORGANIZATION_ROLE ( 'design_supplier' ) ;
#282 = COORDINATED_UNIVERSAL_TIME_OFFSET ( 1, 0, .AHEAD. ) ;
#283 = DIRECTION ( 'NONE',  ( -1.000000000000000000, 2.081668171172167300E-016, 0.0000000000000000000 ) ) ;
#284 = FACE_OUTER_BOUND ( 'NONE', #314, .T. ) ;
#285 = CLOSED_SHELL ( 'NONE', ( #269, #370, #396, #124, #216, #156, #26, #332, #18, #303, #265, #306 ) ) ;
#286 = EDGE_CURVE ( 'NONE', #326, #297, #84, .T. ) ;
#287 = CALENDAR_DATE ( 2024, 20, 3 ) ;
#288 = DIRECTION ( 'NONE',  ( 0.0000000000000000000, -0.0000000000000000000, -1.000000000000000000 ) ) ;
#289 = DIRECTION ( 'NONE',  ( 1.982489495665708100E-016, 1.000000000000000000, -0.0000000000000000000 ) ) ;
#290 = CARTESIAN_POINT ( 'NONE',  ( 158.0000000000000300, 4.000000000000013300, 0.0000000000000000000 ) ) ;
#291 = VERTEX_POINT ( 'NONE', #290 ) ;
#292 = ORIENTED_EDGE ( 'NONE', *, *, #103, .F. ) ;
#293 = CC_DESIGN_PERSON_AND_ORGANIZATION_ASSIGNMENT ( #100, #66, ( #397 ) ) ;
#294 = APPROVAL_DATE_TIME ( #352, #244 ) ;
#295 = AXIS2_PLACEMENT_3D ( 'NONE', #30, #191, #95 ) ;
#296 = DIRECTION ( 'NONE',  ( 1.000000000000000000, -2.027598868024839000E-016, 0.0000000000000000000 ) ) ;
#297 = VERTEX_POINT ( 'NONE', #12 ) ;
#298 = CARTESIAN_POINT ( 'NONE',  ( 2.388153131040172500E-029, 1.214306433183765000E-013, 0.0000000000000000000 ) ) ;
#299 = CARTESIAN_POINT ( 'NONE',  ( 7.929957982662911400E-016, 4.000000000000043500, 0.0000000000000000000 ) ) ;
#300 = AXIS2_PLACEMENT_3D ( 'NONE', #299, #337, #29 ) ;
#301 = FACE_OUTER_BOUND ( 'NONE', #78, .T. ) ;
#302 = CIRCLE ( 'NONE', #399, 158.0000000000000300 ) ;
#303 = ADVANCED_FACE ( 'NONE', ( #169 ), #205, .T. ) ;
#304 = ORIENTED_EDGE ( 'NONE', *, *, #131, .F. ) ;
#305 = VERTEX_POINT ( 'NONE', #139 ) ;
#306 = ADVANCED_FACE ( 'NONE', ( #378 ), #129, .T. ) ;
#307 = EDGE_CURVE ( 'NONE', #374, #326, #266, .T. ) ;
#308 = CARTESIAN_POINT ( 'NONE',  ( 5.550970587863981800E-015, 28.00000000000000000, 0.0000000000000000000 ) ) ;
#309 = EDGE_LOOP ( 'NONE', ( #312, #20 ) ) ;
#310 = DIRECTION ( 'NONE',  ( -1.982489495665708100E-016, -1.000000000000000000, 0.0000000000000000000 ) ) ;
#311 = CC_DESIGN_APPROVAL ( #392, ( #102 ) ) ;
#312 = ORIENTED_EDGE ( 'NONE', *, *, #128, .F. ) ;
#313 = CARTESIAN_POINT ( 'NONE',  ( 5.550970587863977100E-015, 27.99999999999997200, 0.0000000000000000000 ) ) ;
#314 = EDGE_LOOP ( 'NONE', ( #175, #43, #127, #97 ) ) ;
#315 = EDGE_CURVE ( 'NONE', #192, #141, #324, .T. ) ;
#316 = APPROVAL_DATE_TIME ( #210, #392 ) ;
#317 = CARTESIAN_POINT ( 'NONE',  ( -150.0000000000000900, 28.00000000000000400, 0.0000000000000000000 ) ) ;
#318 = MANIFOLD_SOLID_BREP ( 'Cosmetic_Fillet', #285 ) ;
#319 = CARTESIAN_POINT ( 'NONE',  ( -150.0000000000001100, 28.00000000000003200, 0.0000000000000000000 ) ) ;
#320 = ORIENTED_EDGE ( 'NONE', *, *, #128, .T. ) ;
#321 = CALENDAR_DATE ( 2024, 20, 3 ) ;
#322 = DIRECTION ( 'NONE',  ( -1.000000000000000000, 2.081668171172167000E-016, 0.0000000000000000000 ) ) ;
#323 = EDGE_CURVE ( 'NONE', #291, #87, #148, .T. ) ;
#324 = CIRCLE ( 'NONE', #85, 4.000000000000003600 ) ;
#325 = DIRECTION ( 'NONE',  ( 1.000000000000000000, -2.027598868024839000E-016, 0.0000000000000000000 ) ) ;
#326 = VERTEX_POINT ( 'NONE', #174 ) ;
#327 = APPROVAL_PERSON_ORGANIZATION ( #130, #392, #338 ) ;
#328 = DIRECTION ( 'NONE',  ( 1.000000000000000000, -1.982489495665708400E-016, 0.0000000000000000000 ) ) ;
#329 = EDGE_LOOP ( 'NONE', ( #14, #384 ) ) ;
#330 = DIRECTION ( 'NONE',  ( -1.982489495665708100E-016, -1.000000000000000000, 0.0000000000000000000 ) ) ;
#331 = CARTESIAN_POINT ( 'NONE',  ( 150.0000000000000900, 9.169330088339086200E-014, 1.836970198721030700E-014 ) ) ;
#332 = ADVANCED_FACE ( 'NONE', ( #280, #233 ), #253, .F. ) ;
#333 = ORIENTED_EDGE ( 'NONE', *, *, #307, .F. ) ;
#334 = DIRECTION ( 'NONE',  ( -1.000000000000000000, 2.081668171172167300E-016, 0.0000000000000000000 ) ) ;
#335 = EDGE_CURVE ( 'NONE', #55, #297, #386, .T. ) ;
#336 = LOCAL_TIME ( 9, 45, 46.00000000000000000, #195 ) ;
#337 = DIRECTION ( 'NONE',  ( -1.982489495665708100E-016, -1.000000000000000000, 0.0000000000000000000 ) ) ;
#338 = APPROVAL_ROLE ( '' ) ;
#339 = DIRECTION ( 'NONE',  ( 1.000000000000000000, -2.027598868024839000E-016, 0.0000000000000000000 ) ) ;
#340 = AXIS2_PLACEMENT_3D ( 'NONE', #166, #382, #5 ) ;
#341 = DIRECTION ( 'NONE',  ( -1.982489495665708100E-016, -1.000000000000000000, 0.0000000000000000000 ) ) ;
#342 = DIRECTION ( 'NONE',  ( 0.0000000000000000000, -0.0000000000000000000, -1.000000000000000000 ) ) ;
#343 = ORIENTED_EDGE ( 'NONE', *, *, #201, .F. ) ;
#344 = ORIENTED_EDGE ( 'NONE', *, *, #103, .T. ) ;
#345 = DIRECTION ( 'NONE',  ( 1.982489495665708100E-016, 1.000000000000000000, -0.0000000000000000000 ) ) ;
#346 = DIRECTION ( 'NONE',  ( 1.982489495665708100E-016, 1.000000000000000000, -0.0000000000000000000 ) ) ;
#347 = CYLINDRICAL_SURFACE ( 'NONE', #42, 154.0000000000000300 ) ;
#348 = DIRECTION ( 'NONE',  ( -1.000000000000000000, 1.982489495665707900E-016, 0.0000000000000000000 ) ) ;
#349 = ORIENTED_EDGE ( 'NONE', *, *, #258, .T. ) ;
#350 = EDGE_CURVE ( 'NONE', #291, #192, #302, .T. ) ;
#351 = CARTESIAN_POINT ( 'NONE',  ( 5.550970587863981800E-015, 28.00000000000000000, 0.0000000000000000000 ) ) ;
#352 = DATE_AND_TIME ( #80, #120 ) ;
#353 = CARTESIAN_POINT ( 'NONE',  ( 4.757974789597702400E-015, 24.00000000000001400, 0.0000000000000000000 ) ) ;
#354 = CARTESIAN_POINT ( 'NONE',  ( -158.0000000000000300, 8.000000000000076400, 1.934941942652818500E-014 ) ) ;
#355 = LINE ( 'NONE', #317, #179 ) ;
#356 = ORGANIZATION ( 'UNSPECIFIED', 'UNSPECIFIED', '' ) ;
#357 = CIRCLE ( 'NONE', #76, 154.0000000000000300 ) ;
#358 = VECTOR ( 'NONE', #70, 1000.000000000000000 ) ;
#359 = EDGE_LOOP ( 'NONE', ( #344, #203, #69, #24 ) ) ;
#360 = DIRECTION ( 'NONE',  ( 1.982489495665708100E-016, 1.000000000000000000, -0.0000000000000000000 ) ) ;
#361 = DESIGN_CONTEXT ( 'detailed design', #96, 'design' ) ;
#362 = DIRECTION ( 'NONE',  ( -1.982489495665708100E-016, -1.000000000000000000, 0.0000000000000000000 ) ) ;
#363 = CC_DESIGN_PERSON_AND_ORGANIZATION_ASSIGNMENT ( #54, #281, ( #397 ) ) ;
#364 = AXIS2_PLACEMENT_3D ( 'NONE', #68, #288, #106 ) ;
#365 = EDGE_LOOP ( 'NONE', ( #271, #389, #152, #74 ) ) ;
#366 = PRODUCT ( '6018279_OSTP', '6018279_OSTP', '', ( #126 ) ) ;
#367 = DIRECTION ( 'NONE',  ( -1.982489495665708100E-016, -1.000000000000000000, 0.0000000000000000000 ) ) ;
#368 = TOROIDAL_SURFACE ( 'NONE', #194, 158.0000000000000300, 4.000000000000000000 ) ;
#369 = ORIENTED_EDGE ( 'NONE', *, *, #315, .T. ) ;
#370 = ADVANCED_FACE ( 'NONE', ( #94 ), #62, .F. ) ;
#371 = DIRECTION ( 'NONE',  ( -1.982489495665708100E-016, -1.000000000000000000, 0.0000000000000000000 ) ) ;
#372 = AXIS2_PLACEMENT_3D ( 'NONE', #308, #345, #193 ) ;
#373 = CARTESIAN_POINT ( 'NONE',  ( 158.0000000000000300, 8.000000000000014200, 0.0000000000000000000 ) ) ;
#374 = VERTEX_POINT ( 'NONE', #243 ) ;
#375 = DIRECTION ( 'NONE',  ( 1.000000000000000000, -1.976267251112817900E-016, 0.0000000000000000000 ) ) ;
#376 = ORIENTED_EDGE ( 'NONE', *, *, #138, .F. ) ;
#377 = CARTESIAN_POINT ( 'NONE',  ( 154.0000000000000300, 8.000000000000014200, 1.885956070686924400E-014 ) ) ;
#378 = FACE_OUTER_BOUND ( 'NONE', #365, .T. ) ;
#379 = CARTESIAN_POINT ( 'NONE',  ( -158.0000000000000300, 4.000000000000075500, 1.934941942652818500E-014 ) ) ;
#380 = DIRECTION ( 'NONE',  ( 1.982489495665708100E-016, 1.000000000000000000, -0.0000000000000000000 ) ) ;
#381 = EDGE_LOOP ( 'NONE', ( #117, #349 ) ) ;
#382 = DIRECTION ( 'NONE',  ( 1.982489495665708100E-016, 1.000000000000000000, -0.0000000000000000000 ) ) ;
#383 = CC_DESIGN_DATE_AND_TIME_ASSIGNMENT ( #154, #272, ( #102 ) ) ;
#384 = ORIENTED_EDGE ( 'NONE', *, *, #79, .T. ) ;
#385 = EDGE_CURVE ( 'NONE', #59, #225, #357, .T. ) ;
#386 = CIRCLE ( 'NONE', #268, 4.000000000000003600 ) ;
#387 = LOCAL_TIME ( 9, 45, 46.00000000000000000, #22 ) ;
#388 = CC_DESIGN_PERSON_AND_ORGANIZATION_ASSIGNMENT ( #188, #218, ( #153 ) ) ;
#389 = ORIENTED_EDGE ( 'NONE', *, *, #111, .F. ) ;
#390 = CALENDAR_DATE ( 2024, 20, 3 ) ;
#391 = DIRECTION ( 'NONE',  ( 1.224646799147353200E-016, -2.427849415210259900E-032, 1.000000000000000000 ) ) ;
#392 = APPROVAL ( #89, 'UNSPECIFIED' ) ;
#393 = AXIS2_PLACEMENT_3D ( 'NONE', #351, #346, #322 ) ;
#394 = DIRECTION ( 'NONE',  ( -1.982489495665708100E-016, -1.000000000000000000, 0.0000000000000000000 ) ) ;
#395 = ORIENTED_EDGE ( 'NONE', *, *, #144, .T. ) ;
#396 = ADVANCED_FACE ( 'NONE', ( #119 ), #75, .T. ) ;
#397 = PRODUCT_DEFINITION_FORMATION_WITH_SPECIFIED_SOURCE ( 'ANY', '', #366, .NOT_KNOWN. ) ;
#398 = ORIENTED_EDGE ( 'NONE', *, *, #92, .F. ) ;
#399 = AXIS2_PLACEMENT_3D ( 'NONE', #275, #341, #375 ) ;
#400 = CC_DESIGN_APPROVAL ( #276, ( #153 ) ) ;
#401 = CIRCLE ( 'NONE', #165, 154.0000000000000300 ) ;
#402 =( GEOMETRIC_REPRESENTATION_CONTEXT ( 3 ) GLOBAL_UNCERTAINTY_ASSIGNED_CONTEXT ( ( #176 ) ) GLOBAL_UNIT_ASSIGNED_CONTEXT ( ( #28, #240, #405 ) ) REPRESENTATION_CONTEXT ( 'NONE', 'WORKASPACE' ) );
#403 = CARTESIAN_POINT ( 'NONE',  ( 1.585991596532574800E-015, 8.000000000000044400, 0.0000000000000000000 ) ) ;
#404 = COORDINATED_UNIVERSAL_TIME_OFFSET ( 1, 0, .AHEAD. ) ;
#405 =( NAMED_UNIT ( * ) SI_UNIT ( $, .STERADIAN. ) SOLID_ANGLE_UNIT ( ) );
ENDSEC;
END-ISO-10303-21;
