ISO-10303-21;
HEADER;
FILE_DESCRIPTION (( 'STEP AP203' ),
    '1' );
FILE_NAME ('OT200-50-60_3x2_OSTP.step',
    '2020-12-16T02:27:39',
    ( '' ),
    ( '' ),
    'SwSTEP 2.0',
    'SolidWorks 2014',
    '' );
FILE_SCHEMA (( 'CONFIG_CONTROL_DESIGN' ));
ENDSEC;

DATA;
#1 = PRODUCT_RELATED_PRODUCT_CATEGORY ( 'detail', '', ( #114 ) ) ;
#2 = PERSON_AND_ORGANIZATION_ROLE ( 'creator' ) ;
#3 = ORIENTED_EDGE ( 'NONE', *, *, #118, .F. ) ;
#4 = VERTEX_POINT ( 'NONE', #10 ) ;
#5 = CC_DESIGN_PERSON_AND_ORGANIZATION_ASSIGNMENT ( #237, #54, ( #243 ) ) ;
#6 = APPROVAL_DATE_TIME ( #158, #142 ) ;
#7 = AXIS2_PLACEMENT_3D ( 'NONE', #133, #47, #48 ) ;
#8 = CIRCLE ( 'NONE', #249, 104.1499999999999800 ) ;
#9 = DIRECTION ( 'NONE',  ( 0.0000000000000000000, 0.0000000000000000000, 1.000000000000000000 ) ) ;
#10 = CARTESIAN_POINT ( 'NONE',  ( 75.99999999999998600, 106.1499999999999900, 0.0000000000000000000 ) ) ;
#11 = CARTESIAN_POINT ( 'NONE',  ( 76.00000000000000000, 0.0000000000000000000, 0.0000000000000000000 ) ) ;
#12 = FACE_OUTER_BOUND ( 'NONE', #215, .T. ) ;
#13 = DIRECTION ( 'NONE',  ( 0.0000000000000000000, 0.0000000000000000000, 1.000000000000000000 ) ) ;
#14 = CARTESIAN_POINT ( 'NONE',  ( 76.00000000000000000, 76.00000000000000000, 0.0000000000000000000 ) ) ;
#15 = TOROIDAL_SURFACE ( 'NONE', #130, 76.00000000000000000, 30.14999999999999900 ) ;
#16 = DIRECTION ( 'NONE',  ( 0.0000000000000000000, 0.0000000000000000000, 1.000000000000000000 ) ) ;
#17 = DIRECTION ( 'NONE',  ( 1.000000000000000000, 0.0000000000000000000, 0.0000000000000000000 ) ) ;
#18 = APPROVAL_ROLE ( '' ) ;
#19 = CIRCLE ( 'NONE', #225, 30.14999999999999900 ) ;
#20 = APPROVAL_STATUS ( 'not_yet_approved' ) ;
#21 = CARTESIAN_POINT ( 'NONE',  ( 0.0000000000000000000, 0.0000000000000000000, 0.0000000000000000000 ) ) ;
#22 = PERSON_AND_ORGANIZATION_ROLE ( 'design_owner' ) ;
#23 = LOCAL_TIME ( 3, 27, 39.00000000000000000, #120 ) ;
#24 = APPLICATION_PROTOCOL_DEFINITION ( 'international standard', 'config_control_design', 1994, #193 ) ;
#25 = ORIENTED_EDGE ( 'NONE', *, *, #115, .F. ) ;
#26 = AXIS2_PLACEMENT_3D ( 'NONE', #253, #124, #17 ) ;
#27 = ADVANCED_FACE ( 'NONE', ( #210, #57 ), #185, .T. ) ;
#28 = LOCAL_TIME ( 3, 27, 39.00000000000000000, #136 ) ;
#29 = CC_DESIGN_PERSON_AND_ORGANIZATION_ASSIGNMENT ( #195, #2, ( #106 ) ) ;
#30 = CLOSED_SHELL ( 'NONE', ( #111, #212, #179, #27, #165, #83 ) ) ;
#31 = CC_DESIGN_APPROVAL ( #142, ( #106 ) ) ;
#32 = VERTEX_POINT ( 'NONE', #184 ) ;
#33 = ADVANCED_BREP_SHAPE_REPRESENTATION ( 'OT200-50-60_3x2_OSTP', ( #205, #39 ), #161 ) ;
#34 = DIRECTION ( 'NONE',  ( 0.0000000000000000000, 1.000000000000000000, 0.0000000000000000000 ) ) ;
#35 = APPROVAL_DATE_TIME ( #41, #78 ) ;
#36 = DIRECTION ( 'NONE',  ( 0.0000000000000000000, 0.0000000000000000000, 1.000000000000000000 ) ) ;
#37 = DIRECTION ( 'NONE',  ( 0.0000000000000000000, 1.000000000000000000, 0.0000000000000000000 ) ) ;
#38 = ORIENTED_EDGE ( 'NONE', *, *, #118, .T. ) ;
#39 = AXIS2_PLACEMENT_3D ( 'NONE', #149, #43, #87 ) ;
#40 = PERSON_AND_ORGANIZATION_ROLE ( 'classification_officer' ) ;
#41 = DATE_AND_TIME ( #80, #196 ) ;
#42 = ORIENTED_EDGE ( 'NONE', *, *, #115, .T. ) ;
#43 = DIRECTION ( 'NONE',  ( 0.0000000000000000000, 0.0000000000000000000, 1.000000000000000000 ) ) ;
#44 = ORIENTED_EDGE ( 'NONE', *, *, #182, .T. ) ;
#45 = APPROVAL_PERSON_ORGANIZATION ( #88, #78, #18 ) ;
#46 = VERTEX_POINT ( 'NONE', #244 ) ;
#47 = DIRECTION ( 'NONE',  ( 0.0000000000000000000, 0.0000000000000000000, 1.000000000000000000 ) ) ;
#48 = DIRECTION ( 'NONE',  ( 1.000000000000000000, 0.0000000000000000000, 0.0000000000000000000 ) ) ;
#49 = PERSON_AND_ORGANIZATION ( #95, #206 ) ;
#50 = ORIENTED_EDGE ( 'NONE', *, *, #60, .F. ) ;
#51 = CARTESIAN_POINT ( 'NONE',  ( 0.0000000000000000000, 0.0000000000000000000, 0.0000000000000000000 ) ) ;
#52 = AXIS2_PLACEMENT_3D ( 'NONE', #100, #186, #117 ) ;
#53 = ORIENTED_EDGE ( 'NONE', *, *, #68, .F. ) ;
#54 = PERSON_AND_ORGANIZATION_ROLE ( 'creator' ) ;
#55 = MECHANICAL_CONTEXT ( 'NONE', #193, 'mechanical' ) ;
#56 = APPROVAL_ROLE ( '' ) ;
#57 = FACE_OUTER_BOUND ( 'NONE', #77, .T. ) ;
#58 = CC_DESIGN_PERSON_AND_ORGANIZATION_ASSIGNMENT ( #49, #22, ( #114 ) ) ;
#59 = CIRCLE ( 'NONE', #7, 45.85000000000000100 ) ;
#60 = EDGE_CURVE ( 'NONE', #230, #67, #8, .T. ) ;
#61 = CALENDAR_DATE ( 2020, 16, 12 ) ;
#62 = SECURITY_CLASSIFICATION ( '', '', #221 ) ;
#63 = CARTESIAN_POINT ( 'NONE',  ( 0.0000000000000000000, 0.0000000000000000000, 0.0000000000000000000 ) ) ;
#64 = CALENDAR_DATE ( 2020, 16, 12 ) ;
#65 = ORIENTED_EDGE ( 'NONE', *, *, #93, .F. ) ;
#66 = CARTESIAN_POINT ( 'NONE',  ( 76.00000000000000000, 47.84999999999999400, -3.447380739599799700E-015 ) ) ;
#67 = VERTEX_POINT ( 'NONE', #245 ) ;
#68 = EDGE_CURVE ( 'NONE', #67, #46, #170, .T. ) ;
#69 = DIRECTION ( 'NONE',  ( 0.0000000000000000000, 1.000000000000000000, 0.0000000000000000000 ) ) ;
#70 = ORIENTED_EDGE ( 'NONE', *, *, #202, .F. ) ;
#71 = EDGE_CURVE ( 'NONE', #128, #32, #59, .T. ) ;
#72 = APPLICATION_CONTEXT ( 'configuration controlled 3d designs of mechanical parts and assemblies' ) ;
#73 = APPROVAL_DATE_TIME ( #203, #98 ) ;
#74 = ORIENTED_EDGE ( 'NONE', *, *, #110, .T. ) ;
#75 = APPROVAL_STATUS ( 'not_yet_approved' ) ;
#76 = CC_DESIGN_PERSON_AND_ORGANIZATION_ASSIGNMENT ( #129, #40, ( #62 ) ) ;
#77 = EDGE_LOOP ( 'NONE', ( #74, #44 ) ) ;
#78 = APPROVAL ( #75, 'UNSPECIFIED' ) ;
#79 = DIRECTION ( 'NONE',  ( 0.0000000000000000000, 0.0000000000000000000, 1.000000000000000000 ) ) ;
#80 = CALENDAR_DATE ( 2020, 16, 12 ) ;
#81 = ORIENTED_EDGE ( 'NONE', *, *, #160, .F. ) ;
#82 = DIRECTION ( 'NONE',  ( 0.0000000000000000000, 0.0000000000000000000, 1.000000000000000000 ) ) ;
#83 = ADVANCED_FACE ( 'NONE', ( #162 ), #151, .F. ) ;
#84 = CARTESIAN_POINT ( 'NONE',  ( 0.0000000000000000000, 0.0000000000000000000, 0.0000000000000000000 ) ) ;
#85 = DIRECTION ( 'NONE',  ( 0.0000000000000000000, 0.0000000000000000000, 1.000000000000000000 ) ) ;
#86 = CC_DESIGN_DATE_AND_TIME_ASSIGNMENT ( #239, #146, ( #62 ) ) ;
#87 = DIRECTION ( 'NONE',  ( 1.000000000000000000, 0.0000000000000000000, 0.0000000000000000000 ) ) ;
#88 = PERSON_AND_ORGANIZATION ( #95, #206 ) ;
#89 = DATE_TIME_ROLE ( 'creation_date' ) ;
#90 = CC_DESIGN_DATE_AND_TIME_ASSIGNMENT ( #209, #89, ( #243 ) ) ;
#91 = ORIENTED_EDGE ( 'NONE', *, *, #60, .T. ) ;
#92 = UNCERTAINTY_MEASURE_WITH_UNIT (LENGTH_MEASURE( 1.000000000000000100E-005 ), #172, 'distance_accuracy_value', 'NONE');
#93 = EDGE_CURVE ( 'NONE', #230, #252, #204, .T. ) ;
#94 = SHAPE_DEFINITION_REPRESENTATION ( #197, #33 ) ;
#95 = PERSON ( 'UNSPECIFIED', 'UNSPECIFIED', 'UNSPECIFIED', ('UNSPECIFIED'), ('UNSPECIFIED'), ('UNSPECIFIED') ) ;
#96 = CIRCLE ( 'NONE', #150, 28.14999999999999500 ) ;
#97 = ORIENTED_EDGE ( 'NONE', *, *, #71, .T. ) ;
#98 = APPROVAL ( #173, 'UNSPECIFIED' ) ;
#99 = CARTESIAN_POINT ( 'NONE',  ( -30.14999999999999500, 0.0000000000000000000, 0.0000000000000000000 ) ) ;
#100 = CARTESIAN_POINT ( 'NONE',  ( 75.99999999999998600, 76.00000000000000000, 0.0000000000000000000 ) ) ;
#101 = APPROVAL_PERSON_ORGANIZATION ( #246, #98, #194 ) ;
#102 = DIRECTION ( 'NONE',  ( 1.000000000000000000, 0.0000000000000000000, 0.0000000000000000000 ) ) ;
#103 = DIRECTION ( 'NONE',  ( 0.0000000000000000000, -0.0000000000000000000, 1.000000000000000000 ) ) ;
#104 = VERTEX_POINT ( 'NONE', #99 ) ;
#105 = DIRECTION ( 'NONE',  ( 1.000000000000000000, 6.123233995736766000E-017, 0.0000000000000000000 ) ) ;
#106 = PRODUCT_DEFINITION_FORMATION_WITH_SPECIFIED_SOURCE ( 'ANY', '', #114, .NOT_KNOWN. ) ;
#107 = DIRECTION ( 'NONE',  ( 1.000000000000000000, 6.123233995736766000E-017, 0.0000000000000000000 ) ) ;
#108 = EDGE_LOOP ( 'NONE', ( #232, #159 ) ) ;
#109 = APPLICATION_PROTOCOL_DEFINITION ( 'international standard', 'config_control_design', 1994, #72 ) ;
#110 = EDGE_CURVE ( 'NONE', #128, #4, #155, .T. ) ;
#111 = ADVANCED_FACE ( 'NONE', ( #12 ), #227, .F. ) ;
#112 = LOCAL_TIME ( 3, 27, 39.00000000000000000, #154 ) ;
#113 = CIRCLE ( 'NONE', #153, 28.15000000000000200 ) ;
#114 = PRODUCT ( 'OT200-50-60_3x2_OSTP', 'OT200-50-60_3x2_OSTP', '', ( #55 ) ) ;
#115 = EDGE_CURVE ( 'NONE', #252, #230, #96, .T. ) ;
#116 = CALENDAR_DATE ( 2020, 16, 12 ) ;
#117 = DIRECTION ( 'NONE',  ( 0.0000000000000000000, 0.0000000000000000000, 1.000000000000000000 ) ) ;
#118 = EDGE_CURVE ( 'NONE', #252, #46, #131, .T. ) ;
#119 = DIRECTION ( 'NONE',  ( 1.000000000000000000, 0.0000000000000000000, 0.0000000000000000000 ) ) ;
#120 = COORDINATED_UNIVERSAL_TIME_OFFSET ( 1, 0, .AHEAD. ) ;
#121 = ORIENTED_EDGE ( 'NONE', *, *, #202, .T. ) ;
#122 = CARTESIAN_POINT ( 'NONE',  ( 76.00000000000000000, 0.0000000000000000000, 0.0000000000000000000 ) ) ;
#123 = CARTESIAN_POINT ( 'NONE',  ( 76.00000000000000000, 104.1499999999999900, 0.0000000000000000000 ) ) ;
#124 = DIRECTION ( 'NONE',  ( 0.0000000000000000000, 0.0000000000000000000, 1.000000000000000000 ) ) ;
#125 = EDGE_LOOP ( 'NONE', ( #242, #191, #97, #121 ) ) ;
#126 = AXIS2_PLACEMENT_3D ( 'NONE', #11, #79, #102 ) ;
#127 = FACE_OUTER_BOUND ( 'NONE', #125, .T. ) ;
#128 = VERTEX_POINT ( 'NONE', #248 ) ;
#129 = PERSON_AND_ORGANIZATION ( #95, #206 ) ;
#130 = AXIS2_PLACEMENT_3D ( 'NONE', #163, #16, #140 ) ;
#131 = CIRCLE ( 'NONE', #240, 47.84999999999998700 ) ;
#132 = AXIS2_PLACEMENT_3D ( 'NONE', #251, #107, #69 ) ;
#133 = CARTESIAN_POINT ( 'NONE',  ( 76.00000000000000000, 0.0000000000000000000, -3.692310099429270400E-015 ) ) ;
#134 = ORIENTED_EDGE ( 'NONE', *, *, #222, .F. ) ;
#135 = CC_DESIGN_APPROVAL ( #78, ( #243 ) ) ;
#136 = COORDINATED_UNIVERSAL_TIME_OFFSET ( 1, 0, .AHEAD. ) ;
#137 = CIRCLE ( 'NONE', #189, 30.14999999999999900 ) ;
#138 = DIRECTION ( 'NONE',  ( 0.0000000000000000000, 1.000000000000000000, 0.0000000000000000000 ) ) ;
#139 = DIRECTION ( 'NONE',  ( 1.000000000000000000, 6.123233995736766000E-017, 0.0000000000000000000 ) ) ;
#140 = DIRECTION ( 'NONE',  ( 1.000000000000000000, 0.0000000000000000000, 0.0000000000000000000 ) ) ;
#141 = FACE_OUTER_BOUND ( 'NONE', #226, .T. ) ;
#142 = APPROVAL ( #20, 'UNSPECIFIED' ) ;
#143 = EDGE_LOOP ( 'NONE', ( #183, #175, #207, #220 ) ) ;
#144 = CARTESIAN_POINT ( 'NONE',  ( 75.99999999999998600, 76.00000000000000000, 0.0000000000000000000 ) ) ;
#145 = DIRECTION ( 'NONE',  ( 0.0000000000000000000, 0.0000000000000000000, 1.000000000000000000 ) ) ;
#146 = DATE_TIME_ROLE ( 'classification_date' ) ;
#147 = TOROIDAL_SURFACE ( 'NONE', #233, 76.00000000000000000, 30.14999999999999900 ) ;
#148 = AXIS2_PLACEMENT_3D ( 'NONE', #51, #188, #190 ) ;
#149 = CARTESIAN_POINT ( 'NONE',  ( 0.0000000000000000000, 0.0000000000000000000, 0.0000000000000000000 ) ) ;
#150 = AXIS2_PLACEMENT_3D ( 'NONE', #14, #250, #138 ) ;
#151 = TOROIDAL_SURFACE ( 'NONE', #126, 76.00000000000000000, 28.15000000000000200 ) ;
#152 = ORIENTED_EDGE ( 'NONE', *, *, #93, .T. ) ;
#153 = AXIS2_PLACEMENT_3D ( 'NONE', #21, #176, #219 ) ;
#154 = COORDINATED_UNIVERSAL_TIME_OFFSET ( 1, 0, .AHEAD. ) ;
#155 = CIRCLE ( 'NONE', #198, 30.14999999999999900 ) ;
#156 = CC_DESIGN_PERSON_AND_ORGANIZATION_ASSIGNMENT ( #229, #199, ( #106 ) ) ;
#157 = CARTESIAN_POINT ( 'NONE',  ( 76.00000000000000000, 0.0000000000000000000, 0.0000000000000000000 ) ) ;
#158 = DATE_AND_TIME ( #64, #112 ) ;
#159 = ORIENTED_EDGE ( 'NONE', *, *, #68, .T. ) ;
#160 = EDGE_CURVE ( 'NONE', #104, #32, #19, .T. ) ;
#161 =( GEOMETRIC_REPRESENTATION_CONTEXT ( 3 ) GLOBAL_UNCERTAINTY_ASSIGNED_CONTEXT ( ( #92 ) ) GLOBAL_UNIT_ASSIGNED_CONTEXT ( ( #172, #236, #171 ) ) REPRESENTATION_CONTEXT ( 'NONE', 'WORKASPACE' ) );
#162 = FACE_OUTER_BOUND ( 'NONE', #201, .T. ) ;
#163 = CARTESIAN_POINT ( 'NONE',  ( 76.00000000000000000, 0.0000000000000000000, 0.0000000000000000000 ) ) ;
#164 = DIRECTION ( 'NONE',  ( 0.0000000000000000000, 0.0000000000000000000, 1.000000000000000000 ) ) ;
#165 = ADVANCED_FACE ( 'NONE', ( #174, #141 ), #166, .F. ) ;
#166 = PLANE ( 'NONE',  #238 ) ;
#167 = DIRECTION ( 'NONE',  ( 0.0000000000000000000, 0.0000000000000000000, 1.000000000000000000 ) ) ;
#168 = COORDINATED_UNIVERSAL_TIME_OFFSET ( 1, 0, .AHEAD. ) ;
#169 = AXIS2_PLACEMENT_3D ( 'NONE', #192, #36, #119 ) ;
#170 = CIRCLE ( 'NONE', #177, 28.15000000000000200 ) ;
#171 =( NAMED_UNIT ( * ) SI_UNIT ( $, .STERADIAN. ) SOLID_ANGLE_UNIT ( ) );
#172 =( LENGTH_UNIT ( ) NAMED_UNIT ( * ) SI_UNIT ( .MILLI., .METRE. ) );
#173 = APPROVAL_STATUS ( 'not_yet_approved' ) ;
#174 = FACE_BOUND ( 'NONE', #108, .T. ) ;
#175 = ORIENTED_EDGE ( 'NONE', *, *, #213, .T. ) ;
#176 = DIRECTION ( 'NONE',  ( 0.0000000000000000000, 1.000000000000000000, 0.0000000000000000000 ) ) ;
#177 = AXIS2_PLACEMENT_3D ( 'NONE', #63, #34, #13 ) ;
#178 = APPROVAL_PERSON_ORGANIZATION ( #223, #142, #56 ) ;
#179 = ADVANCED_FACE ( 'NONE', ( #127 ), #15, .T. ) ;
#180 = FACE_OUTER_BOUND ( 'NONE', #143, .T. ) ;
#181 = DESIGN_CONTEXT ( 'detailed design', #72, 'design' ) ;
#182 = EDGE_CURVE ( 'NONE', #4, #128, #137, .T. ) ;
#183 = ORIENTED_EDGE ( 'NONE', *, *, #182, .F. ) ;
#184 = CARTESIAN_POINT ( 'NONE',  ( 30.15000000000000200, 0.0000000000000000000, -3.692310099429271200E-015 ) ) ;
#185 = PLANE ( 'NONE',  #52 ) ;
#186 = DIRECTION ( 'NONE',  ( 1.000000000000000000, 6.123233995736766000E-017, -0.0000000000000000000 ) ) ;
#187 = CIRCLE ( 'NONE', #148, 30.14999999999999900 ) ;
#188 = DIRECTION ( 'NONE',  ( 0.0000000000000000000, 1.000000000000000000, 0.0000000000000000000 ) ) ;
#189 = AXIS2_PLACEMENT_3D ( 'NONE', #214, #105, #145 ) ;
#190 = DIRECTION ( 'NONE',  ( 0.0000000000000000000, 0.0000000000000000000, 1.000000000000000000 ) ) ;
#191 = ORIENTED_EDGE ( 'NONE', *, *, #110, .F. ) ;
#192 = CARTESIAN_POINT ( 'NONE',  ( 76.00000000000000000, 0.0000000000000000000, 0.0000000000000000000 ) ) ;
#193 = APPLICATION_CONTEXT ( 'configuration controlled 3d designs of mechanical parts and assemblies' ) ;
#194 = APPROVAL_ROLE ( '' ) ;
#195 = PERSON_AND_ORGANIZATION ( #95, #206 ) ;
#196 = LOCAL_TIME ( 3, 27, 39.00000000000000000, #247 ) ;
#197 = PRODUCT_DEFINITION_SHAPE ( 'NONE', 'NONE',  #243 ) ;
#198 = AXIS2_PLACEMENT_3D ( 'NONE', #144, #139, #167 ) ;
#199 = PERSON_AND_ORGANIZATION_ROLE ( 'design_supplier' ) ;
#200 = CALENDAR_DATE ( 2020, 16, 12 ) ;
#201 = EDGE_LOOP ( 'NONE', ( #50, #152, #38, #53 ) ) ;
#202 = EDGE_CURVE ( 'NONE', #32, #104, #187, .T. ) ;
#203 = DATE_AND_TIME ( #200, #28 ) ;
#204 = CIRCLE ( 'NONE', #132, 28.14999999999999500 ) ;
#205 = MANIFOLD_SOLID_BREP ( 'cut-body', #30 ) ;
#206 = ORGANIZATION ( 'UNSPECIFIED', 'UNSPECIFIED', '' ) ;
#207 = ORIENTED_EDGE ( 'NONE', *, *, #160, .T. ) ;
#208 = DIRECTION ( 'NONE',  ( 1.000000000000000000, 0.0000000000000000000, 0.0000000000000000000 ) ) ;
#209 = DATE_AND_TIME ( #61, #23 ) ;
#210 = FACE_BOUND ( 'NONE', #241, .T. ) ;
#211 = CARTESIAN_POINT ( 'NONE',  ( 76.00000000000000000, 0.0000000000000000000, -3.447380739599799700E-015 ) ) ;
#212 = ADVANCED_FACE ( 'NONE', ( #180 ), #147, .T. ) ;
#213 = EDGE_CURVE ( 'NONE', #4, #104, #224, .T. ) ;
#214 = CARTESIAN_POINT ( 'NONE',  ( 75.99999999999998600, 76.00000000000000000, 0.0000000000000000000 ) ) ;
#215 = EDGE_LOOP ( 'NONE', ( #42, #91, #134, #3 ) ) ;
#216 = DIRECTION ( 'NONE',  ( 1.000000000000000000, 0.0000000000000000000, 0.0000000000000000000 ) ) ;
#217 = DIRECTION ( 'NONE',  ( 1.000000000000000000, 0.0000000000000000000, 0.0000000000000000000 ) ) ;
#218 = CC_DESIGN_APPROVAL ( #98, ( #62 ) ) ;
#219 = DIRECTION ( 'NONE',  ( 0.0000000000000000000, 0.0000000000000000000, 1.000000000000000000 ) ) ;
#220 = ORIENTED_EDGE ( 'NONE', *, *, #71, .F. ) ;
#221 = SECURITY_CLASSIFICATION_LEVEL ( 'unclassified' ) ;
#222 = EDGE_CURVE ( 'NONE', #46, #67, #113, .T. ) ;
#223 = PERSON_AND_ORGANIZATION ( #95, #206 ) ;
#224 = CIRCLE ( 'NONE', #26, 106.1499999999999800 ) ;
#225 = AXIS2_PLACEMENT_3D ( 'NONE', #84, #37, #85 ) ;
#226 = EDGE_LOOP ( 'NONE', ( #70, #81 ) ) ;
#227 = TOROIDAL_SURFACE ( 'NONE', #169, 76.00000000000000000, 28.15000000000000200 ) ;
#228 = CC_DESIGN_SECURITY_CLASSIFICATION ( #62, ( #106 ) ) ;
#229 = PERSON_AND_ORGANIZATION ( #95, #206 ) ;
#230 = VERTEX_POINT ( 'NONE', #123 ) ;
#231 = DIRECTION ( 'NONE',  ( 0.0000000000000000000, 1.000000000000000000, 0.0000000000000000000 ) ) ;
#232 = ORIENTED_EDGE ( 'NONE', *, *, #222, .T. ) ;
#233 = AXIS2_PLACEMENT_3D ( 'NONE', #122, #164, #217 ) ;
#234 = CARTESIAN_POINT ( 'NONE',  ( 0.0000000000000000000, 0.0000000000000000000, 0.0000000000000000000 ) ) ;
#235 = LOCAL_TIME ( 3, 27, 39.00000000000000000, #168 ) ;
#236 =( NAMED_UNIT ( * ) PLANE_ANGLE_UNIT ( ) SI_UNIT ( $, .RADIAN. ) );
#237 = PERSON_AND_ORGANIZATION ( #95, #206 ) ;
#238 = AXIS2_PLACEMENT_3D ( 'NONE', #234, #231, #103 ) ;
#239 = DATE_AND_TIME ( #116, #235 ) ;
#240 = AXIS2_PLACEMENT_3D ( 'NONE', #211, #82, #216 ) ;
#241 = EDGE_LOOP ( 'NONE', ( #25, #65 ) ) ;
#242 = ORIENTED_EDGE ( 'NONE', *, *, #213, .F. ) ;
#243 = PRODUCT_DEFINITION ( 'UNKNOWN', '', #106, #181 ) ;
#244 = CARTESIAN_POINT ( 'NONE',  ( 28.15000000000000200, 0.0000000000000000000, -3.447380739599799700E-015 ) ) ;
#245 = CARTESIAN_POINT ( 'NONE',  ( -28.14999999999999900, 0.0000000000000000000, 0.0000000000000000000 ) ) ;
#246 = PERSON_AND_ORGANIZATION ( #95, #206 ) ;
#247 = COORDINATED_UNIVERSAL_TIME_OFFSET ( 1, 0, .AHEAD. ) ;
#248 = CARTESIAN_POINT ( 'NONE',  ( 75.99999999999998600, 45.84999999999999400, -3.692310099429271200E-015 ) ) ;
#249 = AXIS2_PLACEMENT_3D ( 'NONE', #157, #9, #208 ) ;
#250 = DIRECTION ( 'NONE',  ( 1.000000000000000000, 6.123233995736766000E-017, 0.0000000000000000000 ) ) ;
#251 = CARTESIAN_POINT ( 'NONE',  ( 76.00000000000000000, 76.00000000000000000, 0.0000000000000000000 ) ) ;
#252 = VERTEX_POINT ( 'NONE', #66 ) ;
#253 = CARTESIAN_POINT ( 'NONE',  ( 76.00000000000000000, 0.0000000000000000000, 0.0000000000000000000 ) ) ;
ENDSEC;
END-ISO-10303-21;
