ISO-10303-21;
HEADER;
FILE_DESCRIPTION (( 'STEP AP203' ),
    '1' );
FILE_NAME ('11-0216-04_outokumpu.step',
    '2015-08-11T14:13:19',
    ( '' ),
    ( '' ),
    'SwSTEP 2.0',
    'SolidWorks 2008',
    '' );
FILE_SCHEMA (( 'CONFIG_CONTROL_DESIGN' ));
ENDSEC;

DATA;
#1 = ORIENTED_EDGE ( 'NONE', *, *, #32, .T. ) ;
#2 = EDGE_CURVE ( 'NONE', #30, #35, #85, .T. ) ;
#3 = ORIENTED_EDGE ( 'NONE', *, *, #2, .T. ) ;
#4 = EDGE_LOOP ( 'NONE', ( #1, #3 ) ) ;
#5 = ORIENTED_EDGE ( 'NONE', *, *, #52, .F. ) ;
#6 = ADVANCED_FACE ( 'NONE', ( #86, #244 ), #243, .F. ) ;
#7 = EDGE_LOOP ( 'NONE', ( #5, #87, #88, #89, #91 ) ) ;
#8 = ORIENTED_EDGE ( 'NONE', *, *, #2, .F. ) ;
#9 = ORIENTED_EDGE ( 'NONE', *, *, #38, .T. ) ;
#10 = EDGE_CURVE ( 'NONE', #70, #71, #237, .T. ) ;
#11 = ADVANCED_FACE ( 'NONE', ( #238 ), #229, .F. ) ;
#12 = ORIENTED_EDGE ( 'NONE', *, *, #17, .T. ) ;
#13 = ORIENTED_EDGE ( 'NONE', *, *, #33, .F. ) ;
#14 = ADVANCED_FACE ( 'NONE', ( #231 ), #189, .T. ) ;
#15 = EDGE_LOOP ( 'NONE', ( #18, #16 ) ) ;
#16 = ORIENTED_EDGE ( 'NONE', *, *, #10, .T. ) ;
#17 = EDGE_CURVE ( 'NONE', #44, #45, #184, .T. ) ;
#18 = ORIENTED_EDGE ( 'NONE', *, *, #69, .T. ) ;
#19 = ORIENTED_EDGE ( 'NONE', *, *, #17, .F. ) ;
#20 = ORIENTED_EDGE ( 'NONE', *, *, #42, .F. ) ;
#21 = EDGE_LOOP ( 'NONE', ( #22, #24 ) ) ;
#22 = ORIENTED_EDGE ( 'NONE', *, *, #23, .F. ) ;
#23 = EDGE_CURVE ( 'NONE', #57, #53, #127, .T. ) ;
#24 = ORIENTED_EDGE ( 'NONE', *, *, #56, .F. ) ;
#25 = EDGE_LOOP ( 'NONE', ( #13, #12, #9, #8 ) ) ;
#26 = VERTEX_POINT ( 'NONE', #123 ) ;
#27 = EDGE_CURVE ( 'NONE', #26, #66, #122, .T. ) ;
#28 = ORIENTED_EDGE ( 'NONE', *, *, #60, .T. ) ;
#29 = ORIENTED_EDGE ( 'NONE', *, *, #27, .T. ) ;
#30 = VERTEX_POINT ( 'NONE', #117 ) ;
#31 = EDGE_LOOP ( 'NONE', ( #29, #28, #93, #94, #95, #98 ) ) ;
#32 = EDGE_CURVE ( 'NONE', #35, #30, #116, .T. ) ;
#33 = EDGE_CURVE ( 'NONE', #44, #30, #111, .T. ) ;
#34 = ORIENTED_EDGE ( 'NONE', *, *, #32, .F. ) ;
#35 = VERTEX_POINT ( 'NONE', #107 ) ;
#36 = ADVANCED_FACE ( 'NONE', ( #106 ), #104, .F. ) ;
#37 = ORIENTED_EDGE ( 'NONE', *, *, #38, .F. ) ;
#38 = EDGE_CURVE ( 'NONE', #45, #35, #100, .T. ) ;
#39 = ADVANCED_FACE ( 'NONE', ( #160 ), #158, .T. ) ;
#40 = ORIENTED_EDGE ( 'NONE', *, *, #42, .T. ) ;
#41 = VERTEX_POINT ( 'NONE', #159 ) ;
#42 = EDGE_CURVE ( 'NONE', #45, #44, #153, .T. ) ;
#43 = ORIENTED_EDGE ( 'NONE', *, *, #33, .T. ) ;
#44 = VERTEX_POINT ( 'NONE', #148 ) ;
#45 = VERTEX_POINT ( 'NONE', #147 ) ;
#46 = ORIENTED_EDGE ( 'NONE', *, *, #50, .F. ) ;
#47 = EDGE_LOOP ( 'NONE', ( #40, #43, #34, #37 ) ) ;
#48 = EDGE_CURVE ( 'NONE', #54, #41, #146, .T. ) ;
#49 = ORIENTED_EDGE ( 'NONE', *, *, #48, .F. ) ;
#50 = EDGE_CURVE ( 'NONE', #41, #57, #223, .T. ) ;
#51 = ORIENTED_EDGE ( 'NONE', *, *, #52, .T. ) ;
#52 = EDGE_CURVE ( 'NONE', #66, #53, #219, .T. ) ;
#53 = VERTEX_POINT ( 'NONE', #215 ) ;
#54 = VERTEX_POINT ( 'NONE', #214 ) ;
#55 = ORIENTED_EDGE ( 'NONE', *, *, #56, .T. ) ;
#56 = EDGE_CURVE ( 'NONE', #53, #57, #265, .T. ) ;
#57 = VERTEX_POINT ( 'NONE', #260 ) ;
#58 = EDGE_CURVE ( 'NONE', #64, #76, #259, .T. ) ;
#59 = ADVANCED_FACE ( 'NONE', ( #254 ), #253, .F. ) ;
#60 = EDGE_CURVE ( 'NONE', #66, #54, #213, .T. ) ;
#61 = ORIENTED_EDGE ( 'NONE', *, *, #58, .T. ) ;
#62 = ORIENTED_EDGE ( 'NONE', *, *, #60, .F. ) ;
#63 = EDGE_LOOP ( 'NONE', ( #62, #51, #55, #46, #49 ) ) ;
#64 = VERTEX_POINT ( 'NONE', #208 ) ;
#65 = EDGE_CURVE ( 'NONE', #64, #71, #207, .T. ) ;
#66 = VERTEX_POINT ( 'NONE', #203 ) ;
#67 = ORIENTED_EDGE ( 'NONE', *, *, #65, .F. ) ;
#68 = ORIENTED_EDGE ( 'NONE', *, *, #69, .F. ) ;
#69 = EDGE_CURVE ( 'NONE', #71, #70, #202, .T. ) ;
#70 = VERTEX_POINT ( 'NONE', #197 ) ;
#71 = VERTEX_POINT ( 'NONE', #196 ) ;
#72 = EDGE_CURVE ( 'NONE', #78, #70, #195, .T. ) ;
#73 = EDGE_LOOP ( 'NONE', ( #79, #80, #68, #67, #61 ) ) ;
#74 = ADVANCED_FACE ( 'NONE', ( #170 ), #168, .F. ) ;
#75 = MANIFOLD_SOLID_BREP ( 'NONE', #226 ) ;
#76 = VERTEX_POINT ( 'NONE', #169 ) ;
#77 = EDGE_CURVE ( 'NONE', #76, #78, #141, .T. ) ;
#78 = VERTEX_POINT ( 'NONE', #136 ) ;
#79 = ORIENTED_EDGE ( 'NONE', *, *, #77, .T. ) ;
#80 = ORIENTED_EDGE ( 'NONE', *, *, #72, .T. ) ;
#81 = DIRECTION ( 'NONE',  ( 1.000000000000000000, 0.0000000000000000000, 0.0000000000000000000 ) ) ;
#82 = DIRECTION ( 'NONE',  ( -0.0000000000000000000, -0.0000000000000000000, 1.000000000000000000 ) ) ;
#83 = CARTESIAN_POINT ( 'NONE',  ( 0.0000000000000000000, 0.0000000000000000000, 0.0000000000000000000 ) ) ;
#84 = AXIS2_PLACEMENT_3D ( 'NONE', #83, #82, #81 ) ;
#85 = CIRCLE ( 'NONE', #84, 13.25000000000000000 ) ;
#86 = FACE_OUTER_BOUND ( 'NONE', #4, .T. ) ;
#87 = ORIENTED_EDGE ( 'NONE', *, *, #27, .F. ) ;
#88 = ORIENTED_EDGE ( 'NONE', *, *, #172, .F. ) ;
#89 = ORIENTED_EDGE ( 'NONE', *, *, #50, .T. ) ;
#90 = EDGE_LOOP ( 'NONE', ( #20, #19 ) ) ;
#91 = ORIENTED_EDGE ( 'NONE', *, *, #23, .T. ) ;
#92 = ADVANCED_FACE ( 'NONE', ( #135 ), #134, .F. ) ;
#93 = ORIENTED_EDGE ( 'NONE', *, *, #181, .T. ) ;
#94 = ORIENTED_EDGE ( 'NONE', *, *, #58, .F. ) ;
#95 = ORIENTED_EDGE ( 'NONE', *, *, #96, .F. ) ;
#96 = EDGE_CURVE ( 'NONE', #97, #64, #316, .T. ) ;
#97 = VERTEX_POINT ( 'NONE', #309 ) ;
#98 = ORIENTED_EDGE ( 'NONE', *, *, #99, .F. ) ;
#99 = EDGE_CURVE ( 'NONE', #26, #97, #308, .T. ) ;
#100 = LINE ( 'NONE', #163, #162 ) ;
#101 = DIRECTION ( 'NONE',  ( 0.0000000000000000000, 1.000000000000000000, 3.311330901411227800E-016 ) ) ;
#102 = DIRECTION ( 'NONE',  ( -0.0000000000000000000, 3.197367493081505800E-016, -1.000000000000000000 ) ) ;
#103 = AXIS2_PLACEMENT_3D ( 'NONE', #105, #102, #101 ) ;
#104 = CYLINDRICAL_SURFACE ( 'NONE', #103, 10.47750000000000100 ) ;
#105 = CARTESIAN_POINT ( 'NONE',  ( 0.0000000000000000000, 3.673940397442051500E-016, -12.00000000000004300 ) ) ;
#106 = FACE_OUTER_BOUND ( 'NONE', #31, .T. ) ;
#107 = CARTESIAN_POINT ( 'NONE',  ( 13.25000000000000000, 0.0000000000000000000, 0.0000000000000000000 ) ) ;
#108 = DIRECTION ( 'NONE',  ( -0.0000000000000000000, -0.0000000000000000000, 1.000000000000000000 ) ) ;
#109 = VECTOR ( 'NONE', #108, 1000.000000000000000 ) ;
#110 = CARTESIAN_POINT ( 'NONE',  ( -13.24999999999999800, 1.622603418814649500E-015, -4.336808689942017700E-016 ) ) ;
#111 = LINE ( 'NONE', #110, #109 ) ;
#112 = DIRECTION ( 'NONE',  ( 1.000000000000000000, 0.0000000000000000000, 0.0000000000000000000 ) ) ;
#113 = DIRECTION ( 'NONE',  ( -0.0000000000000000000, -0.0000000000000000000, 1.000000000000000000 ) ) ;
#114 = CARTESIAN_POINT ( 'NONE',  ( 0.0000000000000000000, 0.0000000000000000000, 0.0000000000000000000 ) ) ;
#115 = AXIS2_PLACEMENT_3D ( 'NONE', #114, #113, #112 ) ;
#116 = CIRCLE ( 'NONE', #115, 13.25000000000000000 ) ;
#117 = CARTESIAN_POINT ( 'NONE',  ( -13.25000000000000200, 1.622603418814649900E-015, 0.0000000000000000000 ) ) ;
#118 = DIRECTION ( 'NONE',  ( 1.000000000000000000, 0.0000000000000000000, 0.0000000000000000000 ) ) ;
#119 = DIRECTION ( 'NONE',  ( -0.0000000000000000000, -0.0000000000000000000, 1.000000000000000000 ) ) ;
#120 = CARTESIAN_POINT ( 'NONE',  ( 0.0000000000000000000, 0.0000000000000000000, -0.3658823623497114400 ) ) ;
#121 = AXIS2_PLACEMENT_3D ( 'NONE', #120, #119, #118 ) ;
#122 = CIRCLE ( 'NONE', #121, 10.47749999999999700 ) ;
#123 = CARTESIAN_POINT ( 'NONE',  ( 0.0000000000000000000, 10.47749999999999700, -0.3658823623497114400 ) ) ;
#124 = DIRECTION ( 'NONE',  ( 1.000000000000000000, 0.0000000000000000000, 0.0000000000000000000 ) ) ;
#125 = DIRECTION ( 'NONE',  ( -0.0000000000000000000, -0.0000000000000000000, 1.000000000000000000 ) ) ;
#126 = AXIS2_PLACEMENT_3D ( 'NONE', #185, #125, #124 ) ;
#127 = CIRCLE ( 'NONE', #126, 10.84338236234971300 ) ;
#128 = DIRECTION ( 'NONE',  ( 1.000000000000000000, 0.0000000000000000000, 0.0000000000000000000 ) ) ;
#129 = DIRECTION ( 'NONE',  ( -0.0000000000000000000, -0.0000000000000000000, 1.000000000000000000 ) ) ;
#130 = DIRECTION ( 'NONE',  ( -1.000000000000000000, 0.0000000000000000000, 0.0000000000000000000 ) ) ;
#131 = DIRECTION ( 'NONE',  ( 0.0000000000000000000, 0.0000000000000000000, -1.000000000000000000 ) ) ;
#132 = CARTESIAN_POINT ( 'NONE',  ( 0.0000000000000000000, 0.0000000000000000000, -12.00000000000000200 ) ) ;
#133 = AXIS2_PLACEMENT_3D ( 'NONE', #132, #131, #130 ) ;
#134 = CONICAL_SURFACE ( 'NONE', #133, 10.84338236234979600, 0.7853981633974530500 ) ;
#135 = FACE_OUTER_BOUND ( 'NONE', #224, .T. ) ;
#136 = CARTESIAN_POINT ( 'NONE',  ( 10.47749999999999700, 1.305484400501650700E-015, -11.63411763765020600 ) ) ;
#137 = DIRECTION ( 'NONE',  ( 1.000000000000000000, 0.0000000000000000000, 0.0000000000000000000 ) ) ;
#138 = DIRECTION ( 'NONE',  ( -0.0000000000000000000, -0.0000000000000000000, 1.000000000000000000 ) ) ;
#139 = CARTESIAN_POINT ( 'NONE',  ( 0.0000000000000000000, 0.0000000000000000000, -11.63411763765020600 ) ) ;
#140 = AXIS2_PLACEMENT_3D ( 'NONE', #139, #138, #137 ) ;
#141 = CIRCLE ( 'NONE', #140, 10.47749999999999700 ) ;
#142 = DIRECTION ( 'NONE',  ( 1.000000000000000000, 0.0000000000000000000, 0.0000000000000000000 ) ) ;
#143 = DIRECTION ( 'NONE',  ( -0.0000000000000000000, -0.0000000000000000000, 1.000000000000000000 ) ) ;
#144 = CARTESIAN_POINT ( 'NONE',  ( 0.0000000000000000000, 0.0000000000000000000, -0.3658823623497114400 ) ) ;
#145 = AXIS2_PLACEMENT_3D ( 'NONE', #144, #143, #142 ) ;
#146 = CIRCLE ( 'NONE', #145, 10.47749999999999700 ) ;
#147 = CARTESIAN_POINT ( 'NONE',  ( 13.24999999999999800, 0.0000000000000000000, -12.00000000000000200 ) ) ;
#148 = CARTESIAN_POINT ( 'NONE',  ( -13.24999999999999800, 1.622603418814649500E-015, -12.00000000000000200 ) ) ;
#149 = DIRECTION ( 'NONE',  ( 1.000000000000000000, 0.0000000000000000000, 0.0000000000000000000 ) ) ;
#150 = DIRECTION ( 'NONE',  ( -0.0000000000000000000, -0.0000000000000000000, 1.000000000000000000 ) ) ;
#151 = CARTESIAN_POINT ( 'NONE',  ( 0.0000000000000000000, 0.0000000000000000000, -12.00000000000000200 ) ) ;
#152 = AXIS2_PLACEMENT_3D ( 'NONE', #151, #150, #149 ) ;
#153 = CIRCLE ( 'NONE', #152, 13.24999999999999800 ) ;
#154 = DIRECTION ( 'NONE',  ( 1.000000000000000000, 0.0000000000000000000, 0.0000000000000000000 ) ) ;
#155 = DIRECTION ( 'NONE',  ( -0.0000000000000000000, -0.0000000000000000000, 1.000000000000000000 ) ) ;
#156 = CARTESIAN_POINT ( 'NONE',  ( 0.0000000000000000000, 0.0000000000000000000, -4.336808689942017700E-016 ) ) ;
#157 = AXIS2_PLACEMENT_3D ( 'NONE', #156, #155, #154 ) ;
#158 = CYLINDRICAL_SURFACE ( 'NONE', #157, 13.24999999999999800 ) ;
#159 = CARTESIAN_POINT ( 'NONE',  ( 10.47749999999999700, 0.0000000000000000000, -0.3658823623497114400 ) ) ;
#160 = FACE_OUTER_BOUND ( 'NONE', #47, .T. ) ;
#161 = DIRECTION ( 'NONE',  ( -0.0000000000000000000, -0.0000000000000000000, 1.000000000000000000 ) ) ;
#162 = VECTOR ( 'NONE', #161, 1000.000000000000000 ) ;
#163 = CARTESIAN_POINT ( 'NONE',  ( 13.24999999999999800, 0.0000000000000000000, -4.336808689942017700E-016 ) ) ;
#164 = DIRECTION ( 'NONE',  ( -1.000000000000000000, 0.0000000000000000000, 0.0000000000000000000 ) ) ;
#165 = DIRECTION ( 'NONE',  ( 0.0000000000000000000, 0.0000000000000000000, -1.000000000000000000 ) ) ;
#166 = CARTESIAN_POINT ( 'NONE',  ( 0.0000000000000000000, 0.0000000000000000000, -12.00000000000000200 ) ) ;
#167 = AXIS2_PLACEMENT_3D ( 'NONE', #166, #165, #164 ) ;
#168 = CONICAL_SURFACE ( 'NONE', #167, 10.84338236234979600, 0.7853981633974530500 ) ;
#169 = CARTESIAN_POINT ( 'NONE',  ( 1.283081307217395800E-015, -10.47749999999999700, -11.63411763765020600 ) ) ;
#170 = FACE_OUTER_BOUND ( 'NONE', #73, .T. ) ;
#171 = DIRECTION ( 'NONE',  ( 0.7071067811865507900, 8.659274570719396100E-017, -0.7071067811865441300 ) ) ;
#172 = EDGE_CURVE ( 'NONE', #41, #26, #345, .T. ) ;
#173 = ORIENTED_EDGE ( 'NONE', *, *, #99, .T. ) ;
#174 = ORIENTED_EDGE ( 'NONE', *, *, #175, .F. ) ;
#175 = EDGE_CURVE ( 'NONE', #78, #97, #340, .T. ) ;
#176 = ADVANCED_FACE ( 'NONE', ( #335 ), #334, .F. ) ;
#177 = EDGE_LOOP ( 'NONE', ( #178, #227, #228, #173, #174, #245 ) ) ;
#178 = ORIENTED_EDGE ( 'NONE', *, *, #181, .F. ) ;
#179 = ADVANCED_FACE ( 'NONE', ( #333, #328 ), #327, .F. ) ;
#180 = ORIENTED_EDGE ( 'NONE', *, *, #65, .T. ) ;
#181 = EDGE_CURVE ( 'NONE', #54, #76, #325, .T. ) ;
#182 = CARTESIAN_POINT ( 'NONE',  ( 0.0000000000000000000, 0.0000000000000000000, -12.00000000000000200 ) ) ;
#183 = AXIS2_PLACEMENT_3D ( 'NONE', #182, #129, #128 ) ;
#184 = CIRCLE ( 'NONE', #183, 13.24999999999999800 ) ;
#185 = CARTESIAN_POINT ( 'NONE',  ( 0.0000000000000000000, 0.0000000000000000000, -5.454052677673735200E-017 ) ) ;
#186 = DIRECTION ( 'NONE',  ( 1.000000000000000000, 0.0000000000000000000, 0.0000000000000000000 ) ) ;
#187 = DIRECTION ( 'NONE',  ( -0.0000000000000000000, -0.0000000000000000000, 1.000000000000000000 ) ) ;
#188 = AXIS2_PLACEMENT_3D ( 'NONE', #230, #187, #186 ) ;
#189 = CYLINDRICAL_SURFACE ( 'NONE', #188, 13.24999999999999800 ) ;
#190 = DIRECTION ( 'NONE',  ( 1.000000000000000000, 0.0000000000000000000, 0.0000000000000000000 ) ) ;
#191 = DIRECTION ( 'NONE',  ( -0.0000000000000000000, -0.0000000000000000000, 1.000000000000000000 ) ) ;
#192 = AXIS2_PLACEMENT_3D ( 'NONE', #232, #191, #190 ) ;
#193 = VECTOR ( 'NONE', #171, 1000.000000000000000 ) ;
#194 = CARTESIAN_POINT ( 'NONE',  ( 10.84338236234979600, 1.327887493785906000E-015, -12.00000000000000200 ) ) ;
#195 = LINE ( 'NONE', #194, #193 ) ;
#196 = CARTESIAN_POINT ( 'NONE',  ( -10.84338236234979600, 0.0000000000000000000, -12.00000000000000200 ) ) ;
#197 = CARTESIAN_POINT ( 'NONE',  ( 10.84338236234979600, 1.327887493785906000E-015, -12.00000000000000200 ) ) ;
#198 = DIRECTION ( 'NONE',  ( 1.000000000000000000, 0.0000000000000000000, 0.0000000000000000000 ) ) ;
#199 = DIRECTION ( 'NONE',  ( -0.0000000000000000000, -0.0000000000000000000, 1.000000000000000000 ) ) ;
#200 = CARTESIAN_POINT ( 'NONE',  ( 0.0000000000000000000, 0.0000000000000000000, -12.00000000000000200 ) ) ;
#201 = AXIS2_PLACEMENT_3D ( 'NONE', #200, #199, #198 ) ;
#202 = CIRCLE ( 'NONE', #201, 10.84338236234979600 ) ;
#203 = CARTESIAN_POINT ( 'NONE',  ( -10.47749999999999700, 1.305484400501645600E-015, -0.3658823623497114400 ) ) ;
#204 = DIRECTION ( 'NONE',  ( -0.7071067811865507900, 0.0000000000000000000, -0.7071067811865441300 ) ) ;
#205 = VECTOR ( 'NONE', #204, 1000.000000000000000 ) ;
#206 = CARTESIAN_POINT ( 'NONE',  ( -10.84338236234979600, 0.0000000000000000000, -12.00000000000000200 ) ) ;
#207 = LINE ( 'NONE', #206, #205 ) ;
#208 = CARTESIAN_POINT ( 'NONE',  ( -10.47749999999999700, 0.0000000000000000000, -11.63411763765020600 ) ) ;
#209 = DIRECTION ( 'NONE',  ( 1.000000000000000000, 0.0000000000000000000, 0.0000000000000000000 ) ) ;
#210 = DIRECTION ( 'NONE',  ( -0.0000000000000000000, -0.0000000000000000000, 1.000000000000000000 ) ) ;
#211 = CARTESIAN_POINT ( 'NONE',  ( 0.0000000000000000000, 0.0000000000000000000, -0.3658823623497114400 ) ) ;
#212 = AXIS2_PLACEMENT_3D ( 'NONE', #211, #210, #209 ) ;
#213 = CIRCLE ( 'NONE', #212, 10.47749999999999700 ) ;
#214 = CARTESIAN_POINT ( 'NONE',  ( 1.283081307217395800E-015, -10.47749999999999700, -0.3658823623497114400 ) ) ;
#215 = CARTESIAN_POINT ( 'NONE',  ( -10.84338236234971300, 1.327887493785895800E-015, -5.454052677673735200E-017 ) ) ;
#216 = DIRECTION ( 'NONE',  ( -0.7071067811865519000, 8.659274570719408400E-017, 0.7071067811865431300 ) ) ;
#217 = VECTOR ( 'NONE', #216, 1000.000000000000000 ) ;
#218 = CARTESIAN_POINT ( 'NONE',  ( -10.47749999999999700, 1.283081307217395400E-015, -0.3658823623497114400 ) ) ;
#219 = LINE ( 'NONE', #218, #217 ) ;
#220 = DIRECTION ( 'NONE',  ( 0.7071067811865519000, 0.0000000000000000000, 0.7071067811865431300 ) ) ;
#221 = VECTOR ( 'NONE', #220, 1000.000000000000000 ) ;
#222 = CARTESIAN_POINT ( 'NONE',  ( 10.47749999999999700, 0.0000000000000000000, -0.3658823623497114400 ) ) ;
#223 = LINE ( 'NONE', #222, #221 ) ;
#224 = EDGE_LOOP ( 'NONE', ( #246, #247, #248, #180, #225 ) ) ;
#225 = ORIENTED_EDGE ( 'NONE', *, *, #10, .F. ) ;
#226 = CLOSED_SHELL ( 'NONE', ( #74, #59, #39, #36, #176, #179, #6, #14, #11, #92 ) ) ;
#227 = ORIENTED_EDGE ( 'NONE', *, *, #48, .T. ) ;
#228 = ORIENTED_EDGE ( 'NONE', *, *, #172, .T. ) ;
#229 = CONICAL_SURFACE ( 'NONE', #192, 10.47749999999999700, 0.7853981633974545000 ) ;
#230 = CARTESIAN_POINT ( 'NONE',  ( 0.0000000000000000000, 0.0000000000000000000, -4.336808689942017700E-016 ) ) ;
#231 = FACE_OUTER_BOUND ( 'NONE', #25, .T. ) ;
#232 = CARTESIAN_POINT ( 'NONE',  ( 0.0000000000000000000, 0.0000000000000000000, -0.3658823623497114400 ) ) ;
#233 = DIRECTION ( 'NONE',  ( 1.000000000000000000, 0.0000000000000000000, 0.0000000000000000000 ) ) ;
#234 = DIRECTION ( 'NONE',  ( -0.0000000000000000000, -0.0000000000000000000, 1.000000000000000000 ) ) ;
#235 = CARTESIAN_POINT ( 'NONE',  ( 0.0000000000000000000, 0.0000000000000000000, -12.00000000000000200 ) ) ;
#236 = AXIS2_PLACEMENT_3D ( 'NONE', #235, #234, #233 ) ;
#237 = CIRCLE ( 'NONE', #236, 10.84338236234979600 ) ;
#238 = FACE_OUTER_BOUND ( 'NONE', #7, .T. ) ;
#239 = DIRECTION ( 'NONE',  ( -1.000000000000000000, 0.0000000000000000000, -0.0000000000000000000 ) ) ;
#240 = DIRECTION ( 'NONE',  ( 0.0000000000000000000, 0.0000000000000000000, -1.000000000000000000 ) ) ;
#241 = CARTESIAN_POINT ( 'NONE',  ( 0.0000000000000000000, 13.25000000000000000, -2.168404344971008900E-016 ) ) ;
#242 = AXIS2_PLACEMENT_3D ( 'NONE', #241, #240, #239 ) ;
#243 = PLANE ( 'NONE',  #242 ) ;
#244 = FACE_BOUND ( 'NONE', #21, .T. ) ;
#245 = ORIENTED_EDGE ( 'NONE', *, *, #77, .F. ) ;
#246 = ORIENTED_EDGE ( 'NONE', *, *, #72, .F. ) ;
#247 = ORIENTED_EDGE ( 'NONE', *, *, #175, .T. ) ;
#248 = ORIENTED_EDGE ( 'NONE', *, *, #96, .T. ) ;
#249 = DIRECTION ( 'NONE',  ( 1.000000000000000000, 0.0000000000000000000, 0.0000000000000000000 ) ) ;
#250 = DIRECTION ( 'NONE',  ( -0.0000000000000000000, -0.0000000000000000000, 1.000000000000000000 ) ) ;
#251 = CARTESIAN_POINT ( 'NONE',  ( 0.0000000000000000000, 0.0000000000000000000, -0.3658823623497114400 ) ) ;
#252 = AXIS2_PLACEMENT_3D ( 'NONE', #251, #250, #249 ) ;
#253 = CONICAL_SURFACE ( 'NONE', #252, 10.47749999999999700, 0.7853981633974545000 ) ;
#254 = FACE_OUTER_BOUND ( 'NONE', #63, .T. ) ;
#255 = DIRECTION ( 'NONE',  ( 1.000000000000000000, 0.0000000000000000000, 0.0000000000000000000 ) ) ;
#256 = DIRECTION ( 'NONE',  ( -0.0000000000000000000, -0.0000000000000000000, 1.000000000000000000 ) ) ;
#257 = CARTESIAN_POINT ( 'NONE',  ( 0.0000000000000000000, 0.0000000000000000000, -11.63411763765020600 ) ) ;
#258 = AXIS2_PLACEMENT_3D ( 'NONE', #257, #256, #255 ) ;
#259 = CIRCLE ( 'NONE', #258, 10.47749999999999700 ) ;
#260 = CARTESIAN_POINT ( 'NONE',  ( 10.84338236234971300, 0.0000000000000000000, -5.454052677673735200E-017 ) ) ;
#261 = DIRECTION ( 'NONE',  ( 1.000000000000000000, 0.0000000000000000000, 0.0000000000000000000 ) ) ;
#262 = DIRECTION ( 'NONE',  ( -0.0000000000000000000, -0.0000000000000000000, 1.000000000000000000 ) ) ;
#263 = CARTESIAN_POINT ( 'NONE',  ( 0.0000000000000000000, 0.0000000000000000000, -5.454052677673735200E-017 ) ) ;
#264 = AXIS2_PLACEMENT_3D ( 'NONE', #263, #262, #261 ) ;
#265 = CIRCLE ( 'NONE', #264, 10.84338236234971300 ) ;
#266 = PRODUCT_DEFINITION_FORMATION_WITH_SPECIFIED_SOURCE ( 'ANY', '', #296, .NOT_KNOWN. ) ;
#267 = CC_DESIGN_DATE_AND_TIME_ASSIGNMENT ( #269, #268, ( #287 ) ) ;
#268 = DATE_TIME_ROLE ( 'creation_date' ) ;
#269 = DATE_AND_TIME ( #270, #271 ) ;
#270 = CALENDAR_DATE ( 2015, 11, 8 ) ;
#271 = LOCAL_TIME ( 16, 13, 19.00000000000000000, #272 ) ;
#272 = COORDINATED_UNIVERSAL_TIME_OFFSET ( 1, 0, .AHEAD. ) ;
#273 = CC_DESIGN_PERSON_AND_ORGANIZATION_ASSIGNMENT ( #275, #274, ( #287 ) ) ;
#274 = PERSON_AND_ORGANIZATION_ROLE ( 'creator' ) ;
#275 = PERSON_AND_ORGANIZATION ( #295, #294 ) ;
#276 = CC_DESIGN_APPROVAL ( #284, ( #287 ) ) ;
#277 = APPROVAL_DATE_TIME ( #278, #284 ) ;
#278 = DATE_AND_TIME ( #279, #280 ) ;
#279 = CALENDAR_DATE ( 2015, 11, 8 ) ;
#280 = LOCAL_TIME ( 16, 13, 19.00000000000000000, #281 ) ;
#281 = COORDINATED_UNIVERSAL_TIME_OFFSET ( 1, 0, .AHEAD. ) ;
#282 = APPROVAL_PERSON_ORGANIZATION ( #286, #284, #283 ) ;
#283 = APPROVAL_ROLE ( '' ) ;
#284 = APPROVAL ( #285, 'UNSPECIFIED' ) ;
#285 = APPROVAL_STATUS ( 'not_yet_approved' ) ;
#286 = PERSON_AND_ORGANIZATION ( #295, #294 ) ;
#287 = PRODUCT_DEFINITION ( 'UNKNOWN', '', #266, #288 ) ;
#288 = DESIGN_CONTEXT ( 'detailed design', #290, 'design' ) ;
#289 = APPLICATION_PROTOCOL_DEFINITION ( 'international standard', 'config_control_design', 1994, #290 ) ;
#290 = APPLICATION_CONTEXT ( 'configuration controlled 3d designs of mechanical parts and assemblies' ) ;
#291 = CC_DESIGN_PERSON_AND_ORGANIZATION_ASSIGNMENT ( #293, #292, ( #296 ) ) ;
#292 = PERSON_AND_ORGANIZATION_ROLE ( 'design_owner' ) ;
#293 = PERSON_AND_ORGANIZATION ( #295, #294 ) ;
#294 = ORGANIZATION ( 'UNSPECIFIED', 'UNSPECIFIED', '' ) ;
#295 = PERSON ( 'UNSPECIFIED', 'UNSPECIFIED', 'UNSPECIFIED', ('UNSPECIFIED'), ('UNSPECIFIED'), ('UNSPECIFIED') ) ;
#296 = PRODUCT ( '11-0216-04_outokumpu', '11-0216-04_outokumpu', '', ( #312 ) ) ;
#297 = DIRECTION ( 'NONE',  ( 1.000000000000000000, 0.0000000000000000000, 0.0000000000000000000 ) ) ;
#298 = DIRECTION ( 'NONE',  ( 0.0000000000000000000, 0.0000000000000000000, 1.000000000000000000 ) ) ;
#299 = CARTESIAN_POINT ( 'NONE',  ( 0.0000000000000000000, 0.0000000000000000000, 0.0000000000000000000 ) ) ;
#300 = APPLICATION_CONTEXT ( 'configuration controlled 3d designs of mechanical parts and assemblies' ) ;
#301 = SHAPE_DEFINITION_REPRESENTATION ( #348, #302 ) ;
#302 = ADVANCED_BREP_SHAPE_REPRESENTATION ( '11-0216-04_outokumpu', ( #75, #318 ), #303 ) ;
#303 =( GEOMETRIC_REPRESENTATION_CONTEXT ( 3 ) GLOBAL_UNCERTAINTY_ASSIGNED_CONTEXT ( ( #304 ) ) GLOBAL_UNIT_ASSIGNED_CONTEXT ( ( #317, #306, #305 ) ) REPRESENTATION_CONTEXT ( 'NONE', 'WORKASPACE' ) );
#304 = UNCERTAINTY_MEASURE_WITH_UNIT (LENGTH_MEASURE( 1.000000000000000100E-005 ), #317, 'distance_accuracy_value', 'NONE');
#305 =( NAMED_UNIT ( * ) SI_UNIT ( $, .STERADIAN. ) SOLID_ANGLE_UNIT ( ) );
#306 =( NAMED_UNIT ( * ) PLANE_ANGLE_UNIT ( ) SI_UNIT ( $, .RADIAN. ) );
#307 = CARTESIAN_POINT ( 'NONE',  ( 0.0000000000000000000, 10.47750000000000100, -12.00000000000003900 ) ) ;
#308 = LINE ( 'NONE', #307, #347 ) ;
#309 = CARTESIAN_POINT ( 'NONE',  ( 0.0000000000000000000, 10.47749999999999700, -11.63411763765020600 ) ) ;
#310 = DIRECTION ( 'NONE',  ( 1.000000000000000000, 0.0000000000000000000, 0.0000000000000000000 ) ) ;
#311 = DIRECTION ( 'NONE',  ( -0.0000000000000000000, -0.0000000000000000000, 1.000000000000000000 ) ) ;
#312 = MECHANICAL_CONTEXT ( 'NONE', #300, 'mechanical' ) ;
#313 = APPLICATION_PROTOCOL_DEFINITION ( 'international standard', 'config_control_design', 1994, #300 ) ;
#314 = CARTESIAN_POINT ( 'NONE',  ( 0.0000000000000000000, 0.0000000000000000000, -11.63411763765020600 ) ) ;
#315 = AXIS2_PLACEMENT_3D ( 'NONE', #314, #311, #310 ) ;
#316 = CIRCLE ( 'NONE', #315, 10.47749999999999700 ) ;
#317 =( LENGTH_UNIT ( ) NAMED_UNIT ( * ) SI_UNIT ( .MILLI., .METRE. ) );
#318 = AXIS2_PLACEMENT_3D ( 'NONE', #299, #298, #297 ) ;
#319 = DIRECTION ( 'NONE',  ( -0.0000000000000000000, 3.197367493081506300E-016, -1.000000000000000000 ) ) ;
#320 = VECTOR ( 'NONE', #319, 1000.000000000000000 ) ;
#321 = CARTESIAN_POINT ( 'NONE',  ( 1.283081307217396000E-015, -10.47750000000000100, -12.00000000000004600 ) ) ;
#322 = DIRECTION ( 'NONE',  ( 1.000000000000000000, 0.0000000000000000000, 0.0000000000000000000 ) ) ;
#323 = DIRECTION ( 'NONE',  ( 0.0000000000000000000, -0.0000000000000000000, 1.000000000000000000 ) ) ;
#324 = AXIS2_PLACEMENT_3D ( 'NONE', #326, #323, #322 ) ;
#325 = LINE ( 'NONE', #321, #320 ) ;
#326 = CARTESIAN_POINT ( 'NONE',  ( 0.0000000000000000000, 13.24999999999999800, -12.00000000000000000 ) ) ;
#327 = PLANE ( 'NONE',  #324 ) ;
#328 = FACE_BOUND ( 'NONE', #15, .T. ) ;
#329 = DIRECTION ( 'NONE',  ( 0.0000000000000000000, 1.000000000000000000, 3.311330901411227800E-016 ) ) ;
#330 = DIRECTION ( 'NONE',  ( -0.0000000000000000000, 3.197367493081505800E-016, -1.000000000000000000 ) ) ;
#331 = CARTESIAN_POINT ( 'NONE',  ( 0.0000000000000000000, 3.673940397442051500E-016, -12.00000000000004300 ) ) ;
#332 = AXIS2_PLACEMENT_3D ( 'NONE', #331, #330, #329 ) ;
#333 = FACE_OUTER_BOUND ( 'NONE', #90, .T. ) ;
#334 = CYLINDRICAL_SURFACE ( 'NONE', #332, 10.47750000000000100 ) ;
#335 = FACE_OUTER_BOUND ( 'NONE', #177, .T. ) ;
#336 = DIRECTION ( 'NONE',  ( 1.000000000000000000, 0.0000000000000000000, 0.0000000000000000000 ) ) ;
#337 = DIRECTION ( 'NONE',  ( -0.0000000000000000000, -0.0000000000000000000, 1.000000000000000000 ) ) ;
#338 = CARTESIAN_POINT ( 'NONE',  ( 0.0000000000000000000, 0.0000000000000000000, -11.63411763765020600 ) ) ;
#339 = AXIS2_PLACEMENT_3D ( 'NONE', #338, #337, #336 ) ;
#340 = CIRCLE ( 'NONE', #339, 10.47749999999999700 ) ;
#341 = DIRECTION ( 'NONE',  ( 1.000000000000000000, 0.0000000000000000000, 0.0000000000000000000 ) ) ;
#342 = DIRECTION ( 'NONE',  ( -0.0000000000000000000, -0.0000000000000000000, 1.000000000000000000 ) ) ;
#343 = CARTESIAN_POINT ( 'NONE',  ( 0.0000000000000000000, 0.0000000000000000000, -0.3658823623497114400 ) ) ;
#344 = AXIS2_PLACEMENT_3D ( 'NONE', #343, #342, #341 ) ;
#345 = CIRCLE ( 'NONE', #344, 10.47749999999999700 ) ;
#346 = DIRECTION ( 'NONE',  ( -0.0000000000000000000, 3.197367493081506300E-016, -1.000000000000000000 ) ) ;
#347 = VECTOR ( 'NONE', #346, 1000.000000000000000 ) ;
#348 = PRODUCT_DEFINITION_SHAPE ( 'NONE', 'NONE',  #287 ) ;
#349 = PRODUCT_RELATED_PRODUCT_CATEGORY ( 'detail', '', ( #296 ) ) ;
#350 = CC_DESIGN_SECURITY_CLASSIFICATION ( #371, ( #266 ) ) ;
#351 = CC_DESIGN_APPROVAL ( #359, ( #371 ) ) ;
#352 = APPROVAL_DATE_TIME ( #353, #359 ) ;
#353 = DATE_AND_TIME ( #354, #355 ) ;
#354 = CALENDAR_DATE ( 2015, 11, 8 ) ;
#355 = LOCAL_TIME ( 16, 13, 19.00000000000000000, #356 ) ;
#356 = COORDINATED_UNIVERSAL_TIME_OFFSET ( 1, 0, .AHEAD. ) ;
#357 = APPROVAL_PERSON_ORGANIZATION ( #361, #359, #358 ) ;
#358 = APPROVAL_ROLE ( '' ) ;
#359 = APPROVAL ( #360, 'UNSPECIFIED' ) ;
#360 = APPROVAL_STATUS ( 'not_yet_approved' ) ;
#361 = PERSON_AND_ORGANIZATION ( #295, #294 ) ;
#362 = CC_DESIGN_DATE_AND_TIME_ASSIGNMENT ( #364, #363, ( #371 ) ) ;
#363 = DATE_TIME_ROLE ( 'classification_date' ) ;
#364 = DATE_AND_TIME ( #365, #366 ) ;
#365 = CALENDAR_DATE ( 2015, 11, 8 ) ;
#366 = LOCAL_TIME ( 16, 13, 19.00000000000000000, #367 ) ;
#367 = COORDINATED_UNIVERSAL_TIME_OFFSET ( 1, 0, .AHEAD. ) ;
#368 = CC_DESIGN_PERSON_AND_ORGANIZATION_ASSIGNMENT ( #370, #369, ( #371 ) ) ;
#369 = PERSON_AND_ORGANIZATION_ROLE ( 'classification_officer' ) ;
#370 = PERSON_AND_ORGANIZATION ( #295, #294 ) ;
#371 = SECURITY_CLASSIFICATION ( '', '', #372 ) ;
#372 = SECURITY_CLASSIFICATION_LEVEL ( 'unclassified' ) ;
#373 = CC_DESIGN_PERSON_AND_ORGANIZATION_ASSIGNMENT ( #375, #374, ( #266 ) ) ;
#374 = PERSON_AND_ORGANIZATION_ROLE ( 'design_supplier' ) ;
#375 = PERSON_AND_ORGANIZATION ( #295, #294 ) ;
#376 = CC_DESIGN_PERSON_AND_ORGANIZATION_ASSIGNMENT ( #378, #377, ( #266 ) ) ;
#377 = PERSON_AND_ORGANIZATION_ROLE ( 'creator' ) ;
#378 = PERSON_AND_ORGANIZATION ( #295, #294 ) ;
#379 = CC_DESIGN_APPROVAL ( #387, ( #266 ) ) ;
#380 = APPROVAL_DATE_TIME ( #381, #387 ) ;
#381 = DATE_AND_TIME ( #382, #383 ) ;
#382 = CALENDAR_DATE ( 2015, 11, 8 ) ;
#383 = LOCAL_TIME ( 16, 13, 19.00000000000000000, #384 ) ;
#384 = COORDINATED_UNIVERSAL_TIME_OFFSET ( 1, 0, .AHEAD. ) ;
#385 = APPROVAL_PERSON_ORGANIZATION ( #389, #387, #386 ) ;
#386 = APPROVAL_ROLE ( '' ) ;
#387 = APPROVAL ( #388, 'UNSPECIFIED' ) ;
#388 = APPROVAL_STATUS ( 'not_yet_approved' ) ;
#389 = PERSON_AND_ORGANIZATION ( #295, #294 ) ;
ENDSEC;
END-ISO-10303-21;
