ISO-10303-21;
HEADER;
FILE_DESCRIPTION (( 'STEP AP203' ),
    '1' );
FILE_NAME ('11-0216-02_outokumpu.step',
    '2015-08-11T14:12:55',
    ( '' ),
    ( '' ),
    'SwSTEP 2.0',
    'SolidWorks 2008',
    '' );
FILE_SCHEMA (( 'CONFIG_CONTROL_DESIGN' ));
ENDSEC;

DATA;
#1 = ORIENTED_EDGE ( 'NONE', *, *, #20, .F. ) ;
#2 = EDGE_LOOP ( 'NONE', ( #1, #56 ) ) ;
#3 = ADVANCED_FACE ( 'NONE', ( #202, #205 ), #204, .F. ) ;
#4 = PRODUCT ( '11-0216-02_outokumpu', '11-0216-02_outokumpu', '', ( #237 ) ) ;
#5 = PERSON ( 'UNSPECIFIED', 'UNSPECIFIED', 'UNSPECIFIED', ('UNSPECIFIED'), ('UNSPECIFIED'), ('UNSPECIFIED') ) ;
#6 = ORIENTED_EDGE ( 'NONE', *, *, #7, .F. ) ;
#7 = EDGE_CURVE ( 'NONE', #21, #114, #203, .T. ) ;
#8 = ADVANCED_FACE ( 'NONE', ( #170 ), #168, .F. ) ;
#9 = EDGE_LOOP ( 'NONE', ( #10, #39, #37, #36, #33, #31 ) ) ;
#10 = ORIENTED_EDGE ( 'NONE', *, *, #11, .T. ) ;
#11 = EDGE_CURVE ( 'NONE', #12, #108, #169, .T. ) ;
#12 = VERTEX_POINT ( 'NONE', #159 ) ;
#13 = EDGE_CURVE ( 'NONE', #14, #94, #158, .T. ) ;
#14 = VERTEX_POINT ( 'NONE', #154 ) ;
#15 = ORIENTED_EDGE ( 'NONE', *, *, #16, .F. ) ;
#16 = EDGE_CURVE ( 'NONE', #109, #14, #152, .T. ) ;
#17 = ADVANCED_FACE ( 'NONE', ( #153 ), #287, .T. ) ;
#18 = EDGE_LOOP ( 'NONE', ( #19, #23, #26, #6 ) ) ;
#19 = ORIENTED_EDGE ( 'NONE', *, *, #20, .T. ) ;
#20 = EDGE_CURVE ( 'NONE', #21, #22, #288, .T. ) ;
#21 = VERTEX_POINT ( 'NONE', #279 ) ;
#22 = VERTEX_POINT ( 'NONE', #278 ) ;
#23 = ORIENTED_EDGE ( 'NONE', *, *, #24, .T. ) ;
#24 = EDGE_CURVE ( 'NONE', #22, #25, #277, .T. ) ;
#25 = VERTEX_POINT ( 'NONE', #273 ) ;
#26 = ORIENTED_EDGE ( 'NONE', *, *, #113, .F. ) ;
#27 = ORIENTED_EDGE ( 'NONE', *, *, #16, .T. ) ;
#28 = EDGE_LOOP ( 'NONE', ( #38, #27, #43, #45, #46, #48 ) ) ;
#29 = ADVANCED_FACE ( 'NONE', ( #272 ), #270, .F. ) ;
#30 = EDGE_CURVE ( 'NONE', #12, #32, #266, .T. ) ;
#31 = ORIENTED_EDGE ( 'NONE', *, *, #30, .F. ) ;
#32 = VERTEX_POINT ( 'NONE', #262 ) ;
#33 = ORIENTED_EDGE ( 'NONE', *, *, #34, .F. ) ;
#34 = EDGE_CURVE ( 'NONE', #32, #101, #261, .T. ) ;
#35 = EDGE_CURVE ( 'NONE', #109, #87, #317, .T. ) ;
#36 = ORIENTED_EDGE ( 'NONE', *, *, #103, .F. ) ;
#37 = ORIENTED_EDGE ( 'NONE', *, *, #35, .T. ) ;
#38 = ORIENTED_EDGE ( 'NONE', *, *, #35, .F. ) ;
#39 = ORIENTED_EDGE ( 'NONE', *, *, #107, .T. ) ;
#40 = ORIENTED_EDGE ( 'NONE', *, *, #47, .T. ) ;
#41 = ORIENTED_EDGE ( 'NONE', *, *, #34, .T. ) ;
#42 = ORIENTED_EDGE ( 'NONE', *, *, #100, .T. ) ;
#43 = ORIENTED_EDGE ( 'NONE', *, *, #44, .T. ) ;
#44 = EDGE_CURVE ( 'NONE', #14, #12, #313, .T. ) ;
#45 = ORIENTED_EDGE ( 'NONE', *, *, #30, .T. ) ;
#46 = ORIENTED_EDGE ( 'NONE', *, *, #47, .F. ) ;
#47 = EDGE_CURVE ( 'NONE', #88, #32, #308, .T. ) ;
#48 = ORIENTED_EDGE ( 'NONE', *, *, #86, .F. ) ;
#49 = ORIENTED_EDGE ( 'NONE', *, *, #61, .F. ) ;
#50 = CLOSED_SHELL ( 'NONE', ( #83, #104, #17, #8, #29, #3, #62, #55, #80, #72 ) ) ;
#51 = EDGE_CURVE ( 'NONE', #25, #114, #303, .T. ) ;
#52 = ORIENTED_EDGE ( 'NONE', *, *, #53, .F. ) ;
#53 = EDGE_CURVE ( 'NONE', #94, #112, #298, .T. ) ;
#54 = ORIENTED_EDGE ( 'NONE', *, *, #93, .F. ) ;
#55 = ADVANCED_FACE ( 'NONE', ( #293 ), #292, .T. ) ;
#56 = ORIENTED_EDGE ( 'NONE', *, *, #57, .F. ) ;
#57 = EDGE_CURVE ( 'NONE', #22, #21, #200, .T. ) ;
#58 = EDGE_LOOP ( 'NONE', ( #59, #60 ) ) ;
#59 = ORIENTED_EDGE ( 'NONE', *, *, #97, .T. ) ;
#60 = ORIENTED_EDGE ( 'NONE', *, *, #61, .T. ) ;
#61 = EDGE_CURVE ( 'NONE', #91, #98, #195, .T. ) ;
#62 = ADVANCED_FACE ( 'NONE', ( #190, #189 ), #188, .F. ) ;
#63 = EDGE_LOOP ( 'NONE', ( #64, #65 ) ) ;
#64 = ORIENTED_EDGE ( 'NONE', *, *, #113, .T. ) ;
#65 = ORIENTED_EDGE ( 'NONE', *, *, #51, .T. ) ;
#66 = EDGE_LOOP ( 'NONE', ( #52, #54 ) ) ;
#67 = ORIENTED_EDGE ( 'NONE', *, *, #111, .F. ) ;
#68 = ORIENTED_EDGE ( 'NONE', *, *, #11, .F. ) ;
#69 = ORIENTED_EDGE ( 'NONE', *, *, #44, .F. ) ;
#70 = ORIENTED_EDGE ( 'NONE', *, *, #13, .T. ) ;
#71 = ORIENTED_EDGE ( 'NONE', *, *, #53, .T. ) ;
#72 = ADVANCED_FACE ( 'NONE', ( #182 ), #181, .F. ) ;
#73 = EDGE_LOOP ( 'NONE', ( #74, #40, #41, #42, #49 ) ) ;
#74 = ORIENTED_EDGE ( 'NONE', *, *, #90, .F. ) ;
#75 = EDGE_LOOP ( 'NONE', ( #76, #77, #78, #79 ) ) ;
#76 = ORIENTED_EDGE ( 'NONE', *, *, #24, .F. ) ;
#77 = ORIENTED_EDGE ( 'NONE', *, *, #57, .T. ) ;
#78 = ORIENTED_EDGE ( 'NONE', *, *, #7, .T. ) ;
#79 = ORIENTED_EDGE ( 'NONE', *, *, #51, .F. ) ;
#80 = ADVANCED_FACE ( 'NONE', ( #180 ), #235, .F. ) ;
#81 = EDGE_LOOP ( 'NONE', ( #67, #68, #69, #70, #71 ) ) ;
#82 = MANIFOLD_SOLID_BREP ( 'NONE', #50 ) ;
#83 = ADVANCED_FACE ( 'NONE', ( #234 ), #229, .F. ) ;
#84 = EDGE_LOOP ( 'NONE', ( #85, #89, #96, #99, #102 ) ) ;
#85 = ORIENTED_EDGE ( 'NONE', *, *, #86, .T. ) ;
#86 = EDGE_CURVE ( 'NONE', #87, #88, #224, .T. ) ;
#87 = VERTEX_POINT ( 'NONE', #219 ) ;
#88 = VERTEX_POINT ( 'NONE', #218 ) ;
#89 = ORIENTED_EDGE ( 'NONE', *, *, #90, .T. ) ;
#90 = EDGE_CURVE ( 'NONE', #88, #91, #217, .T. ) ;
#91 = VERTEX_POINT ( 'NONE', #213 ) ;
#92 = ORIENTED_EDGE ( 'NONE', *, *, #93, .T. ) ;
#93 = EDGE_CURVE ( 'NONE', #112, #94, #212, .T. ) ;
#94 = VERTEX_POINT ( 'NONE', #207 ) ;
#95 = ORIENTED_EDGE ( 'NONE', *, *, #13, .F. ) ;
#96 = ORIENTED_EDGE ( 'NONE', *, *, #97, .F. ) ;
#97 = EDGE_CURVE ( 'NONE', #98, #91, #146, .T. ) ;
#98 = VERTEX_POINT ( 'NONE', #141 ) ;
#99 = ORIENTED_EDGE ( 'NONE', *, *, #100, .F. ) ;
#100 = EDGE_CURVE ( 'NONE', #101, #98, #140, .T. ) ;
#101 = VERTEX_POINT ( 'NONE', #136 ) ;
#102 = ORIENTED_EDGE ( 'NONE', *, *, #103, .T. ) ;
#103 = EDGE_CURVE ( 'NONE', #101, #87, #134, .T. ) ;
#104 = ADVANCED_FACE ( 'NONE', ( #135 ), #127, .F. ) ;
#105 = EDGE_LOOP ( 'NONE', ( #106, #110, #92, #95, #15 ) ) ;
#106 = ORIENTED_EDGE ( 'NONE', *, *, #107, .F. ) ;
#107 = EDGE_CURVE ( 'NONE', #108, #109, #128, .T. ) ;
#108 = VERTEX_POINT ( 'NONE', #119 ) ;
#109 = VERTEX_POINT ( 'NONE', #118 ) ;
#110 = ORIENTED_EDGE ( 'NONE', *, *, #111, .T. ) ;
#111 = EDGE_CURVE ( 'NONE', #108, #112, #117, .T. ) ;
#112 = VERTEX_POINT ( 'NONE', #255 ) ;
#113 = EDGE_CURVE ( 'NONE', #114, #25, #254, .T. ) ;
#114 = VERTEX_POINT ( 'NONE', #249 ) ;
#115 = VECTOR ( 'NONE', #256, 1000.000000000000100 ) ;
#116 = CARTESIAN_POINT ( 'NONE',  ( -6.578499999999999100, 8.056072898620507900E-016, -0.2297262821014151300 ) ) ;
#117 = LINE ( 'NONE', #116, #115 ) ;
#118 = CARTESIAN_POINT ( 'NONE',  ( 8.056072898620508900E-016, -6.578499999999999100, -0.2297262821014151300 ) ) ;
#119 = CARTESIAN_POINT ( 'NONE',  ( -6.578499999999999100, 8.196735030971202000E-016, -0.2297262821014151300 ) ) ;
#120 = DIRECTION ( 'NONE',  ( 1.000000000000000000, 0.0000000000000000000, 0.0000000000000000000 ) ) ;
#121 = DIRECTION ( 'NONE',  ( -0.0000000000000000000, -0.0000000000000000000, 1.000000000000000000 ) ) ;
#122 = CARTESIAN_POINT ( 'NONE',  ( 0.0000000000000000000, 0.0000000000000000000, -0.2297262821014151300 ) ) ;
#123 = AXIS2_PLACEMENT_3D ( 'NONE', #122, #121, #120 ) ;
#124 = DIRECTION ( 'NONE',  ( 1.000000000000000000, 0.0000000000000000000, 0.0000000000000000000 ) ) ;
#125 = DIRECTION ( 'NONE',  ( -0.0000000000000000000, -0.0000000000000000000, 1.000000000000000000 ) ) ;
#126 = AXIS2_PLACEMENT_3D ( 'NONE', #129, #125, #124 ) ;
#127 = CONICAL_SURFACE ( 'NONE', #126, 6.578499999999999100, 0.7853981633974550500 ) ;
#128 = CIRCLE ( 'NONE', #123, 6.578499999999999100 ) ;
#129 = CARTESIAN_POINT ( 'NONE',  ( 0.0000000000000000000, 0.0000000000000000000, -0.2297262821014151300 ) ) ;
#130 = DIRECTION ( 'NONE',  ( 1.000000000000000000, 0.0000000000000000000, 0.0000000000000000000 ) ) ;
#131 = DIRECTION ( 'NONE',  ( -0.0000000000000000000, -0.0000000000000000000, 1.000000000000000000 ) ) ;
#132 = CARTESIAN_POINT ( 'NONE',  ( 0.0000000000000000000, 0.0000000000000000000, -9.770273717898534800 ) ) ;
#133 = AXIS2_PLACEMENT_3D ( 'NONE', #132, #131, #130 ) ;
#134 = CIRCLE ( 'NONE', #133, 6.578499999999999100 ) ;
#135 = FACE_OUTER_BOUND ( 'NONE', #105, .T. ) ;
#136 = CARTESIAN_POINT ( 'NONE',  ( -6.578499999999999100, 0.0000000000000000000, -9.770273717898534800 ) ) ;
#137 = DIRECTION ( 'NONE',  ( -0.7071067811865514600, 0.0000000000000000000, -0.7071067811865435800 ) ) ;
#138 = VECTOR ( 'NONE', #137, 1000.000000000000000 ) ;
#139 = CARTESIAN_POINT ( 'NONE',  ( -6.808226282101470500, 0.0000000000000000000, -10.00000000000000400 ) ) ;
#140 = LINE ( 'NONE', #139, #138 ) ;
#141 = CARTESIAN_POINT ( 'NONE',  ( -6.808226282101470500, 0.0000000000000000000, -10.00000000000000400 ) ) ;
#142 = DIRECTION ( 'NONE',  ( 1.000000000000000000, 0.0000000000000000000, 0.0000000000000000000 ) ) ;
#143 = DIRECTION ( 'NONE',  ( -0.0000000000000000000, -0.0000000000000000000, 1.000000000000000000 ) ) ;
#144 = CARTESIAN_POINT ( 'NONE',  ( 0.0000000000000000000, 0.0000000000000000000, -10.00000000000000400 ) ) ;
#145 = AXIS2_PLACEMENT_3D ( 'NONE', #144, #143, #142 ) ;
#146 = CIRCLE ( 'NONE', #145, 6.808226282101470500 ) ;
#147 = CARTESIAN_POINT ( 'NONE',  ( 0.0000000000000000000, 0.0000000000000000000, -4.336808689942017700E-016 ) ) ;
#148 = DIRECTION ( 'NONE',  ( 1.000000000000000000, 0.0000000000000000000, 0.0000000000000000000 ) ) ;
#149 = DIRECTION ( 'NONE',  ( -0.0000000000000000000, -0.0000000000000000000, 1.000000000000000000 ) ) ;
#150 = CARTESIAN_POINT ( 'NONE',  ( 0.0000000000000000000, 0.0000000000000000000, -0.2297262821014151300 ) ) ;
#151 = AXIS2_PLACEMENT_3D ( 'NONE', #150, #149, #148 ) ;
#152 = CIRCLE ( 'NONE', #151, 6.578499999999999100 ) ;
#153 = FACE_OUTER_BOUND ( 'NONE', #18, .T. ) ;
#154 = CARTESIAN_POINT ( 'NONE',  ( 6.578499999999999100, 0.0000000000000000000, -0.2297262821014151300 ) ) ;
#155 = DIRECTION ( 'NONE',  ( 0.7071067811865522400, 0.0000000000000000000, 0.7071067811865426900 ) ) ;
#156 = VECTOR ( 'NONE', #155, 1000.000000000000100 ) ;
#157 = CARTESIAN_POINT ( 'NONE',  ( 6.578499999999999100, 0.0000000000000000000, -0.2297262821014151300 ) ) ;
#158 = LINE ( 'NONE', #157, #156 ) ;
#159 = CARTESIAN_POINT ( 'NONE',  ( 0.0000000000000000000, 6.578500000000000000, -0.2297262821014151300 ) ) ;
#160 = DIRECTION ( 'NONE',  ( 1.000000000000000000, 0.0000000000000000000, 0.0000000000000000000 ) ) ;
#161 = DIRECTION ( 'NONE',  ( -0.0000000000000000000, -0.0000000000000000000, 1.000000000000000000 ) ) ;
#162 = CARTESIAN_POINT ( 'NONE',  ( 0.0000000000000000000, 0.0000000000000000000, -0.2297262821014151300 ) ) ;
#163 = AXIS2_PLACEMENT_3D ( 'NONE', #162, #161, #160 ) ;
#164 = DIRECTION ( 'NONE',  ( 0.0000000000000000000, 1.000000000000000000, 2.636958996696521900E-016 ) ) ;
#165 = DIRECTION ( 'NONE',  ( -0.0000000000000000000, 3.591911631868340900E-016, -1.000000000000000000 ) ) ;
#166 = CARTESIAN_POINT ( 'NONE',  ( 0.0000000000000000000, 1.224646799147350500E-016, -10.00000000000002700 ) ) ;
#167 = AXIS2_PLACEMENT_3D ( 'NONE', #166, #165, #164 ) ;
#168 = CYLINDRICAL_SURFACE ( 'NONE', #167, 6.578500000000000900 ) ;
#169 = CIRCLE ( 'NONE', #163, 6.578499999999999100 ) ;
#170 = FACE_OUTER_BOUND ( 'NONE', #9, .T. ) ;
#171 = DIRECTION ( 'NONE',  ( -0.0000000000000000000, -0.0000000000000000000, 1.000000000000000000 ) ) ;
#172 = VECTOR ( 'NONE', #171, 1000.000000000000000 ) ;
#173 = CARTESIAN_POINT ( 'NONE',  ( 9.250000000000001800, 0.0000000000000000000, -4.336808689942017700E-016 ) ) ;
#174 = DIRECTION ( 'NONE',  ( 1.000000000000000000, 0.0000000000000000000, 0.0000000000000000000 ) ) ;
#175 = DIRECTION ( 'NONE',  ( 0.0000000000000000000, -0.0000000000000000000, 1.000000000000000000 ) ) ;
#176 = CARTESIAN_POINT ( 'NONE',  ( 0.0000000000000000000, 9.250000000000001800, -10.00000000000000200 ) ) ;
#177 = AXIS2_PLACEMENT_3D ( 'NONE', #176, #175, #174 ) ;
#178 = DIRECTION ( 'NONE',  ( 0.0000000000000000000, 0.0000000000000000000, -1.000000000000000000 ) ) ;
#179 = AXIS2_PLACEMENT_3D ( 'NONE', #186, #178, #236 ) ;
#180 = FACE_OUTER_BOUND ( 'NONE', #81, .T. ) ;
#181 = CONICAL_SURFACE ( 'NONE', #179, 6.808226282101470500, 0.7853981633974538300 ) ;
#182 = FACE_OUTER_BOUND ( 'NONE', #73, .T. ) ;
#183 = DIRECTION ( 'NONE',  ( -1.000000000000000000, 0.0000000000000000000, -0.0000000000000000000 ) ) ;
#184 = DIRECTION ( 'NONE',  ( 0.0000000000000000000, 0.0000000000000000000, -1.000000000000000000 ) ) ;
#185 = AXIS2_PLACEMENT_3D ( 'NONE', #187, #184, #183 ) ;
#186 = CARTESIAN_POINT ( 'NONE',  ( 0.0000000000000000000, 0.0000000000000000000, -10.00000000000000400 ) ) ;
#187 = CARTESIAN_POINT ( 'NONE',  ( 0.0000000000000000000, 9.250000000000000000, -2.168404344971008900E-016 ) ) ;
#188 = PLANE ( 'NONE',  #185 ) ;
#189 = FACE_BOUND ( 'NONE', #66, .T. ) ;
#190 = FACE_OUTER_BOUND ( 'NONE', #63, .T. ) ;
#191 = DIRECTION ( 'NONE',  ( 1.000000000000000000, 0.0000000000000000000, 0.0000000000000000000 ) ) ;
#192 = DIRECTION ( 'NONE',  ( -0.0000000000000000000, -0.0000000000000000000, 1.000000000000000000 ) ) ;
#193 = CARTESIAN_POINT ( 'NONE',  ( 0.0000000000000000000, 0.0000000000000000000, -10.00000000000000400 ) ) ;
#194 = AXIS2_PLACEMENT_3D ( 'NONE', #193, #192, #191 ) ;
#195 = CIRCLE ( 'NONE', #194, 6.808226282101470500 ) ;
#196 = DIRECTION ( 'NONE',  ( 1.000000000000000000, 0.0000000000000000000, 0.0000000000000000000 ) ) ;
#197 = DIRECTION ( 'NONE',  ( -0.0000000000000000000, -0.0000000000000000000, 1.000000000000000000 ) ) ;
#198 = CARTESIAN_POINT ( 'NONE',  ( 0.0000000000000000000, 0.0000000000000000000, -10.00000000000000400 ) ) ;
#199 = AXIS2_PLACEMENT_3D ( 'NONE', #198, #197, #196 ) ;
#200 = CIRCLE ( 'NONE', #199, 9.250000000000001800 ) ;
#201 = DIRECTION ( 'NONE',  ( 1.000000000000000000, 0.0000000000000000000, 0.0000000000000000000 ) ) ;
#202 = FACE_OUTER_BOUND ( 'NONE', #2, .T. ) ;
#203 = LINE ( 'NONE', #173, #172 ) ;
#204 = PLANE ( 'NONE',  #177 ) ;
#205 = FACE_BOUND ( 'NONE', #58, .T. ) ;
#206 =( LENGTH_UNIT ( ) NAMED_UNIT ( * ) SI_UNIT ( .MILLI., .METRE. ) );
#207 = CARTESIAN_POINT ( 'NONE',  ( 6.808226282101417200, 0.0000000000000000000, -5.454052677674043300E-017 ) ) ;
#208 = DIRECTION ( 'NONE',  ( 1.000000000000000000, 0.0000000000000000000, 0.0000000000000000000 ) ) ;
#209 = DIRECTION ( 'NONE',  ( -0.0000000000000000000, -0.0000000000000000000, 1.000000000000000000 ) ) ;
#210 = CARTESIAN_POINT ( 'NONE',  ( 0.0000000000000000000, 0.0000000000000000000, -5.454052677674043300E-017 ) ) ;
#211 = AXIS2_PLACEMENT_3D ( 'NONE', #210, #209, #208 ) ;
#212 = CIRCLE ( 'NONE', #211, 6.808226282101417200 ) ;
#213 = CARTESIAN_POINT ( 'NONE',  ( 6.808226282101470500, 8.337397163321962200E-016, -10.00000000000000400 ) ) ;
#214 = DIRECTION ( 'NONE',  ( 0.7071067811865514600, 8.659274570719403500E-017, -0.7071067811865435800 ) ) ;
#215 = VECTOR ( 'NONE', #214, 1000.000000000000000 ) ;
#216 = CARTESIAN_POINT ( 'NONE',  ( 6.808226282101470500, 8.337397163321962200E-016, -10.00000000000000400 ) ) ;
#217 = LINE ( 'NONE', #216, #215 ) ;
#218 = CARTESIAN_POINT ( 'NONE',  ( 6.578499999999999100, 8.196735030971234600E-016, -9.770273717898534800 ) ) ;
#219 = CARTESIAN_POINT ( 'NONE',  ( 8.056072898620508900E-016, -6.578499999999999100, -9.770273717898534800 ) ) ;
#220 = DIRECTION ( 'NONE',  ( 1.000000000000000000, 0.0000000000000000000, 0.0000000000000000000 ) ) ;
#221 = DIRECTION ( 'NONE',  ( -0.0000000000000000000, -0.0000000000000000000, 1.000000000000000000 ) ) ;
#222 = CARTESIAN_POINT ( 'NONE',  ( 0.0000000000000000000, 0.0000000000000000000, -9.770273717898534800 ) ) ;
#223 = AXIS2_PLACEMENT_3D ( 'NONE', #222, #221, #220 ) ;
#224 = CIRCLE ( 'NONE', #223, 6.578499999999999100 ) ;
#225 = DIRECTION ( 'NONE',  ( -1.000000000000000000, 0.0000000000000000000, 0.0000000000000000000 ) ) ;
#226 = DIRECTION ( 'NONE',  ( 0.0000000000000000000, 0.0000000000000000000, -1.000000000000000000 ) ) ;
#227 = CARTESIAN_POINT ( 'NONE',  ( 0.0000000000000000000, 0.0000000000000000000, -10.00000000000000400 ) ) ;
#228 = AXIS2_PLACEMENT_3D ( 'NONE', #227, #226, #225 ) ;
#229 = CONICAL_SURFACE ( 'NONE', #228, 6.808226282101470500, 0.7853981633974538300 ) ;
#230 = DIRECTION ( 'NONE',  ( 1.000000000000000000, 0.0000000000000000000, 0.0000000000000000000 ) ) ;
#231 = DIRECTION ( 'NONE',  ( -0.0000000000000000000, -0.0000000000000000000, 1.000000000000000000 ) ) ;
#232 = CARTESIAN_POINT ( 'NONE',  ( 0.0000000000000000000, 0.0000000000000000000, -0.2297262821014151300 ) ) ;
#233 = AXIS2_PLACEMENT_3D ( 'NONE', #232, #231, #230 ) ;
#234 = FACE_OUTER_BOUND ( 'NONE', #84, .T. ) ;
#235 = CONICAL_SURFACE ( 'NONE', #233, 6.578499999999999100, 0.7853981633974550500 ) ;
#236 = DIRECTION ( 'NONE',  ( -1.000000000000000000, 0.0000000000000000000, 0.0000000000000000000 ) ) ;
#237 = MECHANICAL_CONTEXT ( 'NONE', #239, 'mechanical' ) ;
#238 = APPLICATION_PROTOCOL_DEFINITION ( 'international standard', 'config_control_design', 1994, #239 ) ;
#239 = APPLICATION_CONTEXT ( 'configuration controlled 3d designs of mechanical parts and assemblies' ) ;
#240 = CARTESIAN_POINT ( 'NONE',  ( 0.0000000000000000000, 0.0000000000000000000, 0.0000000000000000000 ) ) ;
#241 = AXIS2_PLACEMENT_3D ( 'NONE', #240, #243, #242 ) ;
#242 = DIRECTION ( 'NONE',  ( 1.000000000000000000, 0.0000000000000000000, 0.0000000000000000000 ) ) ;
#243 = DIRECTION ( 'NONE',  ( 0.0000000000000000000, 0.0000000000000000000, 1.000000000000000000 ) ) ;
#244 = ADVANCED_BREP_SHAPE_REPRESENTATION ( '11-0216-02_outokumpu', ( #82, #241 ), #245 ) ;
#245 =( GEOMETRIC_REPRESENTATION_CONTEXT ( 3 ) GLOBAL_UNCERTAINTY_ASSIGNED_CONTEXT ( ( #246 ) ) GLOBAL_UNIT_ASSIGNED_CONTEXT ( ( #206, #248, #247 ) ) REPRESENTATION_CONTEXT ( 'NONE', 'WORKASPACE' ) );
#246 = UNCERTAINTY_MEASURE_WITH_UNIT (LENGTH_MEASURE( 1.000000000000000100E-005 ), #206, 'distance_accuracy_value', 'NONE');
#247 =( NAMED_UNIT ( * ) SI_UNIT ( $, .STERADIAN. ) SOLID_ANGLE_UNIT ( ) );
#248 =( NAMED_UNIT ( * ) PLANE_ANGLE_UNIT ( ) SI_UNIT ( $, .RADIAN. ) );
#249 = CARTESIAN_POINT ( 'NONE',  ( 9.250000000000000000, 0.0000000000000000000, 0.0000000000000000000 ) ) ;
#250 = DIRECTION ( 'NONE',  ( 1.000000000000000000, 0.0000000000000000000, 0.0000000000000000000 ) ) ;
#251 = DIRECTION ( 'NONE',  ( -0.0000000000000000000, -0.0000000000000000000, 1.000000000000000000 ) ) ;
#252 = CARTESIAN_POINT ( 'NONE',  ( 0.0000000000000000000, 0.0000000000000000000, 0.0000000000000000000 ) ) ;
#253 = AXIS2_PLACEMENT_3D ( 'NONE', #252, #251, #250 ) ;
#254 = CIRCLE ( 'NONE', #253, 9.250000000000000000 ) ;
#255 = CARTESIAN_POINT ( 'NONE',  ( -6.808226282101417200, 8.337397163321896100E-016, -5.454052677674043300E-017 ) ) ;
#256 = DIRECTION ( 'NONE',  ( -0.7071067811865522400, 8.659274570719413300E-017, 0.7071067811865426900 ) ) ;
#257 = DIRECTION ( 'NONE',  ( 1.000000000000000000, 0.0000000000000000000, 0.0000000000000000000 ) ) ;
#258 = DIRECTION ( 'NONE',  ( -0.0000000000000000000, -0.0000000000000000000, 1.000000000000000000 ) ) ;
#259 = CARTESIAN_POINT ( 'NONE',  ( 0.0000000000000000000, 0.0000000000000000000, -9.770273717898534800 ) ) ;
#260 = AXIS2_PLACEMENT_3D ( 'NONE', #259, #258, #257 ) ;
#261 = CIRCLE ( 'NONE', #260, 6.578499999999999100 ) ;
#262 = CARTESIAN_POINT ( 'NONE',  ( 0.0000000000000000000, 6.578500000000000000, -9.770273717898534800 ) ) ;
#263 = DIRECTION ( 'NONE',  ( -0.0000000000000000000, 3.591911631868340900E-016, -1.000000000000000000 ) ) ;
#264 = VECTOR ( 'NONE', #263, 1000.000000000000000 ) ;
#265 = CARTESIAN_POINT ( 'NONE',  ( 0.0000000000000000000, 6.578500000000000900, -10.00000000000002500 ) ) ;
#266 = LINE ( 'NONE', #265, #264 ) ;
#267 = DIRECTION ( 'NONE',  ( 0.0000000000000000000, 1.000000000000000000, 2.636958996696521900E-016 ) ) ;
#268 = DIRECTION ( 'NONE',  ( -0.0000000000000000000, 3.591911631868340900E-016, -1.000000000000000000 ) ) ;
#269 = AXIS2_PLACEMENT_3D ( 'NONE', #271, #268, #267 ) ;
#270 = CYLINDRICAL_SURFACE ( 'NONE', #269, 6.578500000000000900 ) ;
#271 = CARTESIAN_POINT ( 'NONE',  ( 0.0000000000000000000, 1.224646799147350500E-016, -10.00000000000002700 ) ) ;
#272 = FACE_OUTER_BOUND ( 'NONE', #28, .T. ) ;
#273 = CARTESIAN_POINT ( 'NONE',  ( -9.250000000000000000, 1.132760877285699000E-015, 0.0000000000000000000 ) ) ;
#274 = DIRECTION ( 'NONE',  ( -0.0000000000000000000, -0.0000000000000000000, 1.000000000000000000 ) ) ;
#275 = VECTOR ( 'NONE', #274, 1000.000000000000000 ) ;
#276 = CARTESIAN_POINT ( 'NONE',  ( -9.250000000000001800, 1.132760877285699200E-015, -4.336808689942017700E-016 ) ) ;
#277 = LINE ( 'NONE', #276, #275 ) ;
#278 = CARTESIAN_POINT ( 'NONE',  ( -9.250000000000001800, 1.132760877285699200E-015, -10.00000000000000400 ) ) ;
#279 = CARTESIAN_POINT ( 'NONE',  ( 9.250000000000001800, 0.0000000000000000000, -10.00000000000000400 ) ) ;
#280 = DIRECTION ( 'NONE',  ( 1.000000000000000000, 0.0000000000000000000, 0.0000000000000000000 ) ) ;
#281 = DIRECTION ( 'NONE',  ( -0.0000000000000000000, -0.0000000000000000000, 1.000000000000000000 ) ) ;
#282 = CARTESIAN_POINT ( 'NONE',  ( 0.0000000000000000000, 0.0000000000000000000, -10.00000000000000400 ) ) ;
#283 = AXIS2_PLACEMENT_3D ( 'NONE', #282, #281, #280 ) ;
#284 = DIRECTION ( 'NONE',  ( 1.000000000000000000, 0.0000000000000000000, 0.0000000000000000000 ) ) ;
#285 = DIRECTION ( 'NONE',  ( -0.0000000000000000000, -0.0000000000000000000, 1.000000000000000000 ) ) ;
#286 = AXIS2_PLACEMENT_3D ( 'NONE', #147, #285, #284 ) ;
#287 = CYLINDRICAL_SURFACE ( 'NONE', #286, 9.250000000000001800 ) ;
#288 = CIRCLE ( 'NONE', #283, 9.250000000000001800 ) ;
#289 = DIRECTION ( 'NONE',  ( -0.0000000000000000000, -0.0000000000000000000, 1.000000000000000000 ) ) ;
#290 = CARTESIAN_POINT ( 'NONE',  ( 0.0000000000000000000, 0.0000000000000000000, -4.336808689942017700E-016 ) ) ;
#291 = AXIS2_PLACEMENT_3D ( 'NONE', #290, #289, #201 ) ;
#292 = CYLINDRICAL_SURFACE ( 'NONE', #291, 9.250000000000001800 ) ;
#293 = FACE_OUTER_BOUND ( 'NONE', #75, .T. ) ;
#294 = DIRECTION ( 'NONE',  ( 1.000000000000000000, 0.0000000000000000000, 0.0000000000000000000 ) ) ;
#295 = DIRECTION ( 'NONE',  ( -0.0000000000000000000, -0.0000000000000000000, 1.000000000000000000 ) ) ;
#296 = CARTESIAN_POINT ( 'NONE',  ( 0.0000000000000000000, 0.0000000000000000000, -5.454052677674043300E-017 ) ) ;
#297 = AXIS2_PLACEMENT_3D ( 'NONE', #296, #295, #294 ) ;
#298 = CIRCLE ( 'NONE', #297, 6.808226282101417200 ) ;
#299 = DIRECTION ( 'NONE',  ( 1.000000000000000000, 0.0000000000000000000, 0.0000000000000000000 ) ) ;
#300 = DIRECTION ( 'NONE',  ( -0.0000000000000000000, -0.0000000000000000000, 1.000000000000000000 ) ) ;
#301 = CARTESIAN_POINT ( 'NONE',  ( 0.0000000000000000000, 0.0000000000000000000, 0.0000000000000000000 ) ) ;
#302 = AXIS2_PLACEMENT_3D ( 'NONE', #301, #300, #299 ) ;
#303 = CIRCLE ( 'NONE', #302, 9.250000000000000000 ) ;
#304 = DIRECTION ( 'NONE',  ( 1.000000000000000000, 0.0000000000000000000, 0.0000000000000000000 ) ) ;
#305 = DIRECTION ( 'NONE',  ( -0.0000000000000000000, -0.0000000000000000000, 1.000000000000000000 ) ) ;
#306 = CARTESIAN_POINT ( 'NONE',  ( 0.0000000000000000000, 0.0000000000000000000, -9.770273717898534800 ) ) ;
#307 = AXIS2_PLACEMENT_3D ( 'NONE', #306, #305, #304 ) ;
#308 = CIRCLE ( 'NONE', #307, 6.578499999999999100 ) ;
#309 = DIRECTION ( 'NONE',  ( 1.000000000000000000, 0.0000000000000000000, 0.0000000000000000000 ) ) ;
#310 = DIRECTION ( 'NONE',  ( -0.0000000000000000000, -0.0000000000000000000, 1.000000000000000000 ) ) ;
#311 = CARTESIAN_POINT ( 'NONE',  ( 0.0000000000000000000, 0.0000000000000000000, -0.2297262821014151300 ) ) ;
#312 = AXIS2_PLACEMENT_3D ( 'NONE', #311, #310, #309 ) ;
#313 = CIRCLE ( 'NONE', #312, 6.578499999999999100 ) ;
#314 = DIRECTION ( 'NONE',  ( -0.0000000000000000000, 3.591911631868340900E-016, -1.000000000000000000 ) ) ;
#315 = VECTOR ( 'NONE', #314, 1000.000000000000000 ) ;
#316 = CARTESIAN_POINT ( 'NONE',  ( 8.056072898620509900E-016, -6.578500000000000900, -10.00000000000002800 ) ) ;
#317 = LINE ( 'NONE', #316, #315 ) ;
#318 = ORGANIZATION ( 'UNSPECIFIED', 'UNSPECIFIED', '' ) ;
#319 = PRODUCT_DEFINITION_SHAPE ( 'NONE', 'NONE',  #360 ) ;
#320 = PRODUCT_RELATED_PRODUCT_CATEGORY ( 'detail', '', ( #4 ) ) ;
#321 = CC_DESIGN_PERSON_AND_ORGANIZATION_ASSIGNMENT ( #323, #322, ( #338 ) ) ;
#322 = PERSON_AND_ORGANIZATION_ROLE ( 'design_supplier' ) ;
#323 = PERSON_AND_ORGANIZATION ( #5, #318 ) ;
#324 = CC_DESIGN_PERSON_AND_ORGANIZATION_ASSIGNMENT ( #326, #325, ( #338 ) ) ;
#325 = PERSON_AND_ORGANIZATION_ROLE ( 'creator' ) ;
#326 = PERSON_AND_ORGANIZATION ( #5, #318 ) ;
#327 = CC_DESIGN_APPROVAL ( #335, ( #338 ) ) ;
#328 = APPROVAL_DATE_TIME ( #329, #335 ) ;
#329 = DATE_AND_TIME ( #330, #331 ) ;
#330 = CALENDAR_DATE ( 2015, 11, 8 ) ;
#331 = LOCAL_TIME ( 16, 12, 55.00000000000000000, #332 ) ;
#332 = COORDINATED_UNIVERSAL_TIME_OFFSET ( 1, 0, .AHEAD. ) ;
#333 = APPROVAL_PERSON_ORGANIZATION ( #337, #335, #334 ) ;
#334 = APPROVAL_ROLE ( '' ) ;
#335 = APPROVAL ( #336, 'UNSPECIFIED' ) ;
#336 = APPROVAL_STATUS ( 'not_yet_approved' ) ;
#337 = PERSON_AND_ORGANIZATION ( #5, #318 ) ;
#338 = PRODUCT_DEFINITION_FORMATION_WITH_SPECIFIED_SOURCE ( 'ANY', '', #4, .NOT_KNOWN. ) ;
#339 = SHAPE_DEFINITION_REPRESENTATION ( #319, #244 ) ;
#340 = CC_DESIGN_DATE_AND_TIME_ASSIGNMENT ( #342, #341, ( #360 ) ) ;
#341 = DATE_TIME_ROLE ( 'creation_date' ) ;
#342 = DATE_AND_TIME ( #343, #344 ) ;
#343 = CALENDAR_DATE ( 2015, 11, 8 ) ;
#344 = LOCAL_TIME ( 16, 12, 55.00000000000000000, #345 ) ;
#345 = COORDINATED_UNIVERSAL_TIME_OFFSET ( 1, 0, .AHEAD. ) ;
#346 = CC_DESIGN_PERSON_AND_ORGANIZATION_ASSIGNMENT ( #348, #347, ( #360 ) ) ;
#347 = PERSON_AND_ORGANIZATION_ROLE ( 'creator' ) ;
#348 = PERSON_AND_ORGANIZATION ( #5, #318 ) ;
#349 = CC_DESIGN_APPROVAL ( #357, ( #360 ) ) ;
#350 = APPROVAL_DATE_TIME ( #351, #357 ) ;
#351 = DATE_AND_TIME ( #352, #353 ) ;
#352 = CALENDAR_DATE ( 2015, 11, 8 ) ;
#353 = LOCAL_TIME ( 16, 12, 55.00000000000000000, #354 ) ;
#354 = COORDINATED_UNIVERSAL_TIME_OFFSET ( 1, 0, .AHEAD. ) ;
#355 = APPROVAL_PERSON_ORGANIZATION ( #359, #357, #356 ) ;
#356 = APPROVAL_ROLE ( '' ) ;
#357 = APPROVAL ( #358, 'UNSPECIFIED' ) ;
#358 = APPROVAL_STATUS ( 'not_yet_approved' ) ;
#359 = PERSON_AND_ORGANIZATION ( #5, #318 ) ;
#360 = PRODUCT_DEFINITION ( 'UNKNOWN', '', #338, #361 ) ;
#361 = DESIGN_CONTEXT ( 'detailed design', #363, 'design' ) ;
#362 = APPLICATION_PROTOCOL_DEFINITION ( 'international standard', 'config_control_design', 1994, #363 ) ;
#363 = APPLICATION_CONTEXT ( 'configuration controlled 3d designs of mechanical parts and assemblies' ) ;
#364 = CC_DESIGN_PERSON_AND_ORGANIZATION_ASSIGNMENT ( #366, #365, ( #4 ) ) ;
#365 = PERSON_AND_ORGANIZATION_ROLE ( 'design_owner' ) ;
#366 = PERSON_AND_ORGANIZATION ( #5, #318 ) ;
#367 = PERSON_AND_ORGANIZATION ( #5, #318 ) ;
#368 = CC_DESIGN_DATE_AND_TIME_ASSIGNMENT ( #370, #369, ( #377 ) ) ;
#369 = DATE_TIME_ROLE ( 'classification_date' ) ;
#370 = DATE_AND_TIME ( #371, #372 ) ;
#371 = CALENDAR_DATE ( 2015, 11, 8 ) ;
#372 = LOCAL_TIME ( 16, 12, 55.00000000000000000, #373 ) ;
#373 = COORDINATED_UNIVERSAL_TIME_OFFSET ( 1, 0, .AHEAD. ) ;
#374 = CC_DESIGN_PERSON_AND_ORGANIZATION_ASSIGNMENT ( #376, #375, ( #377 ) ) ;
#375 = PERSON_AND_ORGANIZATION_ROLE ( 'classification_officer' ) ;
#376 = PERSON_AND_ORGANIZATION ( #5, #318 ) ;
#377 = SECURITY_CLASSIFICATION ( '', '', #378 ) ;
#378 = SECURITY_CLASSIFICATION_LEVEL ( 'unclassified' ) ;
#379 = CC_DESIGN_SECURITY_CLASSIFICATION ( #377, ( #338 ) ) ;
#380 = CC_DESIGN_APPROVAL ( #388, ( #377 ) ) ;
#381 = APPROVAL_DATE_TIME ( #382, #388 ) ;
#382 = DATE_AND_TIME ( #383, #384 ) ;
#383 = CALENDAR_DATE ( 2015, 11, 8 ) ;
#384 = LOCAL_TIME ( 16, 12, 55.00000000000000000, #385 ) ;
#385 = COORDINATED_UNIVERSAL_TIME_OFFSET ( 1, 0, .AHEAD. ) ;
#386 = APPROVAL_PERSON_ORGANIZATION ( #367, #388, #387 ) ;
#387 = APPROVAL_ROLE ( '' ) ;
#388 = APPROVAL ( #389, 'UNSPECIFIED' ) ;
#389 = APPROVAL_STATUS ( 'not_yet_approved' ) ;
ENDSEC;
END-ISO-10303-21;
