ISO-10303-21;
HEADER;
FILE_DESCRIPTION (( 'STEP AP203' ),
    '1' );
FILE_NAME ('3D_R365_129x2_173371180.STEP',
    '2024-07-16T06:39:49',
    ( '' ),
    ( '' ),
    'SwSTEP 2.0',
    'SolidWorks 2024',
    '' );
FILE_SCHEMA (( 'CONFIG_CONTROL_DESIGN' ));
ENDSEC;

DATA;
#1 = CARTESIAN_POINT ( 'NONE',  ( -55.78151460942153506, 15.83086387378160254, 0.000000000000000000 ) ) ;
#2 = PRODUCT ( '3D_R365_129x2_173371180', '3D_R365_129x2_173371180', '', ( #247 ) ) ;
#3 = ORIENTED_EDGE ( 'NONE', *, *, #49, .T. ) ;
#4 = CARTESIAN_POINT ( 'NONE',  ( 1.004025755041846943E-15, 17.48471193575307225, 0.000000000000000000 ) ) ;
#5 = VERTEX_POINT ( 'NONE', #166 ) ;
#6 = CARTESIAN_POINT ( 'NONE',  ( 4.641260274057531267E-15, 34.99999999999999289, 0.000000000000000000 ) ) ;
#7 = DIRECTION ( 'NONE',  ( 4.596983092540343816E-18, 1.000000000000000000, -0.000000000000000000 ) ) ;
#8 = CARTESIAN_POINT ( 'NONE',  ( 62.50000000000001421, 2817.965330118411202, 7.654042494670957804E-15 ) ) ;
#9 = DIRECTION ( 'NONE',  ( 1.000000000000000000, -4.596983092540343816E-18, 0.000000000000000000 ) ) ;
#10 = CIRCLE ( 'NONE', #383, 55.78151460942154927 ) ;
#11 = ORIENTED_EDGE ( 'NONE', *, *, #77, .F. ) ;
#12 = AXIS2_PLACEMENT_3D ( 'NONE', #200, #7, #43 ) ;
#13 = ADVANCED_FACE ( 'NONE', ( #325 ), #405, .T. ) ;
#14 = DIRECTION ( 'NONE',  ( -0.000000000000000000, 0.000000000000000000, -1.000000000000000000 ) ) ;
#15 = DIRECTION ( 'NONE',  ( -1.000000000000000000, 0.000000000000000000, 0.000000000000000000 ) ) ;
#16 = COORDINATED_UNIVERSAL_TIME_OFFSET ( 1, 0, .AHEAD. ) ;
#17 = CARTESIAN_POINT ( 'NONE',  ( 4.754530987787186184E-15, 32.99999999999998579, 0.000000000000000000 ) ) ;
#18 = PERSON_AND_ORGANIZATION_ROLE ( 'creator' ) ;
#19 = EDGE_CURVE ( 'NONE', #248, #397, #246, .T. ) ;
#20 = DATE_TIME_ROLE ( 'classification_date' ) ;
#21 = FACE_OUTER_BOUND ( 'NONE', #154, .T. ) ;
#22 = EDGE_CURVE ( 'NONE', #271, #5, #141, .T. ) ;
#23 = ORIENTED_EDGE ( 'NONE', *, *, #49, .F. ) ;
#24 = DIRECTION ( 'NONE',  ( 0.000000000000000000, 0.000000000000000000, 1.000000000000000000 ) ) ;
#25 = ORIENTED_EDGE ( 'NONE', *, *, #317, .T. ) ;
#26 = FACE_OUTER_BOUND ( 'NONE', #279, .T. ) ;
#27 = EDGE_CURVE ( 'NONE', #241, #248, #38, .T. ) ;
#28 = ORIENTED_EDGE ( 'NONE', *, *, #203, .T. ) ;
#29 = DIRECTION ( 'NONE',  ( 4.596983092540343816E-18, 1.000000000000000000, -0.000000000000000000 ) ) ;
#30 = AXIS2_PLACEMENT_3D ( 'NONE', #146, #24, #62 ) ;
#31 = ORIENTED_EDGE ( 'NONE', *, *, #356, .F. ) ;
#32 = ORIENTED_EDGE ( 'NONE', *, *, #178, .T. ) ;
#33 = DIRECTION ( 'NONE',  ( 4.596983092540343816E-18, 1.000000000000000000, -0.000000000000000000 ) ) ;
#34 = LOCAL_TIME ( 8, 39, 49.00000000000000000, #16 ) ;
#35 = ORIENTED_EDGE ( 'NONE', *, *, #232, .F. ) ;
#36 =( NAMED_UNIT ( * ) PLANE_ANGLE_UNIT ( ) SI_UNIT ( $, .RADIAN. ) );
#37 = EDGE_CURVE ( 'NONE', #306, #238, #56, .T. ) ;
#38 = CIRCLE ( 'NONE', #162, 17.34999999999999076 ) ;
#39 = FACE_OUTER_BOUND ( 'NONE', #156, .T. ) ;
#40 = FACE_OUTER_BOUND ( 'NONE', #89, .T. ) ;
#41 = CARTESIAN_POINT ( 'NONE',  ( 1.004025755041846943E-15, 17.48471193575307225, 0.000000000000000000 ) ) ;
#42 = CARTESIAN_POINT ( 'NONE',  ( 1.387778780781445676E-14, 2817.965330118411202, 0.000000000000000000 ) ) ;
#43 = DIRECTION ( 'NONE',  ( -1.000000000000000000, 6.723734403010879829E-18, 0.000000000000000000 ) ) ;
#44 = CC_DESIGN_PERSON_AND_ORGANIZATION_ASSIGNMENT ( #265, #18, ( #112 ) ) ;
#45 = DIRECTION ( 'NONE',  ( -1.224646799147353207E-16, 5.629680630014033300E-34, 1.000000000000000000 ) ) ;
#46 = TOROIDAL_SURFACE ( 'NONE', #362, 47.15000000000001279, 15.34999999999998721 ) ;
#47 = CARTESIAN_POINT ( 'NONE',  ( 0.000000000000000000, 3.137579998151075245, 0.000000000000000000 ) ) ;
#48 = DATE_AND_TIME ( #393, #148 ) ;
#49 = EDGE_CURVE ( 'NONE', #66, #174, #261, .T. ) ;
#50 = DIRECTION ( 'NONE',  ( 0.000000000000000000, 0.000000000000000000, 1.000000000000000000 ) ) ;
#51 = CC_DESIGN_PERSON_AND_ORGANIZATION_ASSIGNMENT ( #288, #201, ( #364 ) ) ;
#52 = ORIENTED_EDGE ( 'NONE', *, *, #153, .F. ) ;
#53 = CIRCLE ( 'NONE', #184, 62.50000000000000000 ) ;
#54 = CC_DESIGN_PERSON_AND_ORGANIZATION_ASSIGNMENT ( #387, #257, ( #112 ) ) ;
#55 = FACE_OUTER_BOUND ( 'NONE', #84, .T. ) ;
#56 = CIRCLE ( 'NONE', #282, 99.19999999999998863 ) ;
#57 = AXIS2_PLACEMENT_3D ( 'NONE', #234, #85, #114 ) ;
#58 = CARTESIAN_POINT ( 'NONE',  ( 1.037275838877805411E-14, -66.19999999999998863, 0.000000000000000000 ) ) ;
#59 = CARTESIAN_POINT ( 'NONE',  ( -62.50000000000000000, 3.137579998151016181, 0.000000000000000000 ) ) ;
#60 = EDGE_CURVE ( 'NONE', #271, #63, #361, .T. ) ;
#61 = ORIENTED_EDGE ( 'NONE', *, *, #203, .F. ) ;
#62 = DIRECTION ( 'NONE',  ( -1.000000000000000000, 0.000000000000000000, 0.000000000000000000 ) ) ;
#63 = VERTEX_POINT ( 'NONE', #386 ) ;
#64 = AXIS2_PLACEMENT_3D ( 'NONE', #355, #225, #322 ) ;
#65 =( NAMED_UNIT ( * ) SI_UNIT ( $, .STERADIAN. ) SOLID_ANGLE_UNIT ( ) );
#66 = VERTEX_POINT ( 'NONE', #392 ) ;
#67 = DIRECTION ( 'NONE',  ( -1.000000000000000000, 0.000000000000000000, 0.000000000000000000 ) ) ;
#68 = EDGE_LOOP ( 'NONE', ( #160, #411, #212, #11 ) ) ;
#69 = PRODUCT_RELATED_PRODUCT_CATEGORY ( 'detail', '', ( #2 ) ) ;
#70 = ORIENTED_EDGE ( 'NONE', *, *, #264, .T. ) ;
#71 = DIRECTION ( 'NONE',  ( 4.596983092540343816E-18, 1.000000000000000000, -0.000000000000000000 ) ) ;
#72 = CARTESIAN_POINT ( 'NONE',  ( 1.037275838877805411E-14, -66.19999999999998863, 0.000000000000000000 ) ) ;
#73 = APPROVAL_ROLE ( '' ) ;
#74 = CARTESIAN_POINT ( 'NONE',  ( 1.037275838877805411E-14, -66.19999999999998863, 0.000000000000000000 ) ) ;
#75 = ORIENTED_EDGE ( 'NONE', *, *, #317, .F. ) ;
#76 = DIRECTION ( 'NONE',  ( 1.000000000000000000, 0.000000000000000000, 1.224646799147353454E-16 ) ) ;
#77 = EDGE_CURVE ( 'NONE', #5, #409, #86, .T. ) ;
#78 = DATE_AND_TIME ( #323, #34 ) ;
#79 = CARTESIAN_POINT ( 'NONE',  ( 1.037275838877805411E-14, -66.19999999999998863, 0.000000000000000000 ) ) ;
#80 = ADVANCED_FACE ( 'NONE', ( #222 ), #314, .T. ) ;
#81 = CARTESIAN_POINT ( 'NONE',  ( 9.236488298952508525E-16, 0.000000000000000000, 0.000000000000000000 ) ) ;
#82 = VECTOR ( 'NONE', #95, 1000.000000000000000 ) ;
#83 = CIRCLE ( 'NONE', #305, 56.90614192009540773 ) ;
#84 = EDGE_LOOP ( 'NONE', ( #266, #25, #375 ) ) ;
#85 = DIRECTION ( 'NONE',  ( 4.596983092540343816E-18, 1.000000000000000000, -0.000000000000000000 ) ) ;
#86 = CIRCLE ( 'NONE', #113, 17.34999999999999076 ) ;
#87 = DIRECTION ( 'NONE',  ( 1.000000000000000000, 0.000000000000000000, 1.224646799147352961E-16 ) ) ;
#88 = AXIS2_PLACEMENT_3D ( 'NONE', #90, #157, #115 ) ;
#89 = EDGE_LOOP ( 'NONE', ( #23, #348, #367, #297 ) ) ;
#90 = CARTESIAN_POINT ( 'NONE',  ( -6.815151770875324987E-34, -1.482527047344261050E-16, 0.000000000000000000 ) ) ;
#91 = ORIENTED_EDGE ( 'NONE', *, *, #37, .T. ) ;
#92 = CARTESIAN_POINT ( 'NONE',  ( -56.90614192009540773, 17.48471193575307225, 0.000000000000000000 ) ) ;
#93 = ORIENTED_EDGE ( 'NONE', *, *, #194, .F. ) ;
#94 = LOCAL_TIME ( 8, 39, 49.00000000000000000, #159 ) ;
#95 = DIRECTION ( 'NONE',  ( 4.596983092540343816E-18, 1.000000000000000000, -0.000000000000000000 ) ) ;
#96 = ORIENTED_EDGE ( 'NONE', *, *, #77, .T. ) ;
#97 = LINE ( 'NONE', #244, #328 ) ;
#98 = ADVANCED_BREP_SHAPE_REPRESENTATION ( '3D_R365_129x2_173371180', ( #235, #167 ), #149 ) ;
#99 = EDGE_LOOP ( 'NONE', ( #116, #245, #96, #75 ) ) ;
#100 = DIRECTION ( 'NONE',  ( -1.000000000000000000, 0.000000000000000000, 0.000000000000000000 ) ) ;
#101 = DIRECTION ( 'NONE',  ( -0.000000000000000000, 0.000000000000000000, -1.000000000000000000 ) ) ;
#102 = FACE_OUTER_BOUND ( 'NONE', #341, .T. ) ;
#103 = AXIS2_PLACEMENT_3D ( 'NONE', #74, #14, #196 ) ;
#104 = DIRECTION ( 'NONE',  ( 1.000000000000000000, 0.000000000000000000, 1.224646799147353207E-16 ) ) ;
#105 = APPROVAL_STATUS ( 'not_yet_approved' ) ;
#106 = EDGE_LOOP ( 'NONE', ( #327, #337, #214, #119 ) ) ;
#107 = DATE_AND_TIME ( #255, #360 ) ;
#108 = DIRECTION ( 'NONE',  ( -1.000000000000000000, 6.938893903907228378E-18, 0.000000000000000000 ) ) ;
#109 = DIRECTION ( 'NONE',  ( -1.000000000000000000, 0.000000000000000000, 0.000000000000000000 ) ) ;
#110 = ADVANCED_FACE ( 'NONE', ( #39 ), #169, .F. ) ;
#111 = DIRECTION ( 'NONE',  ( 4.596983092540343816E-18, 1.000000000000000000, -0.000000000000000000 ) ) ;
#112 = PRODUCT_DEFINITION_FORMATION_WITH_SPECIFIED_SOURCE ( 'ANY', '', #2, .NOT_KNOWN. ) ;
#113 = AXIS2_PLACEMENT_3D ( 'NONE', #286, #171, #109 ) ;
#114 = DIRECTION ( 'NONE',  ( -1.000000000000000000, 6.723734403010879829E-18, 0.000000000000000000 ) ) ;
#115 = DIRECTION ( 'NONE',  ( 1.000000000000000000, -4.596983092540343816E-18, 0.000000000000000000 ) ) ;
#116 = ORIENTED_EDGE ( 'NONE', *, *, #27, .F. ) ;
#117 = CC_DESIGN_DATE_AND_TIME_ASSIGNMENT ( #78, #326, ( #342 ) ) ;
#118 = FACE_OUTER_BOUND ( 'NONE', #330, .T. ) ;
#119 = ORIENTED_EDGE ( 'NONE', *, *, #132, .T. ) ;
#120 = LINE ( 'NONE', #303, #408 ) ;
#121 = ORIENTED_EDGE ( 'NONE', *, *, #178, .F. ) ;
#122 = PRODUCT_DEFINITION_SHAPE ( 'NONE', 'NONE',  #342 ) ;
#123 = APPROVAL_DATE_TIME ( #278, #292 ) ;
#124 = EDGE_CURVE ( 'NONE', #409, #397, #363, .T. ) ;
#125 = ORIENTED_EDGE ( 'NONE', *, *, #264, .F. ) ;
#126 = AXIS2_PLACEMENT_3D ( 'NONE', #81, #299, #335 ) ;
#127 = DIRECTION ( 'NONE',  ( 4.596983092540343816E-18, 1.000000000000000000, -0.000000000000000000 ) ) ;
#128 = AXIS2_PLACEMENT_3D ( 'NONE', #195, #290, #191 ) ;
#129 = EDGE_LOOP ( 'NONE', ( #404, #339, #52, #302 ) ) ;
#130 =( LENGTH_UNIT ( ) NAMED_UNIT ( * ) SI_UNIT ( .MILLI., .METRE. ) );
#131 = CARTESIAN_POINT ( 'NONE',  ( -62.50000000000000000, 2.873114432837714854E-16, 0.000000000000000000 ) ) ;
#132 = EDGE_CURVE ( 'NONE', #216, #215, #399, .T. ) ;
#133 = APPLICATION_PROTOCOL_DEFINITION ( 'international standard', 'config_control_design', 1994, #308 ) ;
#134 = DIRECTION ( 'NONE',  ( 0.000000000000000000, 0.000000000000000000, 1.000000000000000000 ) ) ;
#135 = EDGE_CURVE ( 'NONE', #409, #248, #83, .T. ) ;
#136 = DIRECTION ( 'NONE',  ( -1.224646799147353207E-16, 5.629680630014033300E-34, 1.000000000000000000 ) ) ;
#137 = SECURITY_CLASSIFICATION_LEVEL ( 'unclassified' ) ;
#138 = CARTESIAN_POINT ( 'NONE',  ( 47.15000000000001279, 3.137579998151075245, 5.774209657979771860E-15 ) ) ;
#139 = APPROVAL_ROLE ( '' ) ;
#140 = EDGE_CURVE ( 'NONE', #369, #238, #407, .T. ) ;
#141 = LINE ( 'NONE', #251, #333 ) ;
#142 = DATE_AND_TIME ( #168, #378 ) ;
#143 = UNCERTAINTY_MEASURE_WITH_UNIT (LENGTH_MEASURE( 1.000000000000000082E-05 ), #130, 'distance_accuracy_value', 'NONE');
#144 = AXIS2_PLACEMENT_3D ( 'NONE', #227, #354, #318 ) ;
#145 = AXIS2_PLACEMENT_3D ( 'NONE', #359, #111, #211 ) ;
#146 = CARTESIAN_POINT ( 'NONE',  ( 1.037275838877805411E-14, -66.19999999999998863, 0.000000000000000000 ) ) ;
#147 = AXIS2_PLACEMENT_3D ( 'NONE', #381, #350, #87 ) ;
#148 = LOCAL_TIME ( 8, 39, 49.00000000000000000, #396 ) ;
#149 =( GEOMETRIC_REPRESENTATION_CONTEXT ( 3 ) GLOBAL_UNCERTAINTY_ASSIGNED_CONTEXT ( ( #143 ) ) GLOBAL_UNIT_ASSIGNED_CONTEXT ( ( #130, #36, #65 ) ) REPRESENTATION_CONTEXT ( 'NONE', 'WORKASPACE' ) );
#150 = CYLINDRICAL_SURFACE ( 'NONE', #343, 64.50000000000000000 ) ;
#151 = EDGE_CURVE ( 'NONE', #215, #216, #53, .T. ) ;
#152 = DIRECTION ( 'NONE',  ( -1.000000000000000000, 0.000000000000000000, 0.000000000000000000 ) ) ;
#153 = EDGE_CURVE ( 'NONE', #5, #241, #329, .T. ) ;
#154 = EDGE_LOOP ( 'NONE', ( #31, #28, #311, #93 ) ) ;
#155 = DIRECTION ( 'NONE',  ( -1.000000000000000000, 4.596983092540343816E-18, 0.000000000000000000 ) ) ;
#156 = EDGE_LOOP ( 'NONE', ( #345, #273, #158 ) ) ;
#157 = DIRECTION ( 'NONE',  ( -4.596983092540343816E-18, -1.000000000000000000, 0.000000000000000000 ) ) ;
#158 = ORIENTED_EDGE ( 'NONE', *, *, #140, .T. ) ;
#159 = COORDINATED_UNIVERSAL_TIME_OFFSET ( 1, 0, .AHEAD. ) ;
#160 = ORIENTED_EDGE ( 'NONE', *, *, #153, .T. ) ;
#161 = ORIENTED_EDGE ( 'NONE', *, *, #19, .T. ) ;
#162 = AXIS2_PLACEMENT_3D ( 'NONE', #138, #45, #76 ) ;
#163 = DIRECTION ( 'NONE',  ( 4.596983092540343816E-18, 1.000000000000000000, -0.000000000000000000 ) ) ;
#164 = CYLINDRICAL_SURFACE ( 'NONE', #406, 62.50000000000000000 ) ;
#165 = DIRECTION ( 'NONE',  ( 4.596983092540343816E-18, 1.000000000000000000, -0.000000000000000000 ) ) ;
#166 = CARTESIAN_POINT ( 'NONE',  ( -64.50000000000000000, 3.137579998151008187, 0.000000000000000000 ) ) ;
#167 = AXIS2_PLACEMENT_3D ( 'NONE', #382, #351, #189 ) ;
#168 = CALENDAR_DATE ( 2024, 16, 7 ) ;
#169 = SPHERICAL_SURFACE ( 'NONE', #192, 99.19999999999998863 ) ;
#170 = APPROVAL_STATUS ( 'not_yet_approved' ) ;
#171 = DIRECTION ( 'NONE',  ( -0.000000000000000000, 0.000000000000000000, -1.000000000000000000 ) ) ;
#172 = PERSON ( 'UNSPECIFIED', 'UNSPECIFIED', 'UNSPECIFIED', ('UNSPECIFIED'), ('UNSPECIFIED'), ('UNSPECIFIED') ) ;
#173 = DIRECTION ( 'NONE',  ( 0.000000000000000000, 0.000000000000000000, 1.000000000000000000 ) ) ;
#174 = VERTEX_POINT ( 'NONE', #131 ) ;
#175 = AXIS2_PLACEMENT_3D ( 'NONE', #79, #50, #380 ) ;
#176 = DIRECTION ( 'NONE',  ( 4.596983092540343816E-18, 1.000000000000000000, -0.000000000000000000 ) ) ;
#177 = CARTESIAN_POINT ( 'NONE',  ( 0.000000000000000000, 3.137579998151075245, 0.000000000000000000 ) ) ;
#178 = EDGE_CURVE ( 'NONE', #215, #306, #295, .T. ) ;
#179 = DIRECTION ( 'NONE',  ( -0.000000000000000000, 0.000000000000000000, -1.000000000000000000 ) ) ;
#180 = CC_DESIGN_APPROVAL ( #336, ( #112 ) ) ;
#181 = ORIENTED_EDGE ( 'NONE', *, *, #232, .T. ) ;
#182 = DIRECTION ( 'NONE',  ( 4.596983092540343816E-18, 1.000000000000000000, -0.000000000000000000 ) ) ;
#183 = ORIENTED_EDGE ( 'NONE', *, *, #140, .F. ) ;
#184 = AXIS2_PLACEMENT_3D ( 'NONE', #389, #163, #108 ) ;
#185 = PERSON_AND_ORGANIZATION ( #172, #398 ) ;
#186 = CIRCLE ( 'NONE', #334, 55.78151460942154927 ) ;
#187 = ORIENTED_EDGE ( 'NONE', *, *, #60, .F. ) ;
#188 = EDGE_LOOP ( 'NONE', ( #125, #91, #183 ) ) ;
#189 = DIRECTION ( 'NONE',  ( 1.000000000000000000, 0.000000000000000000, 0.000000000000000000 ) ) ;
#190 = EDGE_CURVE ( 'NONE', #174, #216, #120, .T. ) ;
#191 = DIRECTION ( 'NONE',  ( -1.000000000000000000, 6.938893903907228378E-18, 0.000000000000000000 ) ) ;
#192 = AXIS2_PLACEMENT_3D ( 'NONE', #358, #134, #253 ) ;
#193 = CYLINDRICAL_SURFACE ( 'NONE', #254, 62.50000000000000000 ) ;
#194 = EDGE_CURVE ( 'NONE', #241, #5, #198, .T. ) ;
#195 = CARTESIAN_POINT ( 'NONE',  ( -2.757124341604875636E-31, 3.137579998151015737, 0.000000000000000000 ) ) ;
#196 = DIRECTION ( 'NONE',  ( -1.000000000000000000, 0.000000000000000000, 0.000000000000000000 ) ) ;
#197 = EDGE_CURVE ( 'NONE', #174, #66, #262, .T. ) ;
#198 = CIRCLE ( 'NONE', #57, 64.50000000000000000 ) ;
#199 = AXIS2_PLACEMENT_3D ( 'NONE', #320, #101, #15 ) ;
#200 = CARTESIAN_POINT ( 'NONE',  ( 9.380722320982436611E-16, 3.137579998151007743, 0.000000000000000000 ) ) ;
#201 = PERSON_AND_ORGANIZATION_ROLE ( 'classification_officer' ) ;
#202 = CARTESIAN_POINT ( 'NONE',  ( -64.50000000000000000, 2.965054094688522100E-16, 0.000000000000000000 ) ) ;
#203 = EDGE_CURVE ( 'NONE', #63, #271, #315, .T. ) ;
#204 = APPROVAL_DATE_TIME ( #48, #310 ) ;
#205 = CC_DESIGN_PERSON_AND_ORGANIZATION_ASSIGNMENT ( #294, #258, ( #342 ) ) ;
#206 = AXIS2_PLACEMENT_3D ( 'NONE', #410, #368, #331 ) ;
#207 = DIRECTION ( 'NONE',  ( -1.000000000000000000, 0.000000000000000000, 0.000000000000000000 ) ) ;
#208 = CC_DESIGN_PERSON_AND_ORGANIZATION_ASSIGNMENT ( #340, #250, ( #2 ) ) ;
#209 = CARTESIAN_POINT ( 'NONE',  ( 1.074985288307230676E-14, 15.83086387378160254, 0.000000000000000000 ) ) ;
#210 = CLOSED_SHELL ( 'NONE', ( #220, #285, #394, #287, #80, #249, #274, #280, #13, #268, #371, #352, #110 ) ) ;
#211 = DIRECTION ( 'NONE',  ( -1.000000000000000000, 4.596983092540344586E-18, 0.000000000000000000 ) ) ;
#212 = ORIENTED_EDGE ( 'NONE', *, *, #135, .F. ) ;
#213 = CARTESIAN_POINT ( 'NONE',  ( 62.50000000000000000, 3.137579998151015293, 7.654042494670957804E-15 ) ) ;
#214 = ORIENTED_EDGE ( 'NONE', *, *, #190, .T. ) ;
#215 = VERTEX_POINT ( 'NONE', #213 ) ;
#216 = VERTEX_POINT ( 'NONE', #59 ) ;
#217 = DIRECTION ( 'NONE',  ( -1.000000000000000000, 4.596983092540343816E-18, 0.000000000000000000 ) ) ;
#218 = CC_DESIGN_APPROVAL ( #310, ( #364 ) ) ;
#219 = EDGE_LOOP ( 'NONE', ( #243, #32, #70, #35 ) ) ;
#220 = ADVANCED_FACE ( 'NONE', ( #269 ), #298, .F. ) ;
#221 = CARTESIAN_POINT ( 'NONE',  ( 0.000000000000000000, 3.137579998151075245, 0.000000000000000000 ) ) ;
#222 = FACE_OUTER_BOUND ( 'NONE', #68, .T. ) ;
#223 = AXIS2_PLACEMENT_3D ( 'NONE', #229, #165, #9 ) ;
#224 = DIRECTION ( 'NONE',  ( -1.000000000000000000, 0.000000000000000000, 0.000000000000000000 ) ) ;
#225 = DIRECTION ( 'NONE',  ( 4.596983092540343816E-18, 1.000000000000000000, -0.000000000000000000 ) ) ;
#226 = SHAPE_DEFINITION_REPRESENTATION ( #122, #98 ) ;
#227 = CARTESIAN_POINT ( 'NONE',  ( 0.000000000000000000, 3.137579998151075245, 0.000000000000000000 ) ) ;
#228 = DIRECTION ( 'NONE',  ( 1.000000000000000000, 0.000000000000000000, 1.224646799147353207E-16 ) ) ;
#229 = CARTESIAN_POINT ( 'NONE',  ( 9.236488298952508525E-16, 0.000000000000000000, 0.000000000000000000 ) ) ;
#230 = DIRECTION ( 'NONE',  ( -1.000000000000000000, 0.000000000000000000, 0.000000000000000000 ) ) ;
#231 = APPROVAL_DATE_TIME ( #142, #336 ) ;
#232 = EDGE_CURVE ( 'NONE', #216, #369, #275, .T. ) ;
#233 = AXIS2_PLACEMENT_3D ( 'NONE', #72, #136, #104 ) ;
#234 = CARTESIAN_POINT ( 'NONE',  ( 9.380722320982436611E-16, 3.137579998151007743, 0.000000000000000000 ) ) ;
#235 = MANIFOLD_SOLID_BREP ( 'Wandung1', #210 ) ;
#236 = SPHERICAL_SURFACE ( 'NONE', #30, 101.1999999999999886 ) ;
#237 = AXIS2_PLACEMENT_3D ( 'NONE', #58, #173, #240 ) ;
#238 = VERTEX_POINT ( 'NONE', #17 ) ;
#239 = TOROIDAL_SURFACE ( 'NONE', #296, 47.15000000000001279, 15.34999999999998721 ) ;
#240 = DIRECTION ( 'NONE',  ( -1.000000000000000000, 0.000000000000000000, 0.000000000000000000 ) ) ;
#241 = VERTEX_POINT ( 'NONE', #366 ) ;
#242 = SPHERICAL_SURFACE ( 'NONE', #175, 101.1999999999999886 ) ;
#243 = ORIENTED_EDGE ( 'NONE', *, *, #151, .F. ) ;
#244 = CARTESIAN_POINT ( 'NONE',  ( 64.50000000000001421, 2817.965330118411202, 7.898971854500428100E-15 ) ) ;
#245 = ORIENTED_EDGE ( 'NONE', *, *, #194, .T. ) ;
#246 = CIRCLE ( 'NONE', #233, 101.1999999999999886 ) ;
#247 = MECHANICAL_CONTEXT ( 'NONE', #308, 'mechanical' ) ;
#248 = VERTEX_POINT ( 'NONE', #272 ) ;
#249 = ADVANCED_FACE ( 'NONE', ( #270 ), #338, .T. ) ;
#250 = PERSON_AND_ORGANIZATION_ROLE ( 'design_owner' ) ;
#251 = CARTESIAN_POINT ( 'NONE',  ( -64.49999999999998579, 2817.965330118411202, 0.000000000000000000 ) ) ;
#252 = APPROVAL_STATUS ( 'not_yet_approved' ) ;
#253 = DIRECTION ( 'NONE',  ( -1.000000000000000000, 0.000000000000000000, 0.000000000000000000 ) ) ;
#254 = AXIS2_PLACEMENT_3D ( 'NONE', #42, #312, #224 ) ;
#255 = CALENDAR_DATE ( 2024, 16, 7 ) ;
#256 = DIRECTION ( 'NONE',  ( -1.224646799147353207E-16, 5.629680630014033300E-34, 1.000000000000000000 ) ) ;
#257 = PERSON_AND_ORGANIZATION_ROLE ( 'design_supplier' ) ;
#258 = PERSON_AND_ORGANIZATION_ROLE ( 'creator' ) ;
#259 = DIRECTION ( 'NONE',  ( 4.596983092540343816E-18, 1.000000000000000000, -0.000000000000000000 ) ) ;
#260 = COORDINATED_UNIVERSAL_TIME_OFFSET ( 1, 0, .AHEAD. ) ;
#261 = CIRCLE ( 'NONE', #223, 62.50000000000000000 ) ;
#262 = CIRCLE ( 'NONE', #126, 62.50000000000000000 ) ;
#263 = CARTESIAN_POINT ( 'NONE',  ( 1.387778780781445676E-14, 2817.965330118411202, 0.000000000000000000 ) ) ;
#264 = EDGE_CURVE ( 'NONE', #306, #369, #186, .T. ) ;
#265 = PERSON_AND_ORGANIZATION ( #172, #398 ) ;
#266 = ORIENTED_EDGE ( 'NONE', *, *, #19, .F. ) ;
#267 = APPROVAL_PERSON_ORGANIZATION ( #185, #292, #73 ) ;
#268 = ADVANCED_FACE ( 'NONE', ( #55 ), #236, .T. ) ;
#269 = FACE_OUTER_BOUND ( 'NONE', #188, .T. ) ;
#270 = FACE_OUTER_BOUND ( 'NONE', #129, .T. ) ;
#271 = VERTEX_POINT ( 'NONE', #202 ) ;
#272 = CARTESIAN_POINT ( 'NONE',  ( 56.90614192009541483, 17.48471193575307225, 7.433982154963707430E-15 ) ) ;
#273 = ORIENTED_EDGE ( 'NONE', *, *, #379, .F. ) ;
#274 = ADVANCED_FACE ( 'NONE', ( #301, #26 ), #365, .T. ) ;
#275 = CIRCLE ( 'NONE', #307, 15.34999999999998899 ) ;
#276 = CARTESIAN_POINT ( 'NONE',  ( 55.78151460942156348, 15.83086387378160254, 7.242653913236451300E-15 ) ) ;
#277 = ORIENTED_EDGE ( 'NONE', *, *, #379, .T. ) ;
#278 = DATE_AND_TIME ( #319, #94 ) ;
#279 = EDGE_LOOP ( 'NONE', ( #187, #61 ) ) ;
#280 = ADVANCED_FACE ( 'NONE', ( #21 ), #150, .T. ) ;
#281 = EDGE_LOOP ( 'NONE', ( #377, #3 ) ) ;
#282 = AXIS2_PLACEMENT_3D ( 'NONE', #291, #256, #228 ) ;
#283 = CARTESIAN_POINT ( 'NONE',  ( 1.387778780781445676E-14, 2817.965330118411202, 0.000000000000000000 ) ) ;
#284 = DIRECTION ( 'NONE',  ( 4.596983092540343816E-18, 1.000000000000000000, -0.000000000000000000 ) ) ;
#285 = ADVANCED_FACE ( 'NONE', ( #332 ), #239, .F. ) ;
#286 = CARTESIAN_POINT ( 'NONE',  ( -47.15000000000001279, 3.137579998151075245, 0.000000000000000000 ) ) ;
#287 = ADVANCED_FACE ( 'NONE', ( #118 ), #242, .T. ) ;
#288 = PERSON_AND_ORGANIZATION ( #172, #398 ) ;
#289 = CIRCLE ( 'NONE', #400, 56.90614192009540773 ) ;
#290 = DIRECTION ( 'NONE',  ( 4.596983092540343816E-18, 1.000000000000000000, -0.000000000000000000 ) ) ;
#291 = CARTESIAN_POINT ( 'NONE',  ( 1.037275838877805411E-14, -66.19999999999998863, 0.000000000000000000 ) ) ;
#292 = APPROVAL ( #252, 'UNSPECIFIED' ) ;
#293 = CARTESIAN_POINT ( 'NONE',  ( -47.15000000000001279, 3.137579998151075245, 0.000000000000000000 ) ) ;
#294 = PERSON_AND_ORGANIZATION ( #172, #398 ) ;
#295 = CIRCLE ( 'NONE', #147, 15.34999999999998899 ) ;
#296 = AXIS2_PLACEMENT_3D ( 'NONE', #177, #29, #155 ) ;
#297 = ORIENTED_EDGE ( 'NONE', *, *, #190, .F. ) ;
#298 = SPHERICAL_SURFACE ( 'NONE', #237, 99.19999999999998863 ) ;
#299 = DIRECTION ( 'NONE',  ( 4.596983092540343816E-18, 1.000000000000000000, -0.000000000000000000 ) ) ;
#300 = ORIENTED_EDGE ( 'NONE', *, *, #132, .F. ) ;
#301 = FACE_BOUND ( 'NONE', #281, .T. ) ;
#302 = ORIENTED_EDGE ( 'NONE', *, *, #22, .F. ) ;
#303 = CARTESIAN_POINT ( 'NONE',  ( -62.49999999999998579, 2817.965330118411202, 0.000000000000000000 ) ) ;
#304 = AXIS2_PLACEMENT_3D ( 'NONE', #47, #284, #384 ) ;
#305 = AXIS2_PLACEMENT_3D ( 'NONE', #41, #313, #353 ) ;
#306 = VERTEX_POINT ( 'NONE', #276 ) ;
#307 = AXIS2_PLACEMENT_3D ( 'NONE', #293, #179, #152 ) ;
#308 = APPLICATION_CONTEXT ( 'configuration controlled 3d designs of mechanical parts and assemblies' ) ;
#309 = ORIENTED_EDGE ( 'NONE', *, *, #135, .T. ) ;
#310 = APPROVAL ( #105, 'UNSPECIFIED' ) ;
#311 = ORIENTED_EDGE ( 'NONE', *, *, #22, .T. ) ;
#312 = DIRECTION ( 'NONE',  ( 4.596983092540343816E-18, 1.000000000000000000, -0.000000000000000000 ) ) ;
#313 = DIRECTION ( 'NONE',  ( 4.596983092540343816E-18, 1.000000000000000000, -0.000000000000000000 ) ) ;
#314 = TOROIDAL_SURFACE ( 'NONE', #144, 47.15000000000001279, 17.34999999999998721 ) ;
#315 = CIRCLE ( 'NONE', #145, 64.50000000000000000 ) ;
#316 = DIRECTION ( 'NONE',  ( 4.596983092540343816E-18, 1.000000000000000000, -0.000000000000000000 ) ) ;
#317 = EDGE_CURVE ( 'NONE', #248, #409, #289, .T. ) ;
#318 = DIRECTION ( 'NONE',  ( -1.000000000000000000, 4.596983092540343816E-18, 0.000000000000000000 ) ) ;
#319 = CALENDAR_DATE ( 2024, 16, 7 ) ;
#320 = CARTESIAN_POINT ( 'NONE',  ( 1.037275838877805411E-14, -66.19999999999998863, 0.000000000000000000 ) ) ;
#321 = PERSON_AND_ORGANIZATION ( #172, #398 ) ;
#322 = DIRECTION ( 'NONE',  ( -1.000000000000000000, 4.596983092540344586E-18, 0.000000000000000000 ) ) ;
#323 = CALENDAR_DATE ( 2024, 16, 7 ) ;
#324 = APPLICATION_CONTEXT ( 'configuration controlled 3d designs of mechanical parts and assemblies' ) ;
#325 = FACE_OUTER_BOUND ( 'NONE', #99, .T. ) ;
#326 = DATE_TIME_ROLE ( 'creation_date' ) ;
#327 = ORIENTED_EDGE ( 'NONE', *, *, #395, .F. ) ;
#328 = VECTOR ( 'NONE', #33, 1000.000000000000000 ) ;
#329 = CIRCLE ( 'NONE', #12, 64.50000000000000000 ) ;
#330 = EDGE_LOOP ( 'NONE', ( #309, #161, #372 ) ) ;
#331 = DIRECTION ( 'NONE',  ( -1.000000000000000000, 0.000000000000000000, 0.000000000000000000 ) ) ;
#332 = FACE_OUTER_BOUND ( 'NONE', #219, .T. ) ;
#333 = VECTOR ( 'NONE', #259, 1000.000000000000000 ) ;
#334 = AXIS2_PLACEMENT_3D ( 'NONE', #209, #403, #207 ) ;
#335 = DIRECTION ( 'NONE',  ( 1.000000000000000000, -4.596983092540343816E-18, 0.000000000000000000 ) ) ;
#336 = APPROVAL ( #170, 'UNSPECIFIED' ) ;
#337 = ORIENTED_EDGE ( 'NONE', *, *, #197, .F. ) ;
#338 = CYLINDRICAL_SURFACE ( 'NONE', #206, 64.50000000000000000 ) ;
#339 = ORIENTED_EDGE ( 'NONE', *, *, #356, .T. ) ;
#340 = PERSON_AND_ORGANIZATION ( #172, #398 ) ;
#341 = EDGE_LOOP ( 'NONE', ( #121, #300, #181, #277 ) ) ;
#342 = PRODUCT_DEFINITION ( 'UNKNOWN', '', #112, #401 ) ;
#343 = AXIS2_PLACEMENT_3D ( 'NONE', #263, #182, #230 ) ;
#344 = CARTESIAN_POINT ( 'NONE',  ( 1.074985288307230676E-14, 15.83086387378160254, 0.000000000000000000 ) ) ;
#345 = ORIENTED_EDGE ( 'NONE', *, *, #37, .F. ) ;
#346 = CC_DESIGN_SECURITY_CLASSIFICATION ( #364, ( #112 ) ) ;
#347 = LINE ( 'NONE', #8, #82 ) ;
#348 = ORIENTED_EDGE ( 'NONE', *, *, #395, .T. ) ;
#349 = FACE_OUTER_BOUND ( 'NONE', #106, .T. ) ;
#350 = DIRECTION ( 'NONE',  ( -1.224646799147353207E-16, 5.629680630014033300E-34, 1.000000000000000000 ) ) ;
#351 = DIRECTION ( 'NONE',  ( 0.000000000000000000, 0.000000000000000000, 1.000000000000000000 ) ) ;
#352 = ADVANCED_FACE ( 'NONE', ( #102 ), #46, .F. ) ;
#353 = DIRECTION ( 'NONE',  ( -1.000000000000000000, 0.000000000000000000, 0.000000000000000000 ) ) ;
#354 = DIRECTION ( 'NONE',  ( 4.596983092540343816E-18, 1.000000000000000000, -0.000000000000000000 ) ) ;
#355 = CARTESIAN_POINT ( 'NONE',  ( 9.236488298952508525E-16, 0.000000000000000000, 0.000000000000000000 ) ) ;
#356 = EDGE_CURVE ( 'NONE', #63, #241, #97, .T. ) ;
#357 = PERSON_AND_ORGANIZATION ( #172, #398 ) ;
#358 = CARTESIAN_POINT ( 'NONE',  ( 1.037275838877805411E-14, -66.19999999999998863, 0.000000000000000000 ) ) ;
#359 = CARTESIAN_POINT ( 'NONE',  ( 9.236488298952508525E-16, 0.000000000000000000, 0.000000000000000000 ) ) ;
#360 = LOCAL_TIME ( 8, 39, 49.00000000000000000, #260 ) ;
#361 = CIRCLE ( 'NONE', #64, 64.50000000000000000 ) ;
#362 = AXIS2_PLACEMENT_3D ( 'NONE', #221, #71, #217 ) ;
#363 = CIRCLE ( 'NONE', #199, 101.1999999999999886 ) ;
#364 = SECURITY_CLASSIFICATION ( '', '', #137 ) ;
#365 = PLANE ( 'NONE',  #88 ) ;
#366 = CARTESIAN_POINT ( 'NONE',  ( 64.50000000000000000, 3.137579998151007299, 7.898971854500428100E-15 ) ) ;
#367 = ORIENTED_EDGE ( 'NONE', *, *, #151, .T. ) ;
#368 = DIRECTION ( 'NONE',  ( 4.596983092540343816E-18, 1.000000000000000000, -0.000000000000000000 ) ) ;
#369 = VERTEX_POINT ( 'NONE', #1 ) ;
#370 = APPLICATION_PROTOCOL_DEFINITION ( 'international standard', 'config_control_design', 1994, #324 ) ;
#371 = ADVANCED_FACE ( 'NONE', ( #349 ), #193, .F. ) ;
#372 = ORIENTED_EDGE ( 'NONE', *, *, #124, .F. ) ;
#373 = DIRECTION ( 'NONE',  ( -1.000000000000000000, 0.000000000000000000, 0.000000000000000000 ) ) ;
#374 = APPROVAL_PERSON_ORGANIZATION ( #357, #336, #139 ) ;
#375 = ORIENTED_EDGE ( 'NONE', *, *, #124, .T. ) ;
#376 = DIRECTION ( 'NONE',  ( 4.596983092540343816E-18, 1.000000000000000000, -0.000000000000000000 ) ) ;
#377 = ORIENTED_EDGE ( 'NONE', *, *, #197, .T. ) ;
#378 = LOCAL_TIME ( 8, 39, 49.00000000000000000, #391 ) ;
#379 = EDGE_CURVE ( 'NONE', #369, #306, #10, .T. ) ;
#380 = DIRECTION ( 'NONE',  ( -1.000000000000000000, 0.000000000000000000, 0.000000000000000000 ) ) ;
#381 = CARTESIAN_POINT ( 'NONE',  ( 47.15000000000001279, 3.137579998151075245, 5.774209657979771860E-15 ) ) ;
#382 = CARTESIAN_POINT ( 'NONE',  ( 0.000000000000000000, 0.000000000000000000, 0.000000000000000000 ) ) ;
#383 = AXIS2_PLACEMENT_3D ( 'NONE', #344, #376, #373 ) ;
#384 = DIRECTION ( 'NONE',  ( -1.000000000000000000, 4.596983092540343816E-18, 0.000000000000000000 ) ) ;
#385 = APPROVAL_ROLE ( '' ) ;
#386 = CARTESIAN_POINT ( 'NONE',  ( 64.50000000000000000, -2.965054094688522100E-16, 7.898971854500428100E-15 ) ) ;
#387 = PERSON_AND_ORGANIZATION ( #172, #398 ) ;
#388 = CC_DESIGN_DATE_AND_TIME_ASSIGNMENT ( #107, #20, ( #364 ) ) ;
#389 = CARTESIAN_POINT ( 'NONE',  ( -2.757124341604875636E-31, 3.137579998151015737, 0.000000000000000000 ) ) ;
#390 = CC_DESIGN_APPROVAL ( #292, ( #342 ) ) ;
#391 = COORDINATED_UNIVERSAL_TIME_OFFSET ( 1, 0, .AHEAD. ) ;
#392 = CARTESIAN_POINT ( 'NONE',  ( 62.50000000000000000, -2.873114432837714854E-16, 7.654042494670957804E-15 ) ) ;
#393 = CALENDAR_DATE ( 2024, 16, 7 ) ;
#394 = ADVANCED_FACE ( 'NONE', ( #40 ), #164, .F. ) ;
#395 = EDGE_CURVE ( 'NONE', #66, #215, #347, .T. ) ;
#396 = COORDINATED_UNIVERSAL_TIME_OFFSET ( 1, 0, .AHEAD. ) ;
#397 = VERTEX_POINT ( 'NONE', #6 ) ;
#398 = ORGANIZATION ( 'UNSPECIFIED', 'UNSPECIFIED', '' ) ;
#399 = CIRCLE ( 'NONE', #128, 62.50000000000000000 ) ;
#400 = AXIS2_PLACEMENT_3D ( 'NONE', #4, #316, #100 ) ;
#401 = DESIGN_CONTEXT ( 'detailed design', #324, 'design' ) ;
#402 = APPROVAL_PERSON_ORGANIZATION ( #321, #310, #385 ) ;
#403 = DIRECTION ( 'NONE',  ( 4.596983092540343816E-18, 1.000000000000000000, -0.000000000000000000 ) ) ;
#404 = ORIENTED_EDGE ( 'NONE', *, *, #60, .T. ) ;
#405 = TOROIDAL_SURFACE ( 'NONE', #304, 47.15000000000001279, 17.34999999999998721 ) ;
#406 = AXIS2_PLACEMENT_3D ( 'NONE', #283, #127, #67 ) ;
#407 = CIRCLE ( 'NONE', #103, 99.19999999999998863 ) ;
#408 = VECTOR ( 'NONE', #176, 1000.000000000000000 ) ;
#409 = VERTEX_POINT ( 'NONE', #92 ) ;
#410 = CARTESIAN_POINT ( 'NONE',  ( 1.387778780781445676E-14, 2817.965330118411202, 0.000000000000000000 ) ) ;
#411 = ORIENTED_EDGE ( 'NONE', *, *, #27, .T. ) ;
ENDSEC;
END-ISO-10303-21;
