ISO-10303-21;
HEADER;
FILE_DESCRIPTION (( 'STEP AP203' ),
    '1' );
FILE_NAME ('3D_M2060_25-10_174121025.STEP',
    '2024-09-05T10:14:25',
    ( '' ),
    ( '' ),
    'SwSTEP 2.0',
    'SolidWorks 2024',
    '' );
FILE_SCHEMA (( 'CONFIG_CONTROL_DESIGN' ));
ENDSEC;

DATA;
#1 = VECTOR ( 'NONE', #94, 1000.000000000000000 ) ;
#2 = LINE ( 'NONE', #231, #147 ) ;
#3 = PLANE ( 'NONE',  #23 ) ;
#4 = ADVANCED_FACE ( 'NONE', ( #20 ), #195, .T. ) ;
#5 = VERTEX_POINT ( 'NONE', #15 ) ;
#6 = PERSON_AND_ORGANIZATION ( #108, #103 ) ;
#7 = SECURITY_CLASSIFICATION_LEVEL ( 'unclassified' ) ;
#8 = APPROVAL_PERSON_ORGANIZATION ( #13, #219, #88 ) ;
#9 = APPROVAL_DATE_TIME ( #81, #233 ) ;
#10 = EDGE_CURVE ( 'NONE', #5, #133, #190, .T. ) ;
#11 = PERSON_AND_ORGANIZATION ( #108, #103 ) ;
#12 = CIRCLE ( 'NONE', #21, 11.44758253037399776 ) ;
#13 = PERSON_AND_ORGANIZATION ( #108, #103 ) ;
#14 =( NAMED_UNIT ( * ) PLANE_ANGLE_UNIT ( ) SI_UNIT ( $, .RADIAN. ) );
#15 = CARTESIAN_POINT ( 'NONE',  ( 30.00000000000000000, 3.061616997868383141E-16, -5.000000000000000000 ) ) ;
#16 = APPLICATION_PROTOCOL_DEFINITION ( 'international standard', 'config_control_design', 1994, #111 ) ;
#17 = VERTEX_POINT ( 'NONE', #210 ) ;
#18 = CARTESIAN_POINT ( 'NONE',  ( 0.000000000000000000, 0.000000000000000000, 0.000000000000000000 ) ) ;
#19 = FACE_OUTER_BOUND ( 'NONE', #73, .T. ) ;
#20 = FACE_OUTER_BOUND ( 'NONE', #167, .T. ) ;
#21 = AXIS2_PLACEMENT_3D ( 'NONE', #18, #173, #55 ) ;
#22 = CARTESIAN_POINT ( 'NONE',  ( 0.000000000000000000, 0.000000000000000000, 0.000000000000000000 ) ) ;
#23 = AXIS2_PLACEMENT_3D ( 'NONE', #79, #232, #211 ) ;
#24 = CC_DESIGN_PERSON_AND_ORGANIZATION_ASSIGNMENT ( #126, #182, ( #198 ) ) ;
#25 = DATE_AND_TIME ( #35, #47 ) ;
#26 = APPROVAL_ROLE ( '' ) ;
#27 = CONICAL_SURFACE ( 'NONE', #215, 3.550647590598130954, 0.2606023917473409557 ) ;
#28 = EDGE_LOOP ( 'NONE', ( #38, #69, #131, #186 ) ) ;
#29 = CIRCLE ( 'NONE', #175, 11.44758253037399776 ) ;
#30 = EDGE_LOOP ( 'NONE', ( #225, #97 ) ) ;
#31 = FACE_OUTER_BOUND ( 'NONE', #171, .T. ) ;
#32 = DIRECTION ( 'NONE',  ( 0.000000000000000000, 0.000000000000000000, 1.000000000000000000 ) ) ;
#33 = APPROVAL_STATUS ( 'not_yet_approved' ) ;
#34 = DIRECTION ( 'NONE',  ( -1.000000000000000000, -0.000000000000000000, -0.000000000000000000 ) ) ;
#35 = CALENDAR_DATE ( 2024, 5, 9 ) ;
#36 = DIRECTION ( 'NONE',  ( 0.000000000000000000, 0.000000000000000000, -1.000000000000000000 ) ) ;
#37 = DIRECTION ( 'NONE',  ( -1.000000000000000000, -0.000000000000000000, -0.000000000000000000 ) ) ;
#38 = ORIENTED_EDGE ( 'NONE', *, *, #118, .F. ) ;
#39 = CARTESIAN_POINT ( 'NONE',  ( 30.00000000000000000, 0.000000000000000000, 0.000000000000000000 ) ) ;
#40 = AXIS2_PLACEMENT_3D ( 'NONE', #51, #34, #92 ) ;
#41 = CARTESIAN_POINT ( 'NONE',  ( 0.000000000000000000, -7.960204194457796463E-16, 13.00000000000000178 ) ) ;
#42 = PRODUCT_DEFINITION_SHAPE ( 'NONE', 'NONE',  #71 ) ;
#43 = DATE_AND_TIME ( #104, #114 ) ;
#44 = CIRCLE ( 'NONE', #200, 3.447582530373998644 ) ;
#45 = EDGE_CURVE ( 'NONE', #245, #133, #226, .T. ) ;
#46 = CALENDAR_DATE ( 2024, 5, 9 ) ;
#47 = LOCAL_TIME ( 12, 14, 25.00000000000000000, #229 ) ;
#48 =( NAMED_UNIT ( * ) SI_UNIT ( $, .STERADIAN. ) SOLID_ANGLE_UNIT ( ) );
#49 = DIRECTION ( 'NONE',  ( 1.000000000000000000, 0.000000000000000000, 0.000000000000000000 ) ) ;
#50 = ORIENTED_EDGE ( 'NONE', *, *, #152, .F. ) ;
#51 = CARTESIAN_POINT ( 'NONE',  ( 30.00000000000000000, 0.000000000000000000, 0.000000000000000000 ) ) ;
#52 = CIRCLE ( 'NONE', #109, 5.000000000000000000 ) ;
#53 = CARTESIAN_POINT ( 'NONE',  ( 0.000000000000000000, 0.000000000000000000, 0.000000000000000000 ) ) ;
#54 = DIRECTION ( 'NONE',  ( 0.000000000000000000, 0.000000000000000000, 1.000000000000000000 ) ) ;
#55 = DIRECTION ( 'NONE',  ( 0.000000000000000000, 0.000000000000000000, -1.000000000000000000 ) ) ;
#56 = APPLICATION_CONTEXT ( 'configuration controlled 3d designs of mechanical parts and assemblies' ) ;
#57 = CARTESIAN_POINT ( 'NONE',  ( 30.00000000000000000, 9.120658107208262008E-16, -3.447582530373998644 ) ) ;
#58 =( GEOMETRIC_REPRESENTATION_CONTEXT ( 3 ) GLOBAL_UNCERTAINTY_ASSIGNED_CONTEXT ( ( #68 ) ) GLOBAL_UNIT_ASSIGNED_CONTEXT ( ( #60, #14, #48 ) ) REPRESENTATION_CONTEXT ( 'NONE', 'WORKASPACE' ) );
#59 = DIRECTION ( 'NONE',  ( 0.000000000000000000, 0.000000000000000000, -1.000000000000000000 ) ) ;
#60 =( LENGTH_UNIT ( ) NAMED_UNIT ( * ) SI_UNIT ( .MILLI., .METRE. ) );
#61 = ADVANCED_FACE ( 'NONE', ( #193 ), #164, .T. ) ;
#62 = AXIS2_PLACEMENT_3D ( 'NONE', #120, #228, #158 ) ;
#63 = DATE_TIME_ROLE ( 'classification_date' ) ;
#64 = AXIS2_PLACEMENT_3D ( 'NONE', #91, #187, #172 ) ;
#65 = EDGE_CURVE ( 'NONE', #142, #17, #12, .T. ) ;
#66 = CALENDAR_DATE ( 2024, 5, 9 ) ;
#67 = DATE_AND_TIME ( #46, #82 ) ;
#68 = UNCERTAINTY_MEASURE_WITH_UNIT (LENGTH_MEASURE( 1.000000000000000082E-05 ), #60, 'distance_accuracy_value', 'NONE');
#69 = ORIENTED_EDGE ( 'NONE', *, *, #141, .T. ) ;
#70 = ORIENTED_EDGE ( 'NONE', *, *, #106, .F. ) ;
#71 = PRODUCT_DEFINITION ( 'UNKNOWN', '', #198, #166 ) ;
#72 = PERSON_AND_ORGANIZATION ( #108, #103 ) ;
#73 = EDGE_LOOP ( 'NONE', ( #105, #122 ) ) ;
#74 = DIRECTION ( 'NONE',  ( 0.000000000000000000, 0.000000000000000000, -1.000000000000000000 ) ) ;
#75 = DIRECTION ( 'NONE',  ( -1.000000000000000000, -0.000000000000000000, -0.000000000000000000 ) ) ;
#76 = ADVANCED_BREP_SHAPE_REPRESENTATION ( '3D_M2060_25-10_174121025', ( #134, #89 ), #58 ) ;
#77 = CARTESIAN_POINT ( 'NONE',  ( 29.61350602415950206, 0.000000000000000000, 0.000000000000000000 ) ) ;
#78 = DIRECTION ( 'NONE',  ( -0.9662349396012462899, 3.155457402685339568E-17, -0.2576626505603323292 ) ) ;
#79 = CARTESIAN_POINT ( 'NONE',  ( 30.00000000000000000, 0.000000000000000000, 0.000000000000000000 ) ) ;
#80 = ORIENTED_EDGE ( 'NONE', *, *, #196, .F. ) ;
#81 = DATE_AND_TIME ( #66, #177 ) ;
#82 = LOCAL_TIME ( 12, 14, 25.00000000000000000, #102 ) ;
#83 = AXIS2_PLACEMENT_3D ( 'NONE', #207, #75, #32 ) ;
#84 = VERTEX_POINT ( 'NONE', #57 ) ;
#85 = CC_DESIGN_DATE_AND_TIME_ASSIGNMENT ( #43, #63, ( #128 ) ) ;
#86 = VECTOR ( 'NONE', #204, 1000.000000000000000 ) ;
#87 = CC_DESIGN_PERSON_AND_ORGANIZATION_ASSIGNMENT ( #6, #206, ( #93 ) ) ;
#88 = APPROVAL_ROLE ( '' ) ;
#89 = AXIS2_PLACEMENT_3D ( 'NONE', #22, #181, #189 ) ;
#90 = ORIENTED_EDGE ( 'NONE', *, *, #242, .T. ) ;
#91 = CARTESIAN_POINT ( 'NONE',  ( 29.61350602415950206, 0.000000000000000000, 0.000000000000000000 ) ) ;
#92 = DIRECTION ( 'NONE',  ( 0.000000000000000000, 0.000000000000000000, 1.000000000000000000 ) ) ;
#93 = PRODUCT ( '3D_M2060_25-10_174121025', '3D_M2060_25-10_174121025', '', ( #144 ) ) ;
#94 = DIRECTION ( 'NONE',  ( -0.9662349396012462899, 0.000000000000000000, 0.2576626505603323292 ) ) ;
#95 = CONICAL_SURFACE ( 'NONE', #64, 3.550647590598130954, 0.2606023917473409557 ) ;
#96 = ORIENTED_EDGE ( 'NONE', *, *, #110, .F. ) ;
#97 = ORIENTED_EDGE ( 'NONE', *, *, #163, .T. ) ;
#98 = ADVANCED_FACE ( 'NONE', ( #249 ), #27, .F. ) ;
#99 = CIRCLE ( 'NONE', #107, 3.447582530373998644 ) ;
#100 = DIRECTION ( 'NONE',  ( 0.000000000000000000, 0.000000000000000000, -1.000000000000000000 ) ) ;
#101 = CARTESIAN_POINT ( 'NONE',  ( 30.00000000000000000, 0.000000000000000000, 0.000000000000000000 ) ) ;
#102 = COORDINATED_UNIVERSAL_TIME_OFFSET ( 1, 0, .AHEAD. ) ;
#103 = ORGANIZATION ( 'UNSPECIFIED', 'UNSPECIFIED', '' ) ;
#104 = CALENDAR_DATE ( 2024, 5, 9 ) ;
#105 = ORIENTED_EDGE ( 'NONE', *, *, #152, .T. ) ;
#106 = EDGE_CURVE ( 'NONE', #230, #84, #99, .T. ) ;
#107 = AXIS2_PLACEMENT_3D ( 'NONE', #139, #209, #36 ) ;
#108 = PERSON ( 'UNSPECIFIED', 'UNSPECIFIED', 'UNSPECIFIED', ('UNSPECIFIED'), ('UNSPECIFIED'), ('UNSPECIFIED') ) ;
#109 = AXIS2_PLACEMENT_3D ( 'NONE', #213, #49, #74 ) ;
#110 = EDGE_CURVE ( 'NONE', #230, #142, #157, .T. ) ;
#111 = APPLICATION_CONTEXT ( 'configuration controlled 3d designs of mechanical parts and assemblies' ) ;
#112 = CARTESIAN_POINT ( 'NONE',  ( 0.000000000000000000, 0.000000000000000000, 0.000000000000000000 ) ) ;
#113 = DIRECTION ( 'NONE',  ( 1.000000000000000000, 0.000000000000000000, 0.000000000000000000 ) ) ;
#114 = LOCAL_TIME ( 12, 14, 25.00000000000000000, #165 ) ;
#115 = ORIENTED_EDGE ( 'NONE', *, *, #241, .F. ) ;
#116 = FACE_BOUND ( 'NONE', #30, .T. ) ;
#117 = DIRECTION ( 'NONE',  ( -0.9662349396012462899, 3.155457402685339568E-17, -0.2576626505603323292 ) ) ;
#118 = EDGE_CURVE ( 'NONE', #84, #17, #2, .T. ) ;
#119 = CARTESIAN_POINT ( 'NONE',  ( 29.61350602415950206, 0.000000000000000000, 3.550647590598130954 ) ) ;
#120 = CARTESIAN_POINT ( 'NONE',  ( 0.000000000000000000, 0.000000000000000000, 0.000000000000000000 ) ) ;
#121 = ADVANCED_FACE ( 'NONE', ( #140, #19 ), #3, .T. ) ;
#122 = ORIENTED_EDGE ( 'NONE', *, *, #196, .T. ) ;
#123 = CARTESIAN_POINT ( 'NONE',  ( 30.00000000000000000, 0.000000000000000000, 3.447582530373998644 ) ) ;
#124 = LOCAL_TIME ( 12, 14, 25.00000000000000000, #168 ) ;
#125 = AXIS2_PLACEMENT_3D ( 'NONE', #53, #236, #100 ) ;
#126 = PERSON_AND_ORGANIZATION ( #108, #103 ) ;
#127 = PERSON_AND_ORGANIZATION_ROLE ( 'classification_officer' ) ;
#128 = SECURITY_CLASSIFICATION ( '', '', #7 ) ;
#129 = CC_DESIGN_PERSON_AND_ORGANIZATION_ASSIGNMENT ( #11, #127, ( #128 ) ) ;
#130 = ORIENTED_EDGE ( 'NONE', *, *, #10, .T. ) ;
#131 = ORIENTED_EDGE ( 'NONE', *, *, #110, .T. ) ;
#132 = FACE_OUTER_BOUND ( 'NONE', #28, .T. ) ;
#133 = VERTEX_POINT ( 'NONE', #159 ) ;
#134 = MANIFOLD_SOLID_BREP ( 'Wandung2', #240 ) ;
#135 = APPROVAL ( #162, 'UNSPECIFIED' ) ;
#136 = ORIENTED_EDGE ( 'NONE', *, *, #65, .F. ) ;
#137 = CIRCLE ( 'NONE', #197, 5.000000000000000000 ) ;
#138 = LINE ( 'NONE', #246, #86 ) ;
#139 = CARTESIAN_POINT ( 'NONE',  ( 30.00000000000000000, 0.000000000000000000, 0.000000000000000000 ) ) ;
#140 = FACE_BOUND ( 'NONE', #201, .T. ) ;
#141 = EDGE_CURVE ( 'NONE', #84, #230, #44, .T. ) ;
#142 = VERTEX_POINT ( 'NONE', #143 ) ;
#143 = CARTESIAN_POINT ( 'NONE',  ( 0.000000000000000000, 0.000000000000000000, 11.44758253037399953 ) ) ;
#144 = MECHANICAL_CONTEXT ( 'NONE', #111, 'mechanical' ) ;
#145 = APPROVAL_DATE_TIME ( #67, #135 ) ;
#146 = PERSON_AND_ORGANIZATION ( #108, #103 ) ;
#147 = VECTOR ( 'NONE', #78, 1000.000000000000000 ) ;
#148 = APPROVAL_STATUS ( 'not_yet_approved' ) ;
#149 = PERSON_AND_ORGANIZATION ( #108, #103 ) ;
#150 = CALENDAR_DATE ( 2024, 5, 9 ) ;
#151 = ORIENTED_EDGE ( 'NONE', *, *, #45, .T. ) ;
#152 = EDGE_CURVE ( 'NONE', #176, #5, #52, .T. ) ;
#153 = CARTESIAN_POINT ( 'NONE',  ( 30.00000000000000000, 3.061616997868383141E-16, 5.000000000000000000 ) ) ;
#154 = CARTESIAN_POINT ( 'NONE',  ( 30.00000000000000000, 6.123233995736766282E-16, -5.000000000000000000 ) ) ;
#155 = APPLICATION_PROTOCOL_DEFINITION ( 'international standard', 'config_control_design', 1994, #56 ) ;
#156 = EDGE_LOOP ( 'NONE', ( #243, #50, #191, #151 ) ) ;
#157 = LINE ( 'NONE', #119, #1 ) ;
#158 = DIRECTION ( 'NONE',  ( 0.000000000000000000, 0.000000000000000000, -1.000000000000000000 ) ) ;
#159 = CARTESIAN_POINT ( 'NONE',  ( 0.000000000000000000, 2.388061258337338939E-15, -13.00000000000000178 ) ) ;
#160 = DATE_AND_TIME ( #150, #124 ) ;
#161 = SHAPE_DEFINITION_REPRESENTATION ( #42, #76 ) ;
#162 = APPROVAL_STATUS ( 'not_yet_approved' ) ;
#163 = EDGE_CURVE ( 'NONE', #17, #142, #29, .T. ) ;
#164 = CONICAL_SURFACE ( 'NONE', #40, 5.000000000000000000, 0.2606023917473409557 ) ;
#165 = COORDINATED_UNIVERSAL_TIME_OFFSET ( 1, 0, .AHEAD. ) ;
#166 = DESIGN_CONTEXT ( 'detailed design', #56, 'design' ) ;
#167 = EDGE_LOOP ( 'NONE', ( #80, #130, #90, #115 ) ) ;
#168 = COORDINATED_UNIVERSAL_TIME_OFFSET ( 1, 0, .AHEAD. ) ;
#169 = AXIS2_PLACEMENT_3D ( 'NONE', #112, #222, #208 ) ;
#170 = ADVANCED_FACE ( 'NONE', ( #116, #31 ), #248, .F. ) ;
#171 = EDGE_LOOP ( 'NONE', ( #174, #220 ) ) ;
#172 = DIRECTION ( 'NONE',  ( 0.000000000000000000, 0.000000000000000000, 1.000000000000000000 ) ) ;
#173 = DIRECTION ( 'NONE',  ( 1.000000000000000000, 0.000000000000000000, 0.000000000000000000 ) ) ;
#174 = ORIENTED_EDGE ( 'NONE', *, *, #45, .F. ) ;
#175 = AXIS2_PLACEMENT_3D ( 'NONE', #184, #227, #214 ) ;
#176 = VERTEX_POINT ( 'NONE', #153 ) ;
#177 = LOCAL_TIME ( 12, 14, 25.00000000000000000, #199 ) ;
#178 = ORIENTED_EDGE ( 'NONE', *, *, #106, .T. ) ;
#179 = DIRECTION ( 'NONE',  ( 0.000000000000000000, 0.000000000000000000, -1.000000000000000000 ) ) ;
#180 = CC_DESIGN_PERSON_AND_ORGANIZATION_ASSIGNMENT ( #72, #223, ( #71 ) ) ;
#181 = DIRECTION ( 'NONE',  ( 0.000000000000000000, 0.000000000000000000, 1.000000000000000000 ) ) ;
#182 = PERSON_AND_ORGANIZATION_ROLE ( 'design_supplier' ) ;
#183 = ADVANCED_FACE ( 'NONE', ( #132 ), #95, .F. ) ;
#184 = CARTESIAN_POINT ( 'NONE',  ( 0.000000000000000000, 0.000000000000000000, 0.000000000000000000 ) ) ;
#185 = PRODUCT_RELATED_PRODUCT_CATEGORY ( 'detail', '', ( #93 ) ) ;
#186 = ORIENTED_EDGE ( 'NONE', *, *, #163, .F. ) ;
#187 = DIRECTION ( 'NONE',  ( -1.000000000000000000, -0.000000000000000000, -0.000000000000000000 ) ) ;
#188 = ORIENTED_EDGE ( 'NONE', *, *, #141, .F. ) ;
#189 = DIRECTION ( 'NONE',  ( 1.000000000000000000, 0.000000000000000000, 0.000000000000000000 ) ) ;
#190 = LINE ( 'NONE', #154, #203 ) ;
#191 = ORIENTED_EDGE ( 'NONE', *, *, #241, .T. ) ;
#192 = APPROVAL_PERSON_ORGANIZATION ( #146, #135, #26 ) ;
#193 = FACE_OUTER_BOUND ( 'NONE', #156, .T. ) ;
#194 = EDGE_LOOP ( 'NONE', ( #178, #205, #136, #96 ) ) ;
#195 = CONICAL_SURFACE ( 'NONE', #83, 5.000000000000000000, 0.2606023917473409557 ) ;
#196 = EDGE_CURVE ( 'NONE', #5, #176, #137, .T. ) ;
#197 = AXIS2_PLACEMENT_3D ( 'NONE', #101, #113, #179 ) ;
#198 = PRODUCT_DEFINITION_FORMATION_WITH_SPECIFIED_SOURCE ( 'ANY', '', #93, .NOT_KNOWN. ) ;
#199 = COORDINATED_UNIVERSAL_TIME_OFFSET ( 1, 0, .AHEAD. ) ;
#200 = AXIS2_PLACEMENT_3D ( 'NONE', #39, #235, #59 ) ;
#201 = EDGE_LOOP ( 'NONE', ( #70, #188 ) ) ;
#202 = CC_DESIGN_PERSON_AND_ORGANIZATION_ASSIGNMENT ( #149, #237, ( #198 ) ) ;
#203 = VECTOR ( 'NONE', #117, 1000.000000000000000 ) ;
#204 = DIRECTION ( 'NONE',  ( -0.9662349396012462899, 0.000000000000000000, 0.2576626505603323292 ) ) ;
#205 = ORIENTED_EDGE ( 'NONE', *, *, #118, .T. ) ;
#206 = PERSON_AND_ORGANIZATION_ROLE ( 'design_owner' ) ;
#207 = CARTESIAN_POINT ( 'NONE',  ( 30.00000000000000000, 0.000000000000000000, 0.000000000000000000 ) ) ;
#208 = DIRECTION ( 'NONE',  ( 0.000000000000000000, 0.000000000000000000, -1.000000000000000000 ) ) ;
#209 = DIRECTION ( 'NONE',  ( 1.000000000000000000, 0.000000000000000000, 0.000000000000000000 ) ) ;
#210 = CARTESIAN_POINT ( 'NONE',  ( 0.000000000000000000, 1.401924530379767385E-15, -11.44758253037399953 ) ) ;
#211 = DIRECTION ( 'NONE',  ( 0.000000000000000000, 0.000000000000000000, -1.000000000000000000 ) ) ;
#212 = CIRCLE ( 'NONE', #169, 13.00000000000000178 ) ;
#213 = CARTESIAN_POINT ( 'NONE',  ( 30.00000000000000000, 0.000000000000000000, 0.000000000000000000 ) ) ;
#214 = DIRECTION ( 'NONE',  ( 0.000000000000000000, 0.000000000000000000, -1.000000000000000000 ) ) ;
#215 = AXIS2_PLACEMENT_3D ( 'NONE', #77, #37, #54 ) ;
#216 = DATE_TIME_ROLE ( 'creation_date' ) ;
#217 = CC_DESIGN_APPROVAL ( #219, ( #71 ) ) ;
#218 = APPROVAL_ROLE ( '' ) ;
#219 = APPROVAL ( #33, 'UNSPECIFIED' ) ;
#220 = ORIENTED_EDGE ( 'NONE', *, *, #242, .F. ) ;
#221 = CC_DESIGN_DATE_AND_TIME_ASSIGNMENT ( #25, #216, ( #71 ) ) ;
#222 = DIRECTION ( 'NONE',  ( 1.000000000000000000, 0.000000000000000000, 0.000000000000000000 ) ) ;
#223 = PERSON_AND_ORGANIZATION_ROLE ( 'creator' ) ;
#224 = APPROVAL_PERSON_ORGANIZATION ( #239, #233, #218 ) ;
#225 = ORIENTED_EDGE ( 'NONE', *, *, #65, .T. ) ;
#226 = CIRCLE ( 'NONE', #62, 13.00000000000000178 ) ;
#227 = DIRECTION ( 'NONE',  ( 1.000000000000000000, 0.000000000000000000, 0.000000000000000000 ) ) ;
#228 = DIRECTION ( 'NONE',  ( 1.000000000000000000, 0.000000000000000000, 0.000000000000000000 ) ) ;
#229 = COORDINATED_UNIVERSAL_TIME_OFFSET ( 1, 0, .AHEAD. ) ;
#230 = VERTEX_POINT ( 'NONE', #123 ) ;
#231 = CARTESIAN_POINT ( 'NONE',  ( 29.61350602415950206, 4.348289206726262490E-16, -3.550647590598130954 ) ) ;
#232 = DIRECTION ( 'NONE',  ( 1.000000000000000000, 0.000000000000000000, 0.000000000000000000 ) ) ;
#233 = APPROVAL ( #148, 'UNSPECIFIED' ) ;
#234 = CC_DESIGN_APPROVAL ( #135, ( #198 ) ) ;
#235 = DIRECTION ( 'NONE',  ( 1.000000000000000000, 0.000000000000000000, 0.000000000000000000 ) ) ;
#236 = DIRECTION ( 'NONE',  ( 1.000000000000000000, 0.000000000000000000, 0.000000000000000000 ) ) ;
#237 = PERSON_AND_ORGANIZATION_ROLE ( 'creator' ) ;
#238 = CC_DESIGN_APPROVAL ( #233, ( #128 ) ) ;
#239 = PERSON_AND_ORGANIZATION ( #108, #103 ) ;
#240 = CLOSED_SHELL ( 'NONE', ( #98, #4, #121, #170, #61, #183 ) ) ;
#241 = EDGE_CURVE ( 'NONE', #176, #245, #138, .T. ) ;
#242 = EDGE_CURVE ( 'NONE', #133, #245, #212, .T. ) ;
#243 = ORIENTED_EDGE ( 'NONE', *, *, #10, .F. ) ;
#244 = APPROVAL_DATE_TIME ( #160, #219 ) ;
#245 = VERTEX_POINT ( 'NONE', #41 ) ;
#246 = CARTESIAN_POINT ( 'NONE',  ( 30.00000000000000000, 0.000000000000000000, 5.000000000000000000 ) ) ;
#247 = CC_DESIGN_SECURITY_CLASSIFICATION ( #128, ( #198 ) ) ;
#248 = PLANE ( 'NONE',  #125 ) ;
#249 = FACE_OUTER_BOUND ( 'NONE', #194, .T. ) ;
ENDSEC;
END-ISO-10303-21;
