ISO-10303-21;
HEADER;
FILE_DESCRIPTION (( 'STEP AP203' ),
    '1' );
FILE_NAME ('11-0201-04_outokumpu.step',
    '2015-08-10T12:13:23',
    ( '' ),
    ( '' ),
    'SwSTEP 2.0',
    'SolidWorks 2008',
    '' );
FILE_SCHEMA (( 'CONFIG_CONTROL_DESIGN' ));
ENDSEC;

DATA;
#1 = DIRECTION ( 'NONE',  ( 0.0000000000000000000, 0.0000000000000000000, -1.000000000000000000 ) ) ;
#2 = DIRECTION ( 'NONE',  ( -1.000000000000000000, 0.0000000000000000000, 0.0000000000000000000 ) ) ;
#3 = ADVANCED_FACE ( 'NONE', ( #49 ), #79, .T. ) ;
#4 = ORIENTED_EDGE ( 'NONE', *, *, #113, .T. ) ;
#5 = EDGE_CURVE ( 'NONE', #39, #114, #74, .T. ) ;
#6 = ORIENTED_EDGE ( 'NONE', *, *, #29, .F. ) ;
#7 = ORIENTED_EDGE ( 'NONE', *, *, #5, .F. ) ;
#8 = ADVANCED_FACE ( 'NONE', ( #75, #129 ), #128, .F. ) ;
#9 = EDGE_LOOP ( 'NONE', ( #6, #103 ) ) ;
#10 = ORIENTED_EDGE ( 'NONE', *, *, #37, .F. ) ;
#11 = ORIENTED_EDGE ( 'NONE', *, *, #13, .T. ) ;
#12 = ORIENTED_EDGE ( 'NONE', *, *, #144, .T. ) ;
#13 = EDGE_CURVE ( 'NONE', #141, #96, #123, .T. ) ;
#14 = ORIENTED_EDGE ( 'NONE', *, *, #15, .T. ) ;
#15 = EDGE_CURVE ( 'NONE', #39, #16, #157, .T. ) ;
#16 = VERTEX_POINT ( 'NONE', #149 ) ;
#17 = ORIENTED_EDGE ( 'NONE', *, *, #18, .F. ) ;
#18 = EDGE_CURVE ( 'NONE', #19, #16, #148, .T. ) ;
#19 = VERTEX_POINT ( 'NONE', #89 ) ;
#20 = ORIENTED_EDGE ( 'NONE', *, *, #21, .F. ) ;
#21 = EDGE_CURVE ( 'NONE', #22, #19, #88, .T. ) ;
#22 = VERTEX_POINT ( 'NONE', #84 ) ;
#23 = ADVANCED_FACE ( 'NONE', ( #83 ), #81, .F. ) ;
#24 = EDGE_LOOP ( 'NONE', ( #25, #14, #17, #20, #131 ) ) ;
#25 = ORIENTED_EDGE ( 'NONE', *, *, #37, .T. ) ;
#26 = MANIFOLD_SOLID_BREP ( 'NONE', #56 ) ;
#27 = EDGE_LOOP ( 'NONE', ( #28, #122, #117, #116 ) ) ;
#28 = ORIENTED_EDGE ( 'NONE', *, *, #29, .T. ) ;
#29 = EDGE_CURVE ( 'NONE', #30, #31, #292, .T. ) ;
#30 = VERTEX_POINT ( 'NONE', #169 ) ;
#31 = VERTEX_POINT ( 'NONE', #166 ) ;
#32 = VERTEX_POINT ( 'NONE', #165 ) ;
#33 = VERTEX_POINT ( 'NONE', #159 ) ;
#34 = ORIENTED_EDGE ( 'NONE', *, *, #35, .T. ) ;
#35 = EDGE_CURVE ( 'NONE', #32, #36, #158, .T. ) ;
#36 = VERTEX_POINT ( 'NONE', #314 ) ;
#37 = EDGE_CURVE ( 'NONE', #38, #39, #194, .T. ) ;
#38 = VERTEX_POINT ( 'NONE', #189 ) ;
#39 = VERTEX_POINT ( 'NONE', #188 ) ;
#40 = ADVANCED_FACE ( 'NONE', ( #214 ), #212, .F. ) ;
#41 = EDGE_LOOP ( 'NONE', ( #42, #12, #11, #4, #7, #10 ) ) ;
#42 = ORIENTED_EDGE ( 'NONE', *, *, #91, .F. ) ;
#43 = ORIENTED_EDGE ( 'NONE', *, *, #113, .F. ) ;
#44 = ORIENTED_EDGE ( 'NONE', *, *, #45, .F. ) ;
#45 = EDGE_CURVE ( 'NONE', #114, #22, #227, .T. ) ;
#46 = ORIENTED_EDGE ( 'NONE', *, *, #132, .F. ) ;
#47 = ORIENTED_EDGE ( 'NONE', *, *, #91, .T. ) ;
#48 = CARTESIAN_POINT ( 'NONE',  ( 0.0000000000000000000, 0.0000000000000000000, -4.336808689942017700E-016 ) ) ;
#49 = FACE_OUTER_BOUND ( 'NONE', #27, .T. ) ;
#50 = ADVANCED_FACE ( 'NONE', ( #223 ), #221, .F. ) ;
#51 = EDGE_LOOP ( 'NONE', ( #61, #69, #59, #53, #98 ) ) ;
#52 = EDGE_CURVE ( 'NONE', #139, #36, #281, .T. ) ;
#53 = ORIENTED_EDGE ( 'NONE', *, *, #142, .T. ) ;
#54 = EDGE_LOOP ( 'NONE', ( #57, #58, #67, #68, #55 ) ) ;
#55 = ORIENTED_EDGE ( 'NONE', *, *, #100, .F. ) ;
#56 = CLOSED_SHELL ( 'NONE', ( #23, #133, #3, #93, #40, #8, #109, #64, #70, #50 ) ) ;
#57 = ORIENTED_EDGE ( 'NONE', *, *, #15, .F. ) ;
#58 = ORIENTED_EDGE ( 'NONE', *, *, #5, .T. ) ;
#59 = ORIENTED_EDGE ( 'NONE', *, *, #13, .F. ) ;
#60 = ORIENTED_EDGE ( 'NONE', *, *, #101, .F. ) ;
#61 = ORIENTED_EDGE ( 'NONE', *, *, #35, .F. ) ;
#62 = ORIENTED_EDGE ( 'NONE', *, *, #120, .F. ) ;
#63 = EDGE_LOOP ( 'NONE', ( #62, #66, #99, #60 ) ) ;
#64 = ADVANCED_FACE ( 'NONE', ( #276 ), #275, .T. ) ;
#65 = ORIENTED_EDGE ( 'NONE', *, *, #138, .F. ) ;
#66 = ORIENTED_EDGE ( 'NONE', *, *, #104, .T. ) ;
#67 = ORIENTED_EDGE ( 'NONE', *, *, #45, .T. ) ;
#68 = ORIENTED_EDGE ( 'NONE', *, *, #21, .T. ) ;
#69 = ORIENTED_EDGE ( 'NONE', *, *, #92, .F. ) ;
#70 = ADVANCED_FACE ( 'NONE', ( #274 ), #291, .F. ) ;
#71 = DIRECTION ( 'NONE',  ( -0.0000000000000000000, -0.0000000000000000000, 1.000000000000000000 ) ) ;
#72 = CARTESIAN_POINT ( 'NONE',  ( 0.0000000000000000000, 0.0000000000000000000, -33.63411763765028400 ) ) ;
#73 = AXIS2_PLACEMENT_3D ( 'NONE', #72, #71, #130 ) ;
#74 = CIRCLE ( 'NONE', #73, 10.47749999999999900 ) ;
#75 = FACE_OUTER_BOUND ( 'NONE', #9, .T. ) ;
#76 = DIRECTION ( 'NONE',  ( 1.000000000000000000, 0.0000000000000000000, 0.0000000000000000000 ) ) ;
#77 = DIRECTION ( 'NONE',  ( -0.0000000000000000000, -0.0000000000000000000, 1.000000000000000000 ) ) ;
#78 = AXIS2_PLACEMENT_3D ( 'NONE', #48, #77, #76 ) ;
#79 = CYLINDRICAL_SURFACE ( 'NONE', #78, 13.25000000000000000 ) ;
#80 = AXIS2_PLACEMENT_3D ( 'NONE', #82, #1, #2 ) ;
#81 = CONICAL_SURFACE ( 'NONE', #80, 10.84338236234971800, 0.7853981633974507200 ) ;
#82 = CARTESIAN_POINT ( 'NONE',  ( 0.0000000000000000000, 0.0000000000000000000, -34.00000000000000000 ) ) ;
#83 = FACE_OUTER_BOUND ( 'NONE', #24, .T. ) ;
#84 = CARTESIAN_POINT ( 'NONE',  ( -10.47749999999999900, 0.0000000000000000000, -33.63411763765028400 ) ) ;
#85 = DIRECTION ( 'NONE',  ( -0.7071067811865492400, 0.0000000000000000000, -0.7071067811865458000 ) ) ;
#86 = VECTOR ( 'NONE', #85, 1000.000000000000000 ) ;
#87 = CARTESIAN_POINT ( 'NONE',  ( -10.84338236234971800, 0.0000000000000000000, -34.00000000000000000 ) ) ;
#88 = LINE ( 'NONE', #87, #86 ) ;
#89 = CARTESIAN_POINT ( 'NONE',  ( -10.84338236234971800, 0.0000000000000000000, -34.00000000000000000 ) ) ;
#90 = DIRECTION ( 'NONE',  ( 1.000000000000000000, 0.0000000000000000000, 0.0000000000000000000 ) ) ;
#91 = EDGE_CURVE ( 'NONE', #33, #38, #286, .T. ) ;
#92 = EDGE_CURVE ( 'NONE', #96, #32, #266, .T. ) ;
#93 = ADVANCED_FACE ( 'NONE', ( #261 ), #260, .F. ) ;
#94 = EDGE_LOOP ( 'NONE', ( #95, #97, #47, #46, #44, #43 ) ) ;
#95 = ORIENTED_EDGE ( 'NONE', *, *, #92, .T. ) ;
#96 = VERTEX_POINT ( 'NONE', #207 ) ;
#97 = ORIENTED_EDGE ( 'NONE', *, *, #136, .T. ) ;
#98 = ORIENTED_EDGE ( 'NONE', *, *, #52, .T. ) ;
#99 = ORIENTED_EDGE ( 'NONE', *, *, #115, .T. ) ;
#100 = EDGE_CURVE ( 'NONE', #16, #19, #204, .T. ) ;
#101 = EDGE_CURVE ( 'NONE', #119, #118, #199, .T. ) ;
#102 = ORIENTED_EDGE ( 'NONE', *, *, #52, .F. ) ;
#103 = ORIENTED_EDGE ( 'NONE', *, *, #104, .F. ) ;
#104 = EDGE_CURVE ( 'NONE', #31, #30, #313, .T. ) ;
#105 = ORIENTED_EDGE ( 'NONE', *, *, #100, .T. ) ;
#106 = EDGE_LOOP ( 'NONE', ( #111, #107 ) ) ;
#107 = ORIENTED_EDGE ( 'NONE', *, *, #101, .T. ) ;
#108 = EDGE_LOOP ( 'NONE', ( #102, #65 ) ) ;
#109 = ADVANCED_FACE ( 'NONE', ( #308, #307 ), #306, .F. ) ;
#110 = ORIENTED_EDGE ( 'NONE', *, *, #18, .T. ) ;
#111 = ORIENTED_EDGE ( 'NONE', *, *, #121, .T. ) ;
#112 = EDGE_LOOP ( 'NONE', ( #110, #105 ) ) ;
#113 = EDGE_CURVE ( 'NONE', #96, #114, #304, .T. ) ;
#114 = VERTEX_POINT ( 'NONE', #297 ) ;
#115 = EDGE_CURVE ( 'NONE', #30, #118, #296, .T. ) ;
#116 = ORIENTED_EDGE ( 'NONE', *, *, #115, .F. ) ;
#117 = ORIENTED_EDGE ( 'NONE', *, *, #121, .F. ) ;
#118 = VERTEX_POINT ( 'NONE', #186 ) ;
#119 = VERTEX_POINT ( 'NONE', #185 ) ;
#120 = EDGE_CURVE ( 'NONE', #31, #119, #184, .T. ) ;
#121 = EDGE_CURVE ( 'NONE', #118, #119, #179, .T. ) ;
#122 = ORIENTED_EDGE ( 'NONE', *, *, #120, .T. ) ;
#123 = CIRCLE ( 'NONE', #156, 10.47749999999999700 ) ;
#124 = DIRECTION ( 'NONE',  ( 1.000000000000000000, 0.0000000000000000000, 0.0000000000000000000 ) ) ;
#125 = DIRECTION ( 'NONE',  ( 0.0000000000000000000, -0.0000000000000000000, 1.000000000000000000 ) ) ;
#126 = CARTESIAN_POINT ( 'NONE',  ( 0.0000000000000000000, 13.25000000000000000, -34.00000000000000000 ) ) ;
#127 = AXIS2_PLACEMENT_3D ( 'NONE', #126, #125, #124 ) ;
#128 = PLANE ( 'NONE',  #127 ) ;
#129 = FACE_BOUND ( 'NONE', #112, .T. ) ;
#130 = DIRECTION ( 'NONE',  ( 1.000000000000000000, 0.0000000000000000000, 0.0000000000000000000 ) ) ;
#131 = ORIENTED_EDGE ( 'NONE', *, *, #132, .T. ) ;
#132 = EDGE_CURVE ( 'NONE', #22, #38, #257, .T. ) ;
#133 = ADVANCED_FACE ( 'NONE', ( #253 ), #252, .F. ) ;
#134 = EDGE_LOOP ( 'NONE', ( #135, #34, #137, #140, #143 ) ) ;
#135 = ORIENTED_EDGE ( 'NONE', *, *, #136, .F. ) ;
#136 = EDGE_CURVE ( 'NONE', #32, #33, #251, .T. ) ;
#137 = ORIENTED_EDGE ( 'NONE', *, *, #138, .T. ) ;
#138 = EDGE_CURVE ( 'NONE', #36, #139, #242, .T. ) ;
#139 = VERTEX_POINT ( 'NONE', #237 ) ;
#140 = ORIENTED_EDGE ( 'NONE', *, *, #142, .F. ) ;
#141 = VERTEX_POINT ( 'NONE', #236 ) ;
#142 = EDGE_CURVE ( 'NONE', #141, #139, #235, .T. ) ;
#143 = ORIENTED_EDGE ( 'NONE', *, *, #144, .F. ) ;
#144 = EDGE_CURVE ( 'NONE', #33, #141, #231, .T. ) ;
#145 = DIRECTION ( 'NONE',  ( -0.0000000000000000000, -0.0000000000000000000, 1.000000000000000000 ) ) ;
#146 = CARTESIAN_POINT ( 'NONE',  ( 0.0000000000000000000, 0.0000000000000000000, -34.00000000000000000 ) ) ;
#147 = AXIS2_PLACEMENT_3D ( 'NONE', #146, #145, #90 ) ;
#148 = CIRCLE ( 'NONE', #147, 10.84338236234971800 ) ;
#149 = CARTESIAN_POINT ( 'NONE',  ( 10.84338236234971800, 1.327887493785896400E-015, -34.00000000000000000 ) ) ;
#150 = DIRECTION ( 'NONE',  ( 0.7071067811865492400, 8.659274570719376400E-017, -0.7071067811865458000 ) ) ;
#151 = VECTOR ( 'NONE', #150, 1000.000000000000000 ) ;
#152 = CARTESIAN_POINT ( 'NONE',  ( 10.84338236234971800, 1.327887493785896400E-015, -34.00000000000000000 ) ) ;
#153 = DIRECTION ( 'NONE',  ( 1.000000000000000000, 0.0000000000000000000, 0.0000000000000000000 ) ) ;
#154 = DIRECTION ( 'NONE',  ( -0.0000000000000000000, -0.0000000000000000000, 1.000000000000000000 ) ) ;
#155 = CARTESIAN_POINT ( 'NONE',  ( 0.0000000000000000000, 0.0000000000000000000, -0.3658823623497114400 ) ) ;
#156 = AXIS2_PLACEMENT_3D ( 'NONE', #155, #154, #153 ) ;
#157 = LINE ( 'NONE', #152, #151 ) ;
#158 = LINE ( 'NONE', #317, #316 ) ;
#159 = CARTESIAN_POINT ( 'NONE',  ( 1.283081307217396000E-015, -10.47749999999999700, -0.3658823623497114400 ) ) ;
#160 = UNCERTAINTY_MEASURE_WITH_UNIT (LENGTH_MEASURE( 1.000000000000000100E-005 ), #163, 'distance_accuracy_value', 'NONE');
#161 =( NAMED_UNIT ( * ) SI_UNIT ( $, .STERADIAN. ) SOLID_ANGLE_UNIT ( ) );
#162 =( NAMED_UNIT ( * ) PLANE_ANGLE_UNIT ( ) SI_UNIT ( $, .RADIAN. ) );
#163 =( LENGTH_UNIT ( ) NAMED_UNIT ( * ) SI_UNIT ( .MILLI., .METRE. ) );
#164 = DIRECTION ( 'NONE',  ( 1.000000000000000000, 0.0000000000000000000, 0.0000000000000000000 ) ) ;
#165 = CARTESIAN_POINT ( 'NONE',  ( -10.47749999999999700, 1.305484400501645400E-015, -0.3658823623497114400 ) ) ;
#166 = CARTESIAN_POINT ( 'NONE',  ( -13.25000000000000000, 1.622603418814649700E-015, -34.00000000000000000 ) ) ;
#167 = DIRECTION ( 'NONE',  ( 1.000000000000000000, 0.0000000000000000000, 0.0000000000000000000 ) ) ;
#168 = DIRECTION ( 'NONE',  ( -0.0000000000000000000, -0.0000000000000000000, 1.000000000000000000 ) ) ;
#169 = CARTESIAN_POINT ( 'NONE',  ( 13.25000000000000000, 0.0000000000000000000, -34.00000000000000000 ) ) ;
#170 = PERSON ( 'UNSPECIFIED', 'UNSPECIFIED', 'UNSPECIFIED', ('UNSPECIFIED'), ('UNSPECIFIED'), ('UNSPECIFIED') ) ;
#171 = PRODUCT ( '11-0201-04_outokumpu', '11-0201-04_outokumpu', '', ( #172 ) ) ;
#172 = MECHANICAL_CONTEXT ( 'NONE', #174, 'mechanical' ) ;
#173 = APPLICATION_PROTOCOL_DEFINITION ( 'international standard', 'config_control_design', 1994, #174 ) ;
#174 = APPLICATION_CONTEXT ( 'configuration controlled 3d designs of mechanical parts and assemblies' ) ;
#175 = DIRECTION ( 'NONE',  ( 1.000000000000000000, 0.0000000000000000000, 0.0000000000000000000 ) ) ;
#176 = DIRECTION ( 'NONE',  ( -0.0000000000000000000, -0.0000000000000000000, 1.000000000000000000 ) ) ;
#177 = CARTESIAN_POINT ( 'NONE',  ( 0.0000000000000000000, 0.0000000000000000000, 0.0000000000000000000 ) ) ;
#178 = AXIS2_PLACEMENT_3D ( 'NONE', #177, #176, #175 ) ;
#179 = CIRCLE ( 'NONE', #178, 13.25000000000000000 ) ;
#180 = CARTESIAN_POINT ( 'NONE',  ( 0.0000000000000000000, 0.0000000000000000000, -33.63411763765028400 ) ) ;
#181 = DIRECTION ( 'NONE',  ( -0.0000000000000000000, -0.0000000000000000000, 1.000000000000000000 ) ) ;
#182 = VECTOR ( 'NONE', #181, 1000.000000000000000 ) ;
#183 = CARTESIAN_POINT ( 'NONE',  ( -13.25000000000000000, 1.622603418814649700E-015, -4.336808689942017700E-016 ) ) ;
#184 = LINE ( 'NONE', #183, #182 ) ;
#185 = CARTESIAN_POINT ( 'NONE',  ( -13.25000000000000000, 1.622603418814649700E-015, 0.0000000000000000000 ) ) ;
#186 = CARTESIAN_POINT ( 'NONE',  ( 13.25000000000000000, 0.0000000000000000000, 0.0000000000000000000 ) ) ;
#187 = AXIS2_PLACEMENT_3D ( 'NONE', #269, #168, #167 ) ;
#188 = CARTESIAN_POINT ( 'NONE',  ( 10.47749999999999900, 1.305484400501646000E-015, -33.63411763765028400 ) ) ;
#189 = CARTESIAN_POINT ( 'NONE',  ( 1.283081307217396000E-015, -10.47749999999999900, -33.63411763765028400 ) ) ;
#190 = DIRECTION ( 'NONE',  ( 1.000000000000000000, 0.0000000000000000000, 0.0000000000000000000 ) ) ;
#191 = DIRECTION ( 'NONE',  ( -0.0000000000000000000, -0.0000000000000000000, 1.000000000000000000 ) ) ;
#192 = CARTESIAN_POINT ( 'NONE',  ( 0.0000000000000000000, 0.0000000000000000000, -33.63411763765028400 ) ) ;
#193 = AXIS2_PLACEMENT_3D ( 'NONE', #192, #191, #190 ) ;
#194 = CIRCLE ( 'NONE', #193, 10.47749999999999900 ) ;
#195 = DIRECTION ( 'NONE',  ( 1.000000000000000000, 0.0000000000000000000, 0.0000000000000000000 ) ) ;
#196 = DIRECTION ( 'NONE',  ( -0.0000000000000000000, -0.0000000000000000000, 1.000000000000000000 ) ) ;
#197 = CARTESIAN_POINT ( 'NONE',  ( 0.0000000000000000000, 0.0000000000000000000, 0.0000000000000000000 ) ) ;
#198 = AXIS2_PLACEMENT_3D ( 'NONE', #197, #196, #195 ) ;
#199 = CIRCLE ( 'NONE', #198, 13.25000000000000000 ) ;
#200 = DIRECTION ( 'NONE',  ( 1.000000000000000000, 0.0000000000000000000, 0.0000000000000000000 ) ) ;
#201 = DIRECTION ( 'NONE',  ( -0.0000000000000000000, -0.0000000000000000000, 1.000000000000000000 ) ) ;
#202 = CARTESIAN_POINT ( 'NONE',  ( 0.0000000000000000000, 0.0000000000000000000, -34.00000000000000000 ) ) ;
#203 = AXIS2_PLACEMENT_3D ( 'NONE', #202, #201, #200 ) ;
#204 = CIRCLE ( 'NONE', #203, 10.84338236234971800 ) ;
#205 = DIRECTION ( 'NONE',  ( 0.0000000000000000000, 1.000000000000000000, 0.0000000000000000000 ) ) ;
#206 = DIRECTION ( 'NONE',  ( -0.0000000000000000000, 1.632748973677681200E-016, -1.000000000000000000 ) ) ;
#207 = CARTESIAN_POINT ( 'NONE',  ( 0.0000000000000000000, 10.47749999999999700, -0.3658823623497114400 ) ) ;
#208 = CARTESIAN_POINT ( 'NONE',  ( 0.0000000000000000000, 0.0000000000000000000, -33.63411763765028400 ) ) ;
#209 = DIRECTION ( 'NONE',  ( 0.0000000000000000000, 1.000000000000000000, 0.0000000000000000000 ) ) ;
#210 = DIRECTION ( 'NONE',  ( -0.0000000000000000000, 1.632748973677681200E-016, -1.000000000000000000 ) ) ;
#211 = AXIS2_PLACEMENT_3D ( 'NONE', #213, #210, #209 ) ;
#212 = CYLINDRICAL_SURFACE ( 'NONE', #211, 10.47750000000000300 ) ;
#213 = CARTESIAN_POINT ( 'NONE',  ( 0.0000000000000000000, 2.081899558550508200E-015, -34.00000000000004300 ) ) ;
#214 = FACE_OUTER_BOUND ( 'NONE', #41, .T. ) ;
#215 = AXIS2_PLACEMENT_3D ( 'NONE', #216, #218, #217 ) ;
#216 = CARTESIAN_POINT ( 'NONE',  ( 0.0000000000000000000, 0.0000000000000000000, 0.0000000000000000000 ) ) ;
#217 = DIRECTION ( 'NONE',  ( 1.000000000000000000, 0.0000000000000000000, 0.0000000000000000000 ) ) ;
#218 = DIRECTION ( 'NONE',  ( 0.0000000000000000000, 0.0000000000000000000, 1.000000000000000000 ) ) ;
#219 = ADVANCED_BREP_SHAPE_REPRESENTATION ( '11-0201-04_outokumpu', ( #26, #215 ), #220 ) ;
#220 =( GEOMETRIC_REPRESENTATION_CONTEXT ( 3 ) GLOBAL_UNCERTAINTY_ASSIGNED_CONTEXT ( ( #160 ) ) GLOBAL_UNIT_ASSIGNED_CONTEXT ( ( #163, #162, #161 ) ) REPRESENTATION_CONTEXT ( 'NONE', 'WORKASPACE' ) );
#221 = CONICAL_SURFACE ( 'NONE', #222, 10.84338236234971800, 0.7853981633974507200 ) ;
#222 = AXIS2_PLACEMENT_3D ( 'NONE', #284, #283, #282 ) ;
#223 = FACE_OUTER_BOUND ( 'NONE', #54, .T. ) ;
#224 = DIRECTION ( 'NONE',  ( 1.000000000000000000, 0.0000000000000000000, 0.0000000000000000000 ) ) ;
#225 = DIRECTION ( 'NONE',  ( -0.0000000000000000000, -0.0000000000000000000, 1.000000000000000000 ) ) ;
#226 = AXIS2_PLACEMENT_3D ( 'NONE', #208, #225, #224 ) ;
#227 = CIRCLE ( 'NONE', #226, 10.47749999999999900 ) ;
#228 = DIRECTION ( 'NONE',  ( -0.0000000000000000000, -0.0000000000000000000, 1.000000000000000000 ) ) ;
#229 = CARTESIAN_POINT ( 'NONE',  ( 0.0000000000000000000, 0.0000000000000000000, -0.3658823623497114400 ) ) ;
#230 = AXIS2_PLACEMENT_3D ( 'NONE', #229, #228, #164 ) ;
#231 = CIRCLE ( 'NONE', #230, 10.47749999999999700 ) ;
#232 = DIRECTION ( 'NONE',  ( 0.7071067811865501300, 0.0000000000000000000, 0.7071067811865449100 ) ) ;
#233 = VECTOR ( 'NONE', #232, 1000.000000000000000 ) ;
#234 = CARTESIAN_POINT ( 'NONE',  ( 10.47749999999999700, 0.0000000000000000000, -0.3658823623497114400 ) ) ;
#235 = LINE ( 'NONE', #234, #233 ) ;
#236 = CARTESIAN_POINT ( 'NONE',  ( 10.47749999999999700, 0.0000000000000000000, -0.3658823623497114400 ) ) ;
#237 = CARTESIAN_POINT ( 'NONE',  ( 10.84338236234971100, 0.0000000000000000000, 6.002343948027977100E-017 ) ) ;
#238 = DIRECTION ( 'NONE',  ( 1.000000000000000000, 0.0000000000000000000, 0.0000000000000000000 ) ) ;
#239 = DIRECTION ( 'NONE',  ( -0.0000000000000000000, -0.0000000000000000000, 1.000000000000000000 ) ) ;
#240 = CARTESIAN_POINT ( 'NONE',  ( 0.0000000000000000000, 0.0000000000000000000, 5.813330856004549000E-018 ) ) ;
#241 = AXIS2_PLACEMENT_3D ( 'NONE', #240, #239, #238 ) ;
#242 = CIRCLE ( 'NONE', #241, 10.84338236234971100 ) ;
#243 = DIRECTION ( 'NONE',  ( 1.000000000000000000, 0.0000000000000000000, 0.0000000000000000000 ) ) ;
#244 = DIRECTION ( 'NONE',  ( -0.0000000000000000000, -0.0000000000000000000, 1.000000000000000000 ) ) ;
#245 = CARTESIAN_POINT ( 'NONE',  ( 0.0000000000000000000, 0.0000000000000000000, -0.3658823623497114400 ) ) ;
#246 = AXIS2_PLACEMENT_3D ( 'NONE', #245, #244, #243 ) ;
#247 = DIRECTION ( 'NONE',  ( 1.000000000000000000, 0.0000000000000000000, 0.0000000000000000000 ) ) ;
#248 = DIRECTION ( 'NONE',  ( -0.0000000000000000000, -0.0000000000000000000, 1.000000000000000000 ) ) ;
#249 = CARTESIAN_POINT ( 'NONE',  ( 0.0000000000000000000, 0.0000000000000000000, -0.3658823623497114400 ) ) ;
#250 = AXIS2_PLACEMENT_3D ( 'NONE', #249, #248, #247 ) ;
#251 = CIRCLE ( 'NONE', #246, 10.47749999999999700 ) ;
#252 = CONICAL_SURFACE ( 'NONE', #250, 10.47749999999999700, 0.7853981633974520500 ) ;
#253 = FACE_OUTER_BOUND ( 'NONE', #134, .T. ) ;
#254 = DIRECTION ( 'NONE',  ( 1.000000000000000000, 0.0000000000000000000, 0.0000000000000000000 ) ) ;
#255 = DIRECTION ( 'NONE',  ( -0.0000000000000000000, -0.0000000000000000000, 1.000000000000000000 ) ) ;
#256 = AXIS2_PLACEMENT_3D ( 'NONE', #180, #255, #254 ) ;
#257 = CIRCLE ( 'NONE', #256, 10.47749999999999900 ) ;
#258 = CARTESIAN_POINT ( 'NONE',  ( 0.0000000000000000000, 2.081899558550508200E-015, -34.00000000000004300 ) ) ;
#259 = AXIS2_PLACEMENT_3D ( 'NONE', #258, #206, #205 ) ;
#260 = CYLINDRICAL_SURFACE ( 'NONE', #259, 10.47750000000000300 ) ;
#261 = FACE_OUTER_BOUND ( 'NONE', #94, .T. ) ;
#262 = DIRECTION ( 'NONE',  ( 1.000000000000000000, 0.0000000000000000000, 0.0000000000000000000 ) ) ;
#263 = DIRECTION ( 'NONE',  ( -0.0000000000000000000, -0.0000000000000000000, 1.000000000000000000 ) ) ;
#264 = CARTESIAN_POINT ( 'NONE',  ( 0.0000000000000000000, 0.0000000000000000000, -0.3658823623497114400 ) ) ;
#265 = AXIS2_PLACEMENT_3D ( 'NONE', #264, #263, #262 ) ;
#266 = CIRCLE ( 'NONE', #265, 10.47749999999999700 ) ;
#267 = DIRECTION ( 'NONE',  ( -0.0000000000000000000, 1.632748973677681200E-016, -1.000000000000000000 ) ) ;
#268 = VECTOR ( 'NONE', #267, 1000.000000000000000 ) ;
#269 = CARTESIAN_POINT ( 'NONE',  ( 0.0000000000000000000, 0.0000000000000000000, -34.00000000000000000 ) ) ;
#270 = DIRECTION ( 'NONE',  ( 1.000000000000000000, 0.0000000000000000000, 0.0000000000000000000 ) ) ;
#271 = DIRECTION ( 'NONE',  ( -0.0000000000000000000, -0.0000000000000000000, 1.000000000000000000 ) ) ;
#272 = CARTESIAN_POINT ( 'NONE',  ( 0.0000000000000000000, 0.0000000000000000000, -4.336808689942017700E-016 ) ) ;
#273 = AXIS2_PLACEMENT_3D ( 'NONE', #272, #271, #270 ) ;
#274 = FACE_OUTER_BOUND ( 'NONE', #51, .T. ) ;
#275 = CYLINDRICAL_SURFACE ( 'NONE', #273, 13.25000000000000000 ) ;
#276 = FACE_OUTER_BOUND ( 'NONE', #63, .T. ) ;
#277 = DIRECTION ( 'NONE',  ( 1.000000000000000000, 0.0000000000000000000, 0.0000000000000000000 ) ) ;
#278 = DIRECTION ( 'NONE',  ( -0.0000000000000000000, -0.0000000000000000000, 1.000000000000000000 ) ) ;
#279 = CARTESIAN_POINT ( 'NONE',  ( 0.0000000000000000000, 0.0000000000000000000, 5.813330856004549000E-018 ) ) ;
#280 = AXIS2_PLACEMENT_3D ( 'NONE', #279, #278, #277 ) ;
#281 = CIRCLE ( 'NONE', #280, 10.84338236234971100 ) ;
#282 = DIRECTION ( 'NONE',  ( -1.000000000000000000, 0.0000000000000000000, 0.0000000000000000000 ) ) ;
#283 = DIRECTION ( 'NONE',  ( 0.0000000000000000000, 0.0000000000000000000, -1.000000000000000000 ) ) ;
#284 = CARTESIAN_POINT ( 'NONE',  ( 0.0000000000000000000, 0.0000000000000000000, -34.00000000000000000 ) ) ;
#285 = CARTESIAN_POINT ( 'NONE',  ( 1.283081307217396200E-015, -10.47750000000000100, -34.00000000000004300 ) ) ;
#286 = LINE ( 'NONE', #285, #268 ) ;
#287 = DIRECTION ( 'NONE',  ( 1.000000000000000000, 0.0000000000000000000, 0.0000000000000000000 ) ) ;
#288 = DIRECTION ( 'NONE',  ( -0.0000000000000000000, -0.0000000000000000000, 1.000000000000000000 ) ) ;
#289 = CARTESIAN_POINT ( 'NONE',  ( 0.0000000000000000000, 0.0000000000000000000, -0.3658823623497114400 ) ) ;
#290 = AXIS2_PLACEMENT_3D ( 'NONE', #289, #288, #287 ) ;
#291 = CONICAL_SURFACE ( 'NONE', #290, 10.47749999999999700, 0.7853981633974520500 ) ;
#292 = CIRCLE ( 'NONE', #187, 13.25000000000000000 ) ;
#293 = DIRECTION ( 'NONE',  ( -0.0000000000000000000, -0.0000000000000000000, 1.000000000000000000 ) ) ;
#294 = VECTOR ( 'NONE', #293, 1000.000000000000000 ) ;
#295 = CARTESIAN_POINT ( 'NONE',  ( 13.25000000000000000, 0.0000000000000000000, -4.336808689942017700E-016 ) ) ;
#296 = LINE ( 'NONE', #295, #294 ) ;
#297 = CARTESIAN_POINT ( 'NONE',  ( 0.0000000000000000000, 10.47749999999999900, -33.63411763765028400 ) ) ;
#298 = DIRECTION ( 'NONE',  ( -0.0000000000000000000, 1.632748973677681200E-016, -1.000000000000000000 ) ) ;
#299 = VECTOR ( 'NONE', #298, 1000.000000000000000 ) ;
#300 = CARTESIAN_POINT ( 'NONE',  ( 0.0000000000000000000, 10.47750000000000400, -34.00000000000004300 ) ) ;
#301 = DIRECTION ( 'NONE',  ( -1.000000000000000000, 0.0000000000000000000, -0.0000000000000000000 ) ) ;
#302 = DIRECTION ( 'NONE',  ( 0.0000000000000000000, 0.0000000000000000000, -1.000000000000000000 ) ) ;
#303 = AXIS2_PLACEMENT_3D ( 'NONE', #305, #302, #301 ) ;
#304 = LINE ( 'NONE', #300, #299 ) ;
#305 = CARTESIAN_POINT ( 'NONE',  ( 0.0000000000000000000, 13.25000000000000000, -2.168404344971008900E-016 ) ) ;
#306 = PLANE ( 'NONE',  #303 ) ;
#307 = FACE_BOUND ( 'NONE', #108, .T. ) ;
#308 = FACE_OUTER_BOUND ( 'NONE', #106, .T. ) ;
#309 = DIRECTION ( 'NONE',  ( 1.000000000000000000, 0.0000000000000000000, 0.0000000000000000000 ) ) ;
#310 = DIRECTION ( 'NONE',  ( -0.0000000000000000000, -0.0000000000000000000, 1.000000000000000000 ) ) ;
#311 = CARTESIAN_POINT ( 'NONE',  ( 0.0000000000000000000, 0.0000000000000000000, -34.00000000000000000 ) ) ;
#312 = AXIS2_PLACEMENT_3D ( 'NONE', #311, #310, #309 ) ;
#313 = CIRCLE ( 'NONE', #312, 13.25000000000000000 ) ;
#314 = CARTESIAN_POINT ( 'NONE',  ( -10.84338236234971100, 1.327887493785895600E-015, 6.002343948027977100E-017 ) ) ;
#315 = DIRECTION ( 'NONE',  ( -0.7071067811865501300, 8.659274570719387500E-017, 0.7071067811865449100 ) ) ;
#316 = VECTOR ( 'NONE', #315, 1000.000000000000000 ) ;
#317 = CARTESIAN_POINT ( 'NONE',  ( -10.47749999999999700, 1.283081307217395400E-015, -0.3658823623497114400 ) ) ;
#318 = CC_DESIGN_PERSON_AND_ORGANIZATION_ASSIGNMENT ( #365, #331, ( #364 ) ) ;
#319 = DATE_AND_TIME ( #320, #321 ) ;
#320 = CALENDAR_DATE ( 2015, 10, 8 ) ;
#321 = LOCAL_TIME ( 14, 13, 23.00000000000000000, #322 ) ;
#322 = COORDINATED_UNIVERSAL_TIME_OFFSET ( 1, 0, .AHEAD. ) ;
#323 = LOCAL_TIME ( 14, 13, 23.00000000000000000, #324 ) ;
#324 = COORDINATED_UNIVERSAL_TIME_OFFSET ( 1, 0, .AHEAD. ) ;
#325 = APPLICATION_PROTOCOL_DEFINITION ( 'international standard', 'config_control_design', 1994, #326 ) ;
#326 = APPLICATION_CONTEXT ( 'configuration controlled 3d designs of mechanical parts and assemblies' ) ;
#327 = PERSON_AND_ORGANIZATION ( #170, #339 ) ;
#328 = DESIGN_CONTEXT ( 'detailed design', #326, 'design' ) ;
#329 = APPROVAL_PERSON_ORGANIZATION ( #327, #330, #362 ) ;
#330 = APPROVAL ( #363, 'UNSPECIFIED' ) ;
#331 = PERSON_AND_ORGANIZATION_ROLE ( 'creator' ) ;
#332 = CC_DESIGN_APPROVAL ( #330, ( #364 ) ) ;
#333 = PERSON_AND_ORGANIZATION_ROLE ( 'design_owner' ) ;
#334 = SHAPE_DEFINITION_REPRESENTATION ( #335, #219 ) ;
#335 = PRODUCT_DEFINITION_SHAPE ( 'NONE', 'NONE',  #364 ) ;
#336 = PRODUCT_RELATED_PRODUCT_CATEGORY ( 'detail', '', ( #171 ) ) ;
#337 = PERSON_AND_ORGANIZATION ( #170, #339 ) ;
#338 = CC_DESIGN_PERSON_AND_ORGANIZATION_ASSIGNMENT ( #337, #333, ( #171 ) ) ;
#339 = ORGANIZATION ( 'UNSPECIFIED', 'UNSPECIFIED', '' ) ;
#340 = CC_DESIGN_SECURITY_CLASSIFICATION ( #347, ( #379 ) ) ;
#341 = CC_DESIGN_APPROVAL ( #371, ( #347 ) ) ;
#342 = APPROVAL_DATE_TIME ( #343, #371 ) ;
#343 = DATE_AND_TIME ( #366, #367 ) ;
#344 = CC_DESIGN_PERSON_AND_ORGANIZATION_ASSIGNMENT ( #346, #345, ( #347 ) ) ;
#345 = PERSON_AND_ORGANIZATION_ROLE ( 'classification_officer' ) ;
#346 = PERSON_AND_ORGANIZATION ( #170, #339 ) ;
#347 = SECURITY_CLASSIFICATION ( '', '', #348 ) ;
#348 = SECURITY_CLASSIFICATION_LEVEL ( 'unclassified' ) ;
#349 = CC_DESIGN_PERSON_AND_ORGANIZATION_ASSIGNMENT ( #351, #350, ( #379 ) ) ;
#350 = PERSON_AND_ORGANIZATION_ROLE ( 'design_supplier' ) ;
#351 = PERSON_AND_ORGANIZATION ( #170, #339 ) ;
#352 = PERSON_AND_ORGANIZATION ( #170, #339 ) ;
#353 = CC_DESIGN_APPROVAL ( #376, ( #379 ) ) ;
#354 = APPROVAL_DATE_TIME ( #355, #376 ) ;
#355 = DATE_AND_TIME ( #356, #357 ) ;
#356 = CALENDAR_DATE ( 2015, 10, 8 ) ;
#357 = LOCAL_TIME ( 14, 13, 23.00000000000000000, #358 ) ;
#358 = COORDINATED_UNIVERSAL_TIME_OFFSET ( 1, 0, .AHEAD. ) ;
#359 = APPROVAL_DATE_TIME ( #360, #330 ) ;
#360 = DATE_AND_TIME ( #361, #323 ) ;
#361 = CALENDAR_DATE ( 2015, 10, 8 ) ;
#362 = APPROVAL_ROLE ( '' ) ;
#363 = APPROVAL_STATUS ( 'not_yet_approved' ) ;
#364 = PRODUCT_DEFINITION ( 'UNKNOWN', '', #379, #328 ) ;
#365 = PERSON_AND_ORGANIZATION ( #170, #339 ) ;
#366 = CALENDAR_DATE ( 2015, 10, 8 ) ;
#367 = LOCAL_TIME ( 14, 13, 23.00000000000000000, #368 ) ;
#368 = COORDINATED_UNIVERSAL_TIME_OFFSET ( 1, 0, .AHEAD. ) ;
#369 = APPROVAL_PERSON_ORGANIZATION ( #373, #371, #370 ) ;
#370 = APPROVAL_ROLE ( '' ) ;
#371 = APPROVAL ( #372, 'UNSPECIFIED' ) ;
#372 = APPROVAL_STATUS ( 'not_yet_approved' ) ;
#373 = PERSON_AND_ORGANIZATION ( #170, #339 ) ;
#374 = APPROVAL_PERSON_ORGANIZATION ( #378, #376, #375 ) ;
#375 = APPROVAL_ROLE ( '' ) ;
#376 = APPROVAL ( #377, 'UNSPECIFIED' ) ;
#377 = APPROVAL_STATUS ( 'not_yet_approved' ) ;
#378 = PERSON_AND_ORGANIZATION ( #170, #339 ) ;
#379 = PRODUCT_DEFINITION_FORMATION_WITH_SPECIFIED_SOURCE ( 'ANY', '', #171, .NOT_KNOWN. ) ;
#380 = CC_DESIGN_DATE_AND_TIME_ASSIGNMENT ( #382, #381, ( #347 ) ) ;
#381 = DATE_TIME_ROLE ( 'classification_date' ) ;
#382 = DATE_AND_TIME ( #383, #384 ) ;
#383 = CALENDAR_DATE ( 2015, 10, 8 ) ;
#384 = LOCAL_TIME ( 14, 13, 23.00000000000000000, #385 ) ;
#385 = COORDINATED_UNIVERSAL_TIME_OFFSET ( 1, 0, .AHEAD. ) ;
#386 = CC_DESIGN_PERSON_AND_ORGANIZATION_ASSIGNMENT ( #352, #387, ( #379 ) ) ;
#387 = PERSON_AND_ORGANIZATION_ROLE ( 'creator' ) ;
#388 = CC_DESIGN_DATE_AND_TIME_ASSIGNMENT ( #319, #389, ( #364 ) ) ;
#389 = DATE_TIME_ROLE ( 'creation_date' ) ;
ENDSEC;
END-ISO-10303-21;
