ISO-10303-21;
HEADER;
FILE_DESCRIPTION (( 'STEP AP203' ),
    '1' );
FILE_NAME ('19-0402-25_outokumpu.step',
    '2015-08-11T09:26:15',
    ( '' ),
    ( '' ),
    'SwSTEP 2.0',
    'SolidWorks 2008',
    '' );
FILE_SCHEMA (( 'CONFIG_CONTROL_DESIGN' ));
ENDSEC;

DATA;
#1 = DIRECTION ( 'NONE',  ( -0.0000000000000000000, -0.0000000000000000000, 1.000000000000000000 ) ) ;
#2 = DIRECTION ( 'NONE',  ( 1.000000000000000000, 0.0000000000000000000, 0.0000000000000000000 ) ) ;
#3 = APPROVAL_STATUS ( 'not_yet_approved' ) ;
#4 = CIRCLE ( 'NONE', #6, 16.30000000000000100 ) ;
#5 = APPROVAL_ROLE ( '' ) ;
#6 = AXIS2_PLACEMENT_3D ( 'NONE', #7, #9, #8 ) ;
#7 = CARTESIAN_POINT ( 'NONE',  ( 0.0000000000000000000, 0.0000000000000000000, 0.0000000000000000000 ) ) ;
#8 = DIRECTION ( 'NONE',  ( 1.000000000000000000, 0.0000000000000000000, 0.0000000000000000000 ) ) ;
#9 = DIRECTION ( 'NONE',  ( -0.0000000000000000000, -0.0000000000000000000, 1.000000000000000000 ) ) ;
#10 = PRODUCT_DEFINITION_FORMATION_WITH_SPECIFIED_SOURCE ( 'ANY', '', #327, .NOT_KNOWN. ) ;
#11 = PERSON_AND_ORGANIZATION ( #326, #325 ) ;
#12 = APPROVAL ( #3, 'UNSPECIFIED' ) ;
#13 = EDGE_LOOP ( 'NONE', ( #32, #35, #36, #41, #42, #137 ) ) ;
#14 = EDGE_LOOP ( 'NONE', ( #15, #19, #22, #25, #28 ) ) ;
#15 = ORIENTED_EDGE ( 'NONE', *, *, #16, .T. ) ;
#16 = EDGE_CURVE ( 'NONE', #17, #18, #76, .T. ) ;
#17 = VERTEX_POINT ( 'NONE', #167 ) ;
#18 = VERTEX_POINT ( 'NONE', #186 ) ;
#19 = ORIENTED_EDGE ( 'NONE', *, *, #20, .T. ) ;
#20 = EDGE_CURVE ( 'NONE', #18, #21, #166, .T. ) ;
#21 = VERTEX_POINT ( 'NONE', #204 ) ;
#22 = ORIENTED_EDGE ( 'NONE', *, *, #23, .F. ) ;
#23 = EDGE_CURVE ( 'NONE', #24, #21, #203, .T. ) ;
#24 = VERTEX_POINT ( 'NONE', #152 ) ;
#25 = ORIENTED_EDGE ( 'NONE', *, *, #26, .F. ) ;
#26 = EDGE_CURVE ( 'NONE', #27, #24, #185, .T. ) ;
#27 = VERTEX_POINT ( 'NONE', #181 ) ;
#28 = ORIENTED_EDGE ( 'NONE', *, *, #103, .T. ) ;
#29 = ORIENTED_EDGE ( 'NONE', *, *, #30, .F. ) ;
#30 = EDGE_CURVE ( 'NONE', #52, #59, #180, .T. ) ;
#31 = ADVANCED_FACE ( 'NONE', ( #161 ), #160, .F. ) ;
#32 = ORIENTED_EDGE ( 'NONE', *, *, #33, .T. ) ;
#33 = EDGE_CURVE ( 'NONE', #34, #108, #202, .T. ) ;
#34 = VERTEX_POINT ( 'NONE', #197 ) ;
#35 = ORIENTED_EDGE ( 'NONE', *, *, #107, .T. ) ;
#36 = ORIENTED_EDGE ( 'NONE', *, *, #37, .T. ) ;
#37 = EDGE_CURVE ( 'NONE', #109, #17, #196, .T. ) ;
#38 = MANIFOLD_SOLID_BREP ( 'NONE', #82 ) ;
#39 = EDGE_LOOP ( 'NONE', ( #129, #97, #93, #85 ) ) ;
#40 = EDGE_LOOP ( 'NONE', ( #66, #63 ) ) ;
#41 = ORIENTED_EDGE ( 'NONE', *, *, #103, .F. ) ;
#42 = ORIENTED_EDGE ( 'NONE', *, *, #43, .F. ) ;
#43 = EDGE_CURVE ( 'NONE', #44, #27, #191, .T. ) ;
#44 = VERTEX_POINT ( 'NONE', #192 ) ;
#45 = VERTEX_POINT ( 'NONE', #179 ) ;
#46 = ORIENTED_EDGE ( 'NONE', *, *, #47, .F. ) ;
#47 = EDGE_CURVE ( 'NONE', #109, #45, #178, .T. ) ;
#48 = ADVANCED_FACE ( 'NONE', ( #173 ), #172, .T. ) ;
#49 = EDGE_LOOP ( 'NONE', ( #50, #54, #57, #29 ) ) ;
#50 = ORIENTED_EDGE ( 'NONE', *, *, #51, .T. ) ;
#51 = EDGE_CURVE ( 'NONE', #52, #53, #151, .T. ) ;
#52 = VERTEX_POINT ( 'NONE', #146 ) ;
#53 = VERTEX_POINT ( 'NONE', #145 ) ;
#54 = ORIENTED_EDGE ( 'NONE', *, *, #55, .T. ) ;
#55 = EDGE_CURVE ( 'NONE', #53, #56, #144, .T. ) ;
#56 = VERTEX_POINT ( 'NONE', #140 ) ;
#57 = ORIENTED_EDGE ( 'NONE', *, *, #58, .F. ) ;
#58 = EDGE_CURVE ( 'NONE', #59, #56, #4, .T. ) ;
#59 = VERTEX_POINT ( 'NONE', #242 ) ;
#60 = ORIENTED_EDGE ( 'NONE', *, *, #61, .T. ) ;
#61 = EDGE_CURVE ( 'NONE', #56, #59, #241, .T. ) ;
#62 = EDGE_LOOP ( 'NONE', ( #70, #72 ) ) ;
#63 = ORIENTED_EDGE ( 'NONE', *, *, #98, .F. ) ;
#64 = ADVANCED_FACE ( 'NONE', ( #240, #264 ), #263, .F. ) ;
#65 = EDGE_LOOP ( 'NONE', ( #101, #60 ) ) ;
#66 = ORIENTED_EDGE ( 'NONE', *, *, #51, .F. ) ;
#67 = EDGE_LOOP ( 'NONE', ( #68, #69 ) ) ;
#68 = ORIENTED_EDGE ( 'NONE', *, *, #23, .T. ) ;
#69 = ORIENTED_EDGE ( 'NONE', *, *, #99, .T. ) ;
#70 = ORIENTED_EDGE ( 'NONE', *, *, #71, .F. ) ;
#71 = EDGE_CURVE ( 'NONE', #115, #112, #257, .T. ) ;
#72 = ORIENTED_EDGE ( 'NONE', *, *, #114, .F. ) ;
#73 = ADVANCED_FACE ( 'NONE', ( #253 ), #252, .T. ) ;
#74 = CARTESIAN_POINT ( 'NONE',  ( 0.0000000000000000000, 0.0000000000000000000, -49.53832996693434200 ) ) ;
#75 = AXIS2_PLACEMENT_3D ( 'NONE', #74, #1, #2 ) ;
#76 = CIRCLE ( 'NONE', #75, 13.22049999999999900 ) ;
#77 = APPROVAL_PERSON_ORGANIZATION ( #11, #12, #5 ) ;
#78 = CC_DESIGN_PERSON_AND_ORGANIZATION_ASSIGNMENT ( #130, #79, ( #10 ) ) ;
#79 = PERSON_AND_ORGANIZATION_ROLE ( 'creator' ) ;
#80 = ORIENTED_EDGE ( 'NONE', *, *, #26, .T. ) ;
#81 = ORIENTED_EDGE ( 'NONE', *, *, #99, .F. ) ;
#82 = CLOSED_SHELL ( 'NONE', ( #102, #104, #48, #31, #126, #64, #100, #73, #88, #89 ) ) ;
#83 = ORIENTED_EDGE ( 'NONE', *, *, #111, .F. ) ;
#84 = EDGE_LOOP ( 'NONE', ( #83, #86, #87, #94, #95 ) ) ;
#85 = ORIENTED_EDGE ( 'NONE', *, *, #61, .F. ) ;
#86 = ORIENTED_EDGE ( 'NONE', *, *, #33, .F. ) ;
#87 = ORIENTED_EDGE ( 'NONE', *, *, #123, .F. ) ;
#88 = ADVANCED_FACE ( 'NONE', ( #251 ), #246, .F. ) ;
#89 = ADVANCED_FACE ( 'NONE', ( #362 ), #357, .F. ) ;
#90 = ORIENTED_EDGE ( 'NONE', *, *, #20, .F. ) ;
#91 = ORIENTED_EDGE ( 'NONE', *, *, #119, .T. ) ;
#92 = ORIENTED_EDGE ( 'NONE', *, *, #43, .T. ) ;
#93 = ORIENTED_EDGE ( 'NONE', *, *, #30, .T. ) ;
#94 = ORIENTED_EDGE ( 'NONE', *, *, #117, .T. ) ;
#95 = ORIENTED_EDGE ( 'NONE', *, *, #71, .T. ) ;
#96 = EDGE_LOOP ( 'NONE', ( #90, #91, #92, #80, #81 ) ) ;
#97 = ORIENTED_EDGE ( 'NONE', *, *, #98, .T. ) ;
#98 = EDGE_CURVE ( 'NONE', #53, #52, #352, .T. ) ;
#99 = EDGE_CURVE ( 'NONE', #21, #24, #347, .T. ) ;
#100 = ADVANCED_FACE ( 'NONE', ( #342, #341 ), #340, .F. ) ;
#101 = ORIENTED_EDGE ( 'NONE', *, *, #58, .T. ) ;
#102 = ADVANCED_FACE ( 'NONE', ( #334 ), #333, .F. ) ;
#103 = EDGE_CURVE ( 'NONE', #27, #17, #332, .T. ) ;
#104 = ADVANCED_FACE ( 'NONE', ( #290 ), #289, .F. ) ;
#105 = EDGE_LOOP ( 'NONE', ( #106, #110, #113, #116, #46 ) ) ;
#106 = ORIENTED_EDGE ( 'NONE', *, *, #107, .F. ) ;
#107 = EDGE_CURVE ( 'NONE', #108, #109, #288, .T. ) ;
#108 = VERTEX_POINT ( 'NONE', #279 ) ;
#109 = VERTEX_POINT ( 'NONE', #278 ) ;
#110 = ORIENTED_EDGE ( 'NONE', *, *, #111, .T. ) ;
#111 = EDGE_CURVE ( 'NONE', #108, #112, #277, .T. ) ;
#112 = VERTEX_POINT ( 'NONE', #273 ) ;
#113 = ORIENTED_EDGE ( 'NONE', *, *, #114, .T. ) ;
#114 = EDGE_CURVE ( 'NONE', #112, #115, #272, .T. ) ;
#115 = VERTEX_POINT ( 'NONE', #267 ) ;
#116 = ORIENTED_EDGE ( 'NONE', *, *, #117, .F. ) ;
#117 = EDGE_CURVE ( 'NONE', #45, #115, #266, .T. ) ;
#118 = ORIENTED_EDGE ( 'NONE', *, *, #119, .F. ) ;
#119 = EDGE_CURVE ( 'NONE', #18, #44, #319, .T. ) ;
#120 = ORIENTED_EDGE ( 'NONE', *, *, #16, .F. ) ;
#121 = ORIENTED_EDGE ( 'NONE', *, *, #123, .T. ) ;
#122 = ORIENTED_EDGE ( 'NONE', *, *, #47, .T. ) ;
#123 = EDGE_CURVE ( 'NONE', #45, #34, #314, .T. ) ;
#124 = ORIENTED_EDGE ( 'NONE', *, *, #128, .T. ) ;
#125 = ORIENTED_EDGE ( 'NONE', *, *, #37, .F. ) ;
#126 = ADVANCED_FACE ( 'NONE', ( #309 ), #308, .F. ) ;
#127 = EDGE_LOOP ( 'NONE', ( #125, #122, #121, #124, #118, #120 ) ) ;
#128 = EDGE_CURVE ( 'NONE', #34, #44, #303, .T. ) ;
#129 = ORIENTED_EDGE ( 'NONE', *, *, #55, .F. ) ;
#130 = PERSON_AND_ORGANIZATION ( #326, #325 ) ;
#131 = CC_DESIGN_APPROVAL ( #12, ( #10 ) ) ;
#132 = APPROVAL_DATE_TIME ( #133, #12 ) ;
#133 = DATE_AND_TIME ( #134, #135 ) ;
#134 = CALENDAR_DATE ( 2015, 11, 8 ) ;
#135 = LOCAL_TIME ( 11, 26, 15.00000000000000000, #136 ) ;
#136 = COORDINATED_UNIVERSAL_TIME_OFFSET ( 1, 0, .AHEAD. ) ;
#137 = ORIENTED_EDGE ( 'NONE', *, *, #128, .F. ) ;
#138 = PERSON_AND_ORGANIZATION_ROLE ( 'design_supplier' ) ;
#139 = PERSON_AND_ORGANIZATION ( #326, #325 ) ;
#140 = CARTESIAN_POINT ( 'NONE',  ( -16.30000000000000100, 1.996108356730475200E-015, 0.0000000000000000000 ) ) ;
#141 = DIRECTION ( 'NONE',  ( -0.0000000000000000000, -0.0000000000000000000, 1.000000000000000000 ) ) ;
#142 = VECTOR ( 'NONE', #141, 1000.000000000000000 ) ;
#143 = CARTESIAN_POINT ( 'NONE',  ( -16.30000000000000100, 1.996108356730475200E-015, -4.336808689942017700E-016 ) ) ;
#144 = LINE ( 'NONE', #143, #142 ) ;
#145 = CARTESIAN_POINT ( 'NONE',  ( -16.30000000000000100, 1.996108356730475200E-015, -50.00000000000000000 ) ) ;
#146 = CARTESIAN_POINT ( 'NONE',  ( 16.30000000000000100, 0.0000000000000000000, -50.00000000000000000 ) ) ;
#147 = DIRECTION ( 'NONE',  ( 1.000000000000000000, 0.0000000000000000000, 0.0000000000000000000 ) ) ;
#148 = DIRECTION ( 'NONE',  ( -0.0000000000000000000, -0.0000000000000000000, 1.000000000000000000 ) ) ;
#149 = CARTESIAN_POINT ( 'NONE',  ( 0.0000000000000000000, 0.0000000000000000000, -50.00000000000000000 ) ) ;
#150 = AXIS2_PLACEMENT_3D ( 'NONE', #149, #148, #147 ) ;
#151 = CIRCLE ( 'NONE', #150, 16.30000000000000100 ) ;
#152 = CARTESIAN_POINT ( 'NONE',  ( -13.68217003306566300, 0.0000000000000000000, -50.00000000000000000 ) ) ;
#153 = DIRECTION ( 'NONE',  ( 1.000000000000000000, 0.0000000000000000000, 0.0000000000000000000 ) ) ;
#154 = DIRECTION ( 'NONE',  ( -0.0000000000000000000, -0.0000000000000000000, 1.000000000000000000 ) ) ;
#155 = CARTESIAN_POINT ( 'NONE',  ( 0.0000000000000000000, 0.0000000000000000000, -50.00000000000000000 ) ) ;
#156 = DIRECTION ( 'NONE',  ( 0.0000000000000000000, 1.000000000000000000, 0.0000000000000000000 ) ) ;
#157 = DIRECTION ( 'NONE',  ( -0.0000000000000000000, 1.085776366117879100E-016, -1.000000000000000000 ) ) ;
#158 = CARTESIAN_POINT ( 'NONE',  ( 0.0000000000000000000, 1.959434878635785200E-015, -50.00000000000004300 ) ) ;
#159 = AXIS2_PLACEMENT_3D ( 'NONE', #158, #157, #156 ) ;
#160 = CYLINDRICAL_SURFACE ( 'NONE', #159, 13.22050000000000300 ) ;
#161 = FACE_OUTER_BOUND ( 'NONE', #13, .T. ) ;
#162 = DIRECTION ( 'NONE',  ( -0.0000000000000000000, -0.0000000000000000000, 1.000000000000000000 ) ) ;
#163 = VECTOR ( 'NONE', #162, 1000.000000000000000 ) ;
#164 = CARTESIAN_POINT ( 'NONE',  ( 16.30000000000000100, 0.0000000000000000000, -4.336808689942017700E-016 ) ) ;
#165 = CARTESIAN_POINT ( 'NONE',  ( 13.68217003306566300, 1.675527235657033700E-015, -50.00000000000000000 ) ) ;
#166 = LINE ( 'NONE', #165, #207 ) ;
#167 = CARTESIAN_POINT ( 'NONE',  ( 1.618990830070874200E-015, -13.22049999999999900, -49.53832996693434200 ) ) ;
#168 = DIRECTION ( 'NONE',  ( 1.000000000000000000, 0.0000000000000000000, 0.0000000000000000000 ) ) ;
#169 = DIRECTION ( 'NONE',  ( -0.0000000000000000000, -0.0000000000000000000, 1.000000000000000000 ) ) ;
#170 = CARTESIAN_POINT ( 'NONE',  ( 0.0000000000000000000, 0.0000000000000000000, -4.336808689942017700E-016 ) ) ;
#171 = AXIS2_PLACEMENT_3D ( 'NONE', #170, #169, #168 ) ;
#172 = CYLINDRICAL_SURFACE ( 'NONE', #171, 16.30000000000000100 ) ;
#173 = FACE_OUTER_BOUND ( 'NONE', #49, .T. ) ;
#174 = DIRECTION ( 'NONE',  ( 1.000000000000000000, 0.0000000000000000000, 0.0000000000000000000 ) ) ;
#175 = DIRECTION ( 'NONE',  ( -0.0000000000000000000, -0.0000000000000000000, 1.000000000000000000 ) ) ;
#176 = CARTESIAN_POINT ( 'NONE',  ( 0.0000000000000000000, 0.0000000000000000000, -0.4616700330655557600 ) ) ;
#177 = AXIS2_PLACEMENT_3D ( 'NONE', #176, #175, #174 ) ;
#178 = CIRCLE ( 'NONE', #177, 13.22049999999999800 ) ;
#179 = CARTESIAN_POINT ( 'NONE',  ( 13.22049999999999800, 0.0000000000000000000, -0.4616700330655557600 ) ) ;
#180 = LINE ( 'NONE', #164, #163 ) ;
#181 = CARTESIAN_POINT ( 'NONE',  ( -13.22049999999999900, 0.0000000000000000000, -49.53832996693434200 ) ) ;
#182 = DIRECTION ( 'NONE',  ( -0.7071067811865514600, 0.0000000000000000000, -0.7071067811865435800 ) ) ;
#183 = VECTOR ( 'NONE', #182, 1000.000000000000000 ) ;
#184 = CARTESIAN_POINT ( 'NONE',  ( -13.68217003306566300, 0.0000000000000000000, -50.00000000000000000 ) ) ;
#185 = LINE ( 'NONE', #184, #183 ) ;
#186 = CARTESIAN_POINT ( 'NONE',  ( 13.22049999999999900, 1.647259032863953800E-015, -49.53832996693434200 ) ) ;
#187 = DIRECTION ( 'NONE',  ( 1.000000000000000000, 0.0000000000000000000, 0.0000000000000000000 ) ) ;
#188 = DIRECTION ( 'NONE',  ( -0.0000000000000000000, -0.0000000000000000000, 1.000000000000000000 ) ) ;
#189 = CARTESIAN_POINT ( 'NONE',  ( 0.0000000000000000000, 0.0000000000000000000, -49.53832996693434200 ) ) ;
#190 = AXIS2_PLACEMENT_3D ( 'NONE', #189, #188, #187 ) ;
#191 = CIRCLE ( 'NONE', #190, 13.22049999999999900 ) ;
#192 = CARTESIAN_POINT ( 'NONE',  ( 0.0000000000000000000, 13.22049999999999900, -49.53832996693434200 ) ) ;
#193 = DIRECTION ( 'NONE',  ( -0.0000000000000000000, 1.085776366117879100E-016, -1.000000000000000000 ) ) ;
#194 = VECTOR ( 'NONE', #193, 1000.000000000000000 ) ;
#195 = CARTESIAN_POINT ( 'NONE',  ( 1.618990830070874200E-015, -13.22050000000000100, -50.00000000000004300 ) ) ;
#196 = LINE ( 'NONE', #195, #194 ) ;
#197 = CARTESIAN_POINT ( 'NONE',  ( 0.0000000000000000000, 13.22049999999999800, -0.4616700330655557600 ) ) ;
#198 = DIRECTION ( 'NONE',  ( 1.000000000000000000, 0.0000000000000000000, 0.0000000000000000000 ) ) ;
#199 = DIRECTION ( 'NONE',  ( -0.0000000000000000000, -0.0000000000000000000, 1.000000000000000000 ) ) ;
#200 = CARTESIAN_POINT ( 'NONE',  ( 0.0000000000000000000, 0.0000000000000000000, -0.4616700330655557600 ) ) ;
#201 = AXIS2_PLACEMENT_3D ( 'NONE', #200, #199, #198 ) ;
#202 = CIRCLE ( 'NONE', #201, 13.22049999999999800 ) ;
#203 = CIRCLE ( 'NONE', #206, 13.68217003306566300 ) ;
#204 = CARTESIAN_POINT ( 'NONE',  ( 13.68217003306566300, 1.675527235657033700E-015, -50.00000000000000000 ) ) ;
#205 = DIRECTION ( 'NONE',  ( 0.7071067811865514600, 8.659274570719403500E-017, -0.7071067811865435800 ) ) ;
#206 = AXIS2_PLACEMENT_3D ( 'NONE', #155, #154, #153 ) ;
#207 = VECTOR ( 'NONE', #205, 1000.000000000000000 ) ;
#208 = DIRECTION ( 'NONE',  ( -0.0000000000000000000, -0.0000000000000000000, 1.000000000000000000 ) ) ;
#209 = CARTESIAN_POINT ( 'NONE',  ( 0.0000000000000000000, 0.0000000000000000000, 0.0000000000000000000 ) ) ;
#210 = AXIS2_PLACEMENT_3D ( 'NONE', #209, #208, #265 ) ;
#211 = CC_DESIGN_APPROVAL ( #219, ( #222 ) ) ;
#212 = APPROVAL_DATE_TIME ( #213, #219 ) ;
#213 = DATE_AND_TIME ( #214, #215 ) ;
#214 = CALENDAR_DATE ( 2015, 11, 8 ) ;
#215 = LOCAL_TIME ( 11, 26, 15.00000000000000000, #216 ) ;
#216 = COORDINATED_UNIVERSAL_TIME_OFFSET ( 1, 0, .AHEAD. ) ;
#217 = APPROVAL_PERSON_ORGANIZATION ( #221, #219, #218 ) ;
#218 = APPROVAL_ROLE ( '' ) ;
#219 = APPROVAL ( #220, 'UNSPECIFIED' ) ;
#220 = APPROVAL_STATUS ( 'not_yet_approved' ) ;
#221 = PERSON_AND_ORGANIZATION ( #326, #325 ) ;
#222 = PRODUCT_DEFINITION ( 'UNKNOWN', '', #10, #223 ) ;
#223 = DESIGN_CONTEXT ( 'detailed design', #225, 'design' ) ;
#224 = APPLICATION_PROTOCOL_DEFINITION ( 'international standard', 'config_control_design', 1994, #225 ) ;
#225 = APPLICATION_CONTEXT ( 'configuration controlled 3d designs of mechanical parts and assemblies' ) ;
#226 = CC_DESIGN_PERSON_AND_ORGANIZATION_ASSIGNMENT ( #324, #323, ( #327 ) ) ;
#227 = CC_DESIGN_DATE_AND_TIME_ASSIGNMENT ( #229, #228, ( #222 ) ) ;
#228 = DATE_TIME_ROLE ( 'creation_date' ) ;
#229 = DATE_AND_TIME ( #230, #231 ) ;
#230 = CALENDAR_DATE ( 2015, 11, 8 ) ;
#231 = LOCAL_TIME ( 11, 26, 15.00000000000000000, #232 ) ;
#232 = COORDINATED_UNIVERSAL_TIME_OFFSET ( 1, 0, .AHEAD. ) ;
#233 = CC_DESIGN_PERSON_AND_ORGANIZATION_ASSIGNMENT ( #235, #234, ( #222 ) ) ;
#234 = PERSON_AND_ORGANIZATION_ROLE ( 'creator' ) ;
#235 = PERSON_AND_ORGANIZATION ( #326, #325 ) ;
#236 = APPLICATION_CONTEXT ( 'configuration controlled 3d designs of mechanical parts and assemblies' ) ;
#237 = DIRECTION ( 'NONE',  ( 1.000000000000000000, 0.0000000000000000000, 0.0000000000000000000 ) ) ;
#238 = DIRECTION ( 'NONE',  ( 0.0000000000000000000, 0.0000000000000000000, 1.000000000000000000 ) ) ;
#239 = CARTESIAN_POINT ( 'NONE',  ( 0.0000000000000000000, 0.0000000000000000000, 0.0000000000000000000 ) ) ;
#240 = FACE_OUTER_BOUND ( 'NONE', #40, .T. ) ;
#241 = CIRCLE ( 'NONE', #210, 16.30000000000000100 ) ;
#242 = CARTESIAN_POINT ( 'NONE',  ( 16.30000000000000100, 0.0000000000000000000, 0.0000000000000000000 ) ) ;
#243 = ADVANCED_BREP_SHAPE_REPRESENTATION ( '19-0402-25_outokumpu', ( #38, #299 ), #244 ) ;
#244 =( GEOMETRIC_REPRESENTATION_CONTEXT ( 3 ) GLOBAL_UNCERTAINTY_ASSIGNED_CONTEXT ( ( #245 ) ) GLOBAL_UNIT_ASSIGNED_CONTEXT ( ( #298, #297, #296 ) ) REPRESENTATION_CONTEXT ( 'NONE', 'WORKASPACE' ) );
#245 = UNCERTAINTY_MEASURE_WITH_UNIT (LENGTH_MEASURE( 1.000000000000000100E-005 ), #298, 'distance_accuracy_value', 'NONE');
#246 = CONICAL_SURFACE ( 'NONE', #361, 13.22049999999999800, 0.7853981633974528300 ) ;
#247 = DIRECTION ( 'NONE',  ( 1.000000000000000000, 0.0000000000000000000, 0.0000000000000000000 ) ) ;
#248 = DIRECTION ( 'NONE',  ( -0.0000000000000000000, -0.0000000000000000000, 1.000000000000000000 ) ) ;
#249 = CARTESIAN_POINT ( 'NONE',  ( 0.0000000000000000000, 0.0000000000000000000, -4.336808689942017700E-016 ) ) ;
#250 = AXIS2_PLACEMENT_3D ( 'NONE', #249, #248, #247 ) ;
#251 = FACE_OUTER_BOUND ( 'NONE', #84, .T. ) ;
#252 = CYLINDRICAL_SURFACE ( 'NONE', #250, 16.30000000000000100 ) ;
#253 = FACE_OUTER_BOUND ( 'NONE', #39, .T. ) ;
#254 = DIRECTION ( 'NONE',  ( 1.000000000000000000, 0.0000000000000000000, 0.0000000000000000000 ) ) ;
#255 = DIRECTION ( 'NONE',  ( -0.0000000000000000000, -0.0000000000000000000, 1.000000000000000000 ) ) ;
#256 = AXIS2_PLACEMENT_3D ( 'NONE', #261, #255, #254 ) ;
#257 = CIRCLE ( 'NONE', #256, 13.68217003306555800 ) ;
#258 = DIRECTION ( 'NONE',  ( 1.000000000000000000, 0.0000000000000000000, 0.0000000000000000000 ) ) ;
#259 = DIRECTION ( 'NONE',  ( 0.0000000000000000000, -0.0000000000000000000, 1.000000000000000000 ) ) ;
#260 = AXIS2_PLACEMENT_3D ( 'NONE', #262, #259, #258 ) ;
#261 = CARTESIAN_POINT ( 'NONE',  ( 0.0000000000000000000, 0.0000000000000000000, -1.087506354010172000E-016 ) ) ;
#262 = CARTESIAN_POINT ( 'NONE',  ( 0.0000000000000000000, 16.30000000000000100, -50.00000000000000000 ) ) ;
#263 = PLANE ( 'NONE',  #260 ) ;
#264 = FACE_BOUND ( 'NONE', #67, .T. ) ;
#265 = DIRECTION ( 'NONE',  ( 1.000000000000000000, 0.0000000000000000000, 0.0000000000000000000 ) ) ;
#266 = LINE ( 'NONE', #322, #321 ) ;
#267 = CARTESIAN_POINT ( 'NONE',  ( 13.68217003306555800, 0.0000000000000000000, -1.087506354010172000E-016 ) ) ;
#268 = DIRECTION ( 'NONE',  ( 1.000000000000000000, 0.0000000000000000000, 0.0000000000000000000 ) ) ;
#269 = DIRECTION ( 'NONE',  ( -0.0000000000000000000, -0.0000000000000000000, 1.000000000000000000 ) ) ;
#270 = CARTESIAN_POINT ( 'NONE',  ( 0.0000000000000000000, 0.0000000000000000000, -1.087506354010172000E-016 ) ) ;
#271 = AXIS2_PLACEMENT_3D ( 'NONE', #270, #269, #268 ) ;
#272 = CIRCLE ( 'NONE', #271, 13.68217003306555800 ) ;
#273 = CARTESIAN_POINT ( 'NONE',  ( -13.68217003306555800, 1.675527235657020900E-015, -1.087506354010172000E-016 ) ) ;
#274 = DIRECTION ( 'NONE',  ( -0.7071067811865506800, 8.659274570719393600E-017, 0.7071067811865443500 ) ) ;
#275 = VECTOR ( 'NONE', #274, 1000.000000000000000 ) ;
#276 = CARTESIAN_POINT ( 'NONE',  ( -13.22049999999999800, 1.618990830070873600E-015, -0.4616700330655557600 ) ) ;
#277 = LINE ( 'NONE', #276, #275 ) ;
#278 = CARTESIAN_POINT ( 'NONE',  ( 1.618990830070874000E-015, -13.22049999999999800, -0.4616700330655557600 ) ) ;
#279 = CARTESIAN_POINT ( 'NONE',  ( -13.22049999999999800, 1.647259032863947300E-015, -0.4616700330655557600 ) ) ;
#280 = DIRECTION ( 'NONE',  ( 1.000000000000000000, 0.0000000000000000000, 0.0000000000000000000 ) ) ;
#281 = DIRECTION ( 'NONE',  ( -0.0000000000000000000, -0.0000000000000000000, 1.000000000000000000 ) ) ;
#282 = CARTESIAN_POINT ( 'NONE',  ( 0.0000000000000000000, 0.0000000000000000000, -0.4616700330655557600 ) ) ;
#283 = AXIS2_PLACEMENT_3D ( 'NONE', #282, #281, #280 ) ;
#284 = DIRECTION ( 'NONE',  ( 1.000000000000000000, 0.0000000000000000000, 0.0000000000000000000 ) ) ;
#285 = DIRECTION ( 'NONE',  ( -0.0000000000000000000, -0.0000000000000000000, 1.000000000000000000 ) ) ;
#286 = CARTESIAN_POINT ( 'NONE',  ( 0.0000000000000000000, 0.0000000000000000000, -0.4616700330655557600 ) ) ;
#287 = AXIS2_PLACEMENT_3D ( 'NONE', #286, #285, #284 ) ;
#288 = CIRCLE ( 'NONE', #283, 13.22049999999999800 ) ;
#289 = CONICAL_SURFACE ( 'NONE', #287, 13.22049999999999800, 0.7853981633974528300 ) ;
#290 = FACE_OUTER_BOUND ( 'NONE', #105, .T. ) ;
#291 = DIRECTION ( 'NONE',  ( 1.000000000000000000, 0.0000000000000000000, 0.0000000000000000000 ) ) ;
#292 = DIRECTION ( 'NONE',  ( -0.0000000000000000000, -0.0000000000000000000, 1.000000000000000000 ) ) ;
#293 = CARTESIAN_POINT ( 'NONE',  ( 0.0000000000000000000, 0.0000000000000000000, -49.53832996693434200 ) ) ;
#294 = AXIS2_PLACEMENT_3D ( 'NONE', #293, #292, #291 ) ;
#295 = DIRECTION ( 'NONE',  ( -1.000000000000000000, 0.0000000000000000000, 0.0000000000000000000 ) ) ;
#296 =( NAMED_UNIT ( * ) SI_UNIT ( $, .STERADIAN. ) SOLID_ANGLE_UNIT ( ) );
#297 =( NAMED_UNIT ( * ) PLANE_ANGLE_UNIT ( ) SI_UNIT ( $, .RADIAN. ) );
#298 =( LENGTH_UNIT ( ) NAMED_UNIT ( * ) SI_UNIT ( .MILLI., .METRE. ) );
#299 = AXIS2_PLACEMENT_3D ( 'NONE', #239, #238, #237 ) ;
#300 = DIRECTION ( 'NONE',  ( -0.0000000000000000000, 1.085776366117879100E-016, -1.000000000000000000 ) ) ;
#301 = VECTOR ( 'NONE', #300, 1000.000000000000000 ) ;
#302 = CARTESIAN_POINT ( 'NONE',  ( 0.0000000000000000000, 13.22050000000000500, -50.00000000000004300 ) ) ;
#303 = LINE ( 'NONE', #302, #301 ) ;
#304 = DIRECTION ( 'NONE',  ( 0.0000000000000000000, 1.000000000000000000, 0.0000000000000000000 ) ) ;
#305 = DIRECTION ( 'NONE',  ( -0.0000000000000000000, 1.085776366117879100E-016, -1.000000000000000000 ) ) ;
#306 = CARTESIAN_POINT ( 'NONE',  ( 0.0000000000000000000, 1.959434878635785200E-015, -50.00000000000004300 ) ) ;
#307 = AXIS2_PLACEMENT_3D ( 'NONE', #306, #305, #304 ) ;
#308 = CYLINDRICAL_SURFACE ( 'NONE', #307, 13.22050000000000300 ) ;
#309 = FACE_OUTER_BOUND ( 'NONE', #127, .T. ) ;
#310 = DIRECTION ( 'NONE',  ( 1.000000000000000000, 0.0000000000000000000, 0.0000000000000000000 ) ) ;
#311 = DIRECTION ( 'NONE',  ( -0.0000000000000000000, -0.0000000000000000000, 1.000000000000000000 ) ) ;
#312 = CARTESIAN_POINT ( 'NONE',  ( 0.0000000000000000000, 0.0000000000000000000, -0.4616700330655557600 ) ) ;
#313 = AXIS2_PLACEMENT_3D ( 'NONE', #312, #311, #310 ) ;
#314 = CIRCLE ( 'NONE', #313, 13.22049999999999800 ) ;
#315 = DIRECTION ( 'NONE',  ( 1.000000000000000000, 0.0000000000000000000, 0.0000000000000000000 ) ) ;
#316 = DIRECTION ( 'NONE',  ( -0.0000000000000000000, -0.0000000000000000000, 1.000000000000000000 ) ) ;
#317 = CARTESIAN_POINT ( 'NONE',  ( 0.0000000000000000000, 0.0000000000000000000, -49.53832996693434200 ) ) ;
#318 = AXIS2_PLACEMENT_3D ( 'NONE', #317, #316, #315 ) ;
#319 = CIRCLE ( 'NONE', #318, 13.22049999999999900 ) ;
#320 = DIRECTION ( 'NONE',  ( 0.7071067811865506800, 0.0000000000000000000, 0.7071067811865443500 ) ) ;
#321 = VECTOR ( 'NONE', #320, 1000.000000000000000 ) ;
#322 = CARTESIAN_POINT ( 'NONE',  ( 13.22049999999999800, 0.0000000000000000000, -0.4616700330655557600 ) ) ;
#323 = PERSON_AND_ORGANIZATION_ROLE ( 'design_owner' ) ;
#324 = PERSON_AND_ORGANIZATION ( #326, #325 ) ;
#325 = ORGANIZATION ( 'UNSPECIFIED', 'UNSPECIFIED', '' ) ;
#326 = PERSON ( 'UNSPECIFIED', 'UNSPECIFIED', 'UNSPECIFIED', ('UNSPECIFIED'), ('UNSPECIFIED'), ('UNSPECIFIED') ) ;
#327 = PRODUCT ( '19-0402-25_outokumpu', '19-0402-25_outokumpu', '', ( #328 ) ) ;
#328 = MECHANICAL_CONTEXT ( 'NONE', #236, 'mechanical' ) ;
#329 = APPLICATION_PROTOCOL_DEFINITION ( 'international standard', 'config_control_design', 1994, #236 ) ;
#330 = DIRECTION ( 'NONE',  ( 0.0000000000000000000, 0.0000000000000000000, -1.000000000000000000 ) ) ;
#331 = AXIS2_PLACEMENT_3D ( 'NONE', #338, #330, #295 ) ;
#332 = CIRCLE ( 'NONE', #294, 13.22049999999999900 ) ;
#333 = CONICAL_SURFACE ( 'NONE', #331, 13.68217003306566300, 0.7853981633974538300 ) ;
#334 = FACE_OUTER_BOUND ( 'NONE', #14, .T. ) ;
#335 = DIRECTION ( 'NONE',  ( -1.000000000000000000, 0.0000000000000000000, -0.0000000000000000000 ) ) ;
#336 = DIRECTION ( 'NONE',  ( 0.0000000000000000000, 0.0000000000000000000, -1.000000000000000000 ) ) ;
#337 = AXIS2_PLACEMENT_3D ( 'NONE', #339, #336, #335 ) ;
#338 = CARTESIAN_POINT ( 'NONE',  ( 0.0000000000000000000, 0.0000000000000000000, -50.00000000000000000 ) ) ;
#339 = CARTESIAN_POINT ( 'NONE',  ( 0.0000000000000000000, 16.30000000000000100, -2.168404344971008900E-016 ) ) ;
#340 = PLANE ( 'NONE',  #337 ) ;
#341 = FACE_BOUND ( 'NONE', #62, .T. ) ;
#342 = FACE_OUTER_BOUND ( 'NONE', #65, .T. ) ;
#343 = DIRECTION ( 'NONE',  ( 1.000000000000000000, 0.0000000000000000000, 0.0000000000000000000 ) ) ;
#344 = DIRECTION ( 'NONE',  ( -0.0000000000000000000, -0.0000000000000000000, 1.000000000000000000 ) ) ;
#345 = CARTESIAN_POINT ( 'NONE',  ( 0.0000000000000000000, 0.0000000000000000000, -50.00000000000000000 ) ) ;
#346 = AXIS2_PLACEMENT_3D ( 'NONE', #345, #344, #343 ) ;
#347 = CIRCLE ( 'NONE', #346, 13.68217003306566300 ) ;
#348 = DIRECTION ( 'NONE',  ( 1.000000000000000000, 0.0000000000000000000, 0.0000000000000000000 ) ) ;
#349 = DIRECTION ( 'NONE',  ( -0.0000000000000000000, -0.0000000000000000000, 1.000000000000000000 ) ) ;
#350 = CARTESIAN_POINT ( 'NONE',  ( 0.0000000000000000000, 0.0000000000000000000, -50.00000000000000000 ) ) ;
#351 = AXIS2_PLACEMENT_3D ( 'NONE', #350, #349, #348 ) ;
#352 = CIRCLE ( 'NONE', #351, 16.30000000000000100 ) ;
#353 = DIRECTION ( 'NONE',  ( -1.000000000000000000, 0.0000000000000000000, 0.0000000000000000000 ) ) ;
#354 = DIRECTION ( 'NONE',  ( 0.0000000000000000000, 0.0000000000000000000, -1.000000000000000000 ) ) ;
#355 = CARTESIAN_POINT ( 'NONE',  ( 0.0000000000000000000, 0.0000000000000000000, -50.00000000000000000 ) ) ;
#356 = AXIS2_PLACEMENT_3D ( 'NONE', #355, #354, #353 ) ;
#357 = CONICAL_SURFACE ( 'NONE', #356, 13.68217003306566300, 0.7853981633974538300 ) ;
#358 = DIRECTION ( 'NONE',  ( 1.000000000000000000, 0.0000000000000000000, 0.0000000000000000000 ) ) ;
#359 = DIRECTION ( 'NONE',  ( -0.0000000000000000000, -0.0000000000000000000, 1.000000000000000000 ) ) ;
#360 = CARTESIAN_POINT ( 'NONE',  ( 0.0000000000000000000, 0.0000000000000000000, -0.4616700330655557600 ) ) ;
#361 = AXIS2_PLACEMENT_3D ( 'NONE', #360, #359, #358 ) ;
#362 = FACE_OUTER_BOUND ( 'NONE', #96, .T. ) ;
#363 = CC_DESIGN_PERSON_AND_ORGANIZATION_ASSIGNMENT ( #139, #138, ( #10 ) ) ;
#364 = SHAPE_DEFINITION_REPRESENTATION ( #365, #243 ) ;
#365 = PRODUCT_DEFINITION_SHAPE ( 'NONE', 'NONE',  #222 ) ;
#366 = PRODUCT_RELATED_PRODUCT_CATEGORY ( 'detail', '', ( #327 ) ) ;
#367 = CC_DESIGN_SECURITY_CLASSIFICATION ( #388, ( #10 ) ) ;
#368 = CC_DESIGN_APPROVAL ( #376, ( #388 ) ) ;
#369 = APPROVAL_DATE_TIME ( #370, #376 ) ;
#370 = DATE_AND_TIME ( #371, #372 ) ;
#371 = CALENDAR_DATE ( 2015, 11, 8 ) ;
#372 = LOCAL_TIME ( 11, 26, 15.00000000000000000, #373 ) ;
#373 = COORDINATED_UNIVERSAL_TIME_OFFSET ( 1, 0, .AHEAD. ) ;
#374 = APPROVAL_PERSON_ORGANIZATION ( #378, #376, #375 ) ;
#375 = APPROVAL_ROLE ( '' ) ;
#376 = APPROVAL ( #377, 'UNSPECIFIED' ) ;
#377 = APPROVAL_STATUS ( 'not_yet_approved' ) ;
#378 = PERSON_AND_ORGANIZATION ( #326, #325 ) ;
#379 = CC_DESIGN_DATE_AND_TIME_ASSIGNMENT ( #381, #380, ( #388 ) ) ;
#380 = DATE_TIME_ROLE ( 'classification_date' ) ;
#381 = DATE_AND_TIME ( #382, #383 ) ;
#382 = CALENDAR_DATE ( 2015, 11, 8 ) ;
#383 = LOCAL_TIME ( 11, 26, 15.00000000000000000, #384 ) ;
#384 = COORDINATED_UNIVERSAL_TIME_OFFSET ( 1, 0, .AHEAD. ) ;
#385 = CC_DESIGN_PERSON_AND_ORGANIZATION_ASSIGNMENT ( #387, #386, ( #388 ) ) ;
#386 = PERSON_AND_ORGANIZATION_ROLE ( 'classification_officer' ) ;
#387 = PERSON_AND_ORGANIZATION ( #326, #325 ) ;
#388 = SECURITY_CLASSIFICATION ( '', '', #389 ) ;
#389 = SECURITY_CLASSIFICATION_LEVEL ( 'unclassified' ) ;
ENDSEC;
END-ISO-10303-21;
