ISO-10303-21;
HEADER;
FILE_DESCRIPTION (( 'STEP AP203' ),
    '1' );
FILE_NAME ('3D_GR1392_DN16x1.5_18380065.STEP',
    '2024-09-21T10:10:54',
    ( '' ),
    ( '' ),
    'SwSTEP 2.0',
    'SolidWorks 2024',
    '' );
FILE_SCHEMA (( 'CONFIG_CONTROL_DESIGN' ));
ENDSEC;

DATA;
#1 = EDGE_LOOP ( 'NONE', ( #126, #29 ) ) ;
#2 = DIRECTION ( 'NONE',  ( 0.000000000000000000, 0.000000000000000000, 1.000000000000000000 ) ) ;
#3 = ORIENTED_EDGE ( 'NONE', *, *, #237, .F. ) ;
#4 = CC_DESIGN_PERSON_AND_ORGANIZATION_ASSIGNMENT ( #67, #273, ( #299 ) ) ;
#5 = DIRECTION ( 'NONE',  ( 0.000000000000000000, 0.000000000000000000, 1.000000000000000000 ) ) ;
#6 = CIRCLE ( 'NONE', #187, 8.000000000000019540 ) ;
#7 = CARTESIAN_POINT ( 'NONE',  ( -2.000000000000000888, 8.000000000000015987, 0.000000000000000000 ) ) ;
#8 = DIRECTION ( 'NONE',  ( -1.000000000000000000, -0.000000000000000000, -0.000000000000000000 ) ) ;
#9 = CARTESIAN_POINT ( 'NONE',  ( -2.775557561562891351E-14, 7.960204194457818157E-16, -6.500000000000017764 ) ) ;
#10 = CARTESIAN_POINT ( 'NONE',  ( 7.166666666666616337, 0.000000000000000000, 0.000000000000000000 ) ) ;
#11 = DIRECTION ( 'NONE',  ( 0.000000000000000000, 0.000000000000000000, 1.000000000000000000 ) ) ;
#12 = DIRECTION ( 'NONE',  ( 0.000000000000000000, 1.000000000000000000, 1.224646799147353207E-16 ) ) ;
#13 = CIRCLE ( 'NONE', #244, 8.000000000000019540 ) ;
#14 = CALENDAR_DATE ( 2024, 21, 9 ) ;
#15 = DIRECTION ( 'NONE',  ( 0.000000000000000000, 0.000000000000000000, 1.000000000000000000 ) ) ;
#16 = ADVANCED_FACE ( 'NONE', ( #50 ), #241, .T. ) ;
#17 = DIRECTION ( 'NONE',  ( -1.000000000000000000, 0.000000000000000000, -0.000000000000000000 ) ) ;
#18 =( GEOMETRIC_REPRESENTATION_CONTEXT ( 3 ) GLOBAL_UNCERTAINTY_ASSIGNED_CONTEXT ( ( #311 ) ) GLOBAL_UNIT_ASSIGNED_CONTEXT ( ( #120, #144, #66 ) ) REPRESENTATION_CONTEXT ( 'NONE', 'WORKASPACE' ) );
#19 = CARTESIAN_POINT ( 'NONE',  ( -154.8395502972293230, 0.000000000000000000, 0.000000000000000000 ) ) ;
#20 = ADVANCED_FACE ( 'NONE', ( #189 ), #298, .F. ) ;
#21 = AXIS2_PLACEMENT_3D ( 'NONE', #48, #17, #225 ) ;
#22 = VECTOR ( 'NONE', #159, 1000.000000000000000 ) ;
#23 = APPROVAL_PERSON_ORGANIZATION ( #117, #128, #118 ) ;
#24 = COORDINATED_UNIVERSAL_TIME_OFFSET ( 1, 0, .AHEAD. ) ;
#25 = ORIENTED_EDGE ( 'NONE', *, *, #82, .T. ) ;
#26 = SECURITY_CLASSIFICATION_LEVEL ( 'unclassified' ) ;
#27 = EDGE_LOOP ( 'NONE', ( #313, #316, #179, #79 ) ) ;
#28 = EDGE_CURVE ( 'NONE', #151, #286, #70, .T. ) ;
#29 = ORIENTED_EDGE ( 'NONE', *, *, #46, .F. ) ;
#30 = AXIS2_PLACEMENT_3D ( 'NONE', #265, #335, #35 ) ;
#31 = LINE ( 'NONE', #47, #58 ) ;
#32 = ORIENTED_EDGE ( 'NONE', *, *, #288, .T. ) ;
#33 = DIRECTION ( 'NONE',  ( -1.000000000000000000, -0.000000000000000000, -0.000000000000000000 ) ) ;
#34 = PLANE ( 'NONE',  #162 ) ;
#35 = DIRECTION ( 'NONE',  ( 0.000000000000000000, 0.000000000000000000, 1.000000000000000000 ) ) ;
#36 = PRODUCT_RELATED_PRODUCT_CATEGORY ( 'detail', '', ( #261 ) ) ;
#37 = LINE ( 'NONE', #235, #135 ) ;
#38 = AXIS2_PLACEMENT_3D ( 'NONE', #127, #227, #2 ) ;
#39 = FACE_OUTER_BOUND ( 'NONE', #90, .T. ) ;
#40 = DIRECTION ( 'NONE',  ( 0.000000000000000000, 0.000000000000000000, 1.000000000000000000 ) ) ;
#41 = DIRECTION ( 'NONE',  ( -1.000000000000000000, -0.000000000000000000, -0.000000000000000000 ) ) ;
#42 = APPLICATION_PROTOCOL_DEFINITION ( 'international standard', 'config_control_design', 1994, #140 ) ;
#43 = ADVANCED_FACE ( 'NONE', ( #242 ), #248, .T. ) ;
#44 = AXIS2_PLACEMENT_3D ( 'NONE', #239, #342, #61 ) ;
#45 = CARTESIAN_POINT ( 'NONE',  ( -2.775557561562891351E-14, 0.000000000000000000, 6.500000000000017764 ) ) ;
#46 = EDGE_CURVE ( 'NONE', #286, #151, #77, .T. ) ;
#47 = CARTESIAN_POINT ( 'NONE',  ( 6.999999999999978684, 6.735557395310463717E-16, -5.500000000000016875 ) ) ;
#48 = CARTESIAN_POINT ( 'NONE',  ( 6.999999999999982236, 1.711110571491244124E-15, 0.000000000000000000 ) ) ;
#49 = PERSON_AND_ORGANIZATION_ROLE ( 'classification_officer' ) ;
#50 = FACE_OUTER_BOUND ( 'NONE', #99, .T. ) ;
#51 = CC_DESIGN_PERSON_AND_ORGANIZATION_ASSIGNMENT ( #271, #167, ( #261 ) ) ;
#52 = CIRCLE ( 'NONE', #284, 6.500000000000017764 ) ;
#53 = VERTEX_POINT ( 'NONE', #211 ) ;
#54 = CC_DESIGN_DATE_AND_TIME_ASSIGNMENT ( #72, #221, ( #231 ) ) ;
#55 = VERTEX_POINT ( 'NONE', #295 ) ;
#56 = ORIENTED_EDGE ( 'NONE', *, *, #319, .T. ) ;
#57 = AXIS2_PLACEMENT_3D ( 'NONE', #158, #133, #89 ) ;
#58 = VECTOR ( 'NONE', #216, 1000.000000000000114 ) ;
#59 = DIRECTION ( 'NONE',  ( -1.000000000000000000, -0.000000000000000000, -0.000000000000000000 ) ) ;
#60 = CARTESIAN_POINT ( 'NONE',  ( -154.8395502972293230, 0.000000000000000000, 0.000000000000000000 ) ) ;
#61 = DIRECTION ( 'NONE',  ( 0.000000000000000000, 0.000000000000000000, 1.000000000000000000 ) ) ;
#62 = AXIS2_PLACEMENT_3D ( 'NONE', #266, #191, #65 ) ;
#63 = DIRECTION ( 'NONE',  ( 0.000000000000000000, 0.000000000000000000, 1.000000000000000000 ) ) ;
#64 = EDGE_CURVE ( 'NONE', #230, #347, #201, .T. ) ;
#65 = DIRECTION ( 'NONE',  ( 1.000000000000000000, 0.000000000000000000, 0.000000000000000000 ) ) ;
#66 =( NAMED_UNIT ( * ) SI_UNIT ( $, .STERADIAN. ) SOLID_ANGLE_UNIT ( ) );
#67 = PERSON_AND_ORGANIZATION ( #195, #259 ) ;
#68 = DIRECTION ( 'NONE',  ( 1.000000000000000000, 0.000000000000000000, 0.000000000000000000 ) ) ;
#69 = COORDINATED_UNIVERSAL_TIME_OFFSET ( 1, 0, .AHEAD. ) ;
#70 = CIRCLE ( 'NONE', #267, 5.500000000000016875 ) ;
#71 = CC_DESIGN_PERSON_AND_ORGANIZATION_ASSIGNMENT ( #93, #302, ( #299 ) ) ;
#72 = DATE_AND_TIME ( #305, #303 ) ;
#73 = DIRECTION ( 'NONE',  ( -1.000000000000000000, -0.000000000000000000, -0.000000000000000000 ) ) ;
#74 = DIRECTION ( 'NONE',  ( 0.000000000000000000, 0.000000000000000000, 1.000000000000000000 ) ) ;
#75 = AXIS2_PLACEMENT_3D ( 'NONE', #157, #262, #206 ) ;
#76 = ORIENTED_EDGE ( 'NONE', *, *, #203, .F. ) ;
#77 = CIRCLE ( 'NONE', #314, 5.500000000000016875 ) ;
#78 = CIRCLE ( 'NONE', #174, 12.16666666666663765 ) ;
#79 = ORIENTED_EDGE ( 'NONE', *, *, #226, .F. ) ;
#80 = DIRECTION ( 'NONE',  ( -1.000000000000000000, 0.000000000000000000, -0.000000000000000000 ) ) ;
#81 = VERTEX_POINT ( 'NONE', #294 ) ;
#82 = EDGE_CURVE ( 'NONE', #255, #105, #164, .T. ) ;
#83 = APPLICATION_CONTEXT ( 'configuration controlled 3d designs of mechanical parts and assemblies' ) ;
#84 = ORIENTED_EDGE ( 'NONE', *, *, #64, .T. ) ;
#85 = CARTESIAN_POINT ( 'NONE',  ( 5.999999999999977796, 7.960204194457818157E-16, -6.500000000000017764 ) ) ;
#86 = ORIENTED_EDGE ( 'NONE', *, *, #175, .T. ) ;
#87 = DIRECTION ( 'NONE',  ( -1.000000000000000000, -0.000000000000000000, -0.000000000000000000 ) ) ;
#88 = DIRECTION ( 'NONE',  ( -1.000000000000000000, -0.000000000000000000, -0.000000000000000000 ) ) ;
#89 = DIRECTION ( 'NONE',  ( 0.000000000000000000, 0.000000000000000000, 1.000000000000000000 ) ) ;
#90 = EDGE_LOOP ( 'NONE', ( #200, #186, #318, #76 ) ) ;
#91 = ADVANCED_FACE ( 'NONE', ( #39 ), #281, .T. ) ;
#92 = DATE_AND_TIME ( #14, #176 ) ;
#93 = PERSON_AND_ORGANIZATION ( #195, #259 ) ;
#94 = APPROVAL ( #141, 'UNSPECIFIED' ) ;
#95 = COORDINATED_UNIVERSAL_TIME_OFFSET ( 1, 0, .AHEAD. ) ;
#96 = DIRECTION ( 'NONE',  ( -0.000000000000000000, 0.000000000000000000, 1.000000000000000000 ) ) ;
#97 = CARTESIAN_POINT ( 'NONE',  ( 6.999999999999978684, 0.000000000000000000, 5.500000000000016875 ) ) ;
#98 = CARTESIAN_POINT ( 'NONE',  ( 0.000000000000000000, 0.000000000000000000, 8.000000000000019540 ) ) ;
#99 = EDGE_LOOP ( 'NONE', ( #86, #25, #192, #3 ) ) ;
#100 = ADVANCED_FACE ( 'NONE', ( #149 ), #326, .T. ) ;
#101 = CIRCLE ( 'NONE', #57, 6.500000000000017764 ) ;
#102 = APPROVAL_STATUS ( 'not_yet_approved' ) ;
#103 = EDGE_CURVE ( 'NONE', #104, #81, #148, .T. ) ;
#104 = VERTEX_POINT ( 'NONE', #98 ) ;
#105 = VERTEX_POINT ( 'NONE', #9 ) ;
#106 = AXIS2_PLACEMENT_3D ( 'NONE', #249, #210, #63 ) ;
#107 = EDGE_LOOP ( 'NONE', ( #292, #110, #224, #177, #346 ) ) ;
#108 = EDGE_CURVE ( 'NONE', #320, #105, #52, .T. ) ;
#109 = CARTESIAN_POINT ( 'NONE',  ( -2.000000000000001776, 0.000000000000000000, 0.000000000000000000 ) ) ;
#110 = ORIENTED_EDGE ( 'NONE', *, *, #124, .T. ) ;
#111 = CARTESIAN_POINT ( 'NONE',  ( -2.775557561562891351E-14, 0.000000000000000000, 0.000000000000000000 ) ) ;
#112 = AXIS2_PLACEMENT_3D ( 'NONE', #306, #73, #74 ) ;
#113 = CARTESIAN_POINT ( 'NONE',  ( -154.8395502972293230, 0.000000000000000000, 0.000000000000000000 ) ) ;
#114 = DIRECTION ( 'NONE',  ( -1.000000000000000000, -0.000000000000000000, -0.000000000000000000 ) ) ;
#115 = DIRECTION ( 'NONE',  ( -1.000000000000000000, -0.000000000000000000, -0.000000000000000000 ) ) ;
#116 = AXIS2_PLACEMENT_3D ( 'NONE', #111, #163, #40 ) ;
#117 = PERSON_AND_ORGANIZATION ( #195, #259 ) ;
#118 = APPROVAL_ROLE ( '' ) ;
#119 = LINE ( 'NONE', #218, #22 ) ;
#120 =( LENGTH_UNIT ( ) NAMED_UNIT ( * ) SI_UNIT ( .MILLI., .METRE. ) );
#121 = DIRECTION ( 'NONE',  ( -1.000000000000000000, -0.000000000000000000, -0.000000000000000000 ) ) ;
#122 = EDGE_LOOP ( 'NONE', ( #234, #84, #152, #56 ) ) ;
#123 = DIRECTION ( 'NONE',  ( 0.000000000000000000, 0.000000000000000000, 1.000000000000000000 ) ) ;
#124 = EDGE_CURVE ( 'NONE', #81, #250, #119, .T. ) ;
#125 = APPROVAL_DATE_TIME ( #147, #339 ) ;
#126 = ORIENTED_EDGE ( 'NONE', *, *, #28, .F. ) ;
#127 = CARTESIAN_POINT ( 'NONE',  ( -154.8395502972293230, 0.000000000000000000, 0.000000000000000000 ) ) ;
#128 = APPROVAL ( #328, 'UNSPECIFIED' ) ;
#129 = DATE_TIME_ROLE ( 'classification_date' ) ;
#130 = EDGE_LOOP ( 'NONE', ( #204, #236 ) ) ;
#131 = ORIENTED_EDGE ( 'NONE', *, *, #175, .F. ) ;
#132 = ORIENTED_EDGE ( 'NONE', *, *, #274, .F. ) ;
#133 = DIRECTION ( 'NONE',  ( -1.000000000000000000, -0.000000000000000000, -0.000000000000000000 ) ) ;
#134 = CARTESIAN_POINT ( 'NONE',  ( -2.775557561562891351E-14, 0.000000000000000000, 0.000000000000000000 ) ) ;
#135 = VECTOR ( 'NONE', #33, 1000.000000000000000 ) ;
#136 = DIRECTION ( 'NONE',  ( -0.7071067811865474617, 0.000000000000000000, 0.7071067811865474617 ) ) ;
#137 = DIRECTION ( 'NONE',  ( 0.000000000000000000, 0.000000000000000000, 1.000000000000000000 ) ) ;
#138 = CARTESIAN_POINT ( 'NONE',  ( -6.814725635705962074E-15, 6.500000000000017764, 0.000000000000000000 ) ) ;
#139 = DIRECTION ( 'NONE',  ( -1.000000000000000000, -0.000000000000000000, -0.000000000000000000 ) ) ;
#140 = APPLICATION_CONTEXT ( 'configuration controlled 3d designs of mechanical parts and assemblies' ) ;
#141 = APPROVAL_STATUS ( 'not_yet_approved' ) ;
#142 = APPROVAL_PERSON_ORGANIZATION ( #229, #339, #283 ) ;
#143 = PERSON_AND_ORGANIZATION ( #195, #259 ) ;
#144 =( NAMED_UNIT ( * ) PLANE_ANGLE_UNIT ( ) SI_UNIT ( $, .RADIAN. ) );
#145 = FACE_OUTER_BOUND ( 'NONE', #107, .T. ) ;
#146 = EDGE_CURVE ( 'NONE', #347, #150, #252, .T. ) ;
#147 = DATE_AND_TIME ( #251, #310 ) ;
#148 = CIRCLE ( 'NONE', #219, 8.000000000000019540 ) ;
#149 = FACE_OUTER_BOUND ( 'NONE', #27, .T. ) ;
#150 = VERTEX_POINT ( 'NONE', #7 ) ;
#151 = VERTEX_POINT ( 'NONE', #97 ) ;
#152 = ORIENTED_EDGE ( 'NONE', *, *, #146, .T. ) ;
#153 = FACE_OUTER_BOUND ( 'NONE', #155, .T. ) ;
#154 = EDGE_CURVE ( 'NONE', #150, #250, #238, .T. ) ;
#155 = EDGE_LOOP ( 'NONE', ( #247, #253, #289, #350, #184 ) ) ;
#156 = CIRCLE ( 'NONE', #214, 6.500000000000017764 ) ;
#157 = CARTESIAN_POINT ( 'NONE',  ( 7.166666666666616337, 0.000000000000000000, 0.000000000000000000 ) ) ;
#158 = CARTESIAN_POINT ( 'NONE',  ( 5.999999999999977796, 0.000000000000000000, 0.000000000000000000 ) ) ;
#159 = DIRECTION ( 'NONE',  ( -1.000000000000000000, -0.000000000000000000, -0.000000000000000000 ) ) ;
#160 = DIRECTION ( 'NONE',  ( -1.000000000000000000, -0.000000000000000000, -0.000000000000000000 ) ) ;
#161 = AXIS2_PLACEMENT_3D ( 'NONE', #113, #121, #172 ) ;
#162 = AXIS2_PLACEMENT_3D ( 'NONE', #138, #80, #348 ) ;
#163 = DIRECTION ( 'NONE',  ( -1.000000000000000000, -0.000000000000000000, -0.000000000000000000 ) ) ;
#164 = LINE ( 'NONE', #270, #196 ) ;
#165 = APPLICATION_PROTOCOL_DEFINITION ( 'international standard', 'config_control_design', 1994, #83 ) ;
#166 = ADVANCED_FACE ( 'NONE', ( #145 ), #197, .T. ) ;
#167 = PERSON_AND_ORGANIZATION_ROLE ( 'design_owner' ) ;
#168 = AXIS2_PLACEMENT_3D ( 'NONE', #307, #268, #182 ) ;
#169 = CC_DESIGN_SECURITY_CLASSIFICATION ( #276, ( #299 ) ) ;
#170 = APPROVAL_DATE_TIME ( #92, #128 ) ;
#171 = ORIENTED_EDGE ( 'NONE', *, *, #319, .F. ) ;
#172 = DIRECTION ( 'NONE',  ( 0.000000000000000000, 0.000000000000000000, 1.000000000000000000 ) ) ;
#173 = AXIS2_PLACEMENT_3D ( 'NONE', #19, #59, #137 ) ;
#174 = AXIS2_PLACEMENT_3D ( 'NONE', #301, #212, #12 ) ;
#175 = EDGE_CURVE ( 'NONE', #55, #255, #156, .T. ) ;
#176 = LOCAL_TIME ( 12, 10, 54.00000000000000000, #95 ) ;
#177 = ORIENTED_EDGE ( 'NONE', *, *, #146, .F. ) ;
#178 = CARTESIAN_POINT ( 'NONE',  ( 6.999999999999978684, 0.000000000000000000, 5.500000000000016875 ) ) ;
#179 = ORIENTED_EDGE ( 'NONE', *, *, #237, .T. ) ;
#180 = AXIS2_PLACEMENT_3D ( 'NONE', #336, #272, #334 ) ;
#181 = DIRECTION ( 'NONE',  ( 0.000000000000000000, 0.000000000000000000, 1.000000000000000000 ) ) ;
#182 = DIRECTION ( 'NONE',  ( 0.000000000000000000, 0.000000000000000000, 1.000000000000000000 ) ) ;
#183 = CYLINDRICAL_SURFACE ( 'NONE', #343, 8.000000000000019540 ) ;
#184 = ORIENTED_EDGE ( 'NONE', *, *, #208, .F. ) ;
#185 = FACE_OUTER_BOUND ( 'NONE', #122, .T. ) ;
#186 = ORIENTED_EDGE ( 'NONE', *, *, #46, .T. ) ;
#187 = AXIS2_PLACEMENT_3D ( 'NONE', #109, #8, #351 ) ;
#188 = PERSON_AND_ORGANIZATION_ROLE ( 'creator' ) ;
#189 = FACE_OUTER_BOUND ( 'NONE', #1, .T. ) ;
#190 = CC_DESIGN_DATE_AND_TIME_ASSIGNMENT ( #194, #129, ( #276 ) ) ;
#191 = DIRECTION ( 'NONE',  ( 0.000000000000000000, 0.000000000000000000, 1.000000000000000000 ) ) ;
#192 = ORIENTED_EDGE ( 'NONE', *, *, #108, .F. ) ;
#193 = ORIENTED_EDGE ( 'NONE', *, *, #208, .T. ) ;
#194 = DATE_AND_TIME ( #341, #329 ) ;
#195 = PERSON ( 'UNSPECIFIED', 'UNSPECIFIED', 'UNSPECIFIED', ('UNSPECIFIED'), ('UNSPECIFIED'), ('UNSPECIFIED') ) ;
#196 = VECTOR ( 'NONE', #88, 1000.000000000000000 ) ;
#197 = CYLINDRICAL_SURFACE ( 'NONE', #38, 8.000000000000019540 ) ;
#198 = CC_DESIGN_APPROVAL ( #128, ( #231 ) ) ;
#199 = PERSON_AND_ORGANIZATION ( #195, #259 ) ;
#200 = ORIENTED_EDGE ( 'NONE', *, *, #288, .F. ) ;
#201 = CIRCLE ( 'NONE', #44, 8.000000000000019540 ) ;
#202 = CC_DESIGN_APPROVAL ( #339, ( #276 ) ) ;
#203 = EDGE_CURVE ( 'NONE', #255, #55, #101, .T. ) ;
#204 = ORIENTED_EDGE ( 'NONE', *, *, #103, .F. ) ;
#205 = ORIENTED_EDGE ( 'NONE', *, *, #344, .T. ) ;
#206 = DIRECTION ( 'NONE',  ( 0.000000000000000000, 1.000000000000000000, 0.000000000000000000 ) ) ;
#207 = EDGE_LOOP ( 'NONE', ( #340, #193, #205, #171 ) ) ;
#208 = EDGE_CURVE ( 'NONE', #250, #230, #6, .T. ) ;
#209 = CARTESIAN_POINT ( 'NONE',  ( -2.000000000000000888, -8.000000000000015987, -9.797174393178845379E-16 ) ) ;
#210 = DIRECTION ( 'NONE',  ( -1.000000000000000000, -0.000000000000000000, -0.000000000000000000 ) ) ;
#211 = CARTESIAN_POINT ( 'NONE',  ( -5.000000000000022204, 7.449934694813047944E-16, 0.000000000000000000 ) ) ;
#212 = DIRECTION ( 'NONE',  ( 0.000000000000000000, 1.224646799147353207E-16, -1.000000000000000000 ) ) ;
#213 = ADVANCED_FACE ( 'NONE', ( #185 ), #290, .T. ) ;
#214 = AXIS2_PLACEMENT_3D ( 'NONE', #296, #317, #5 ) ;
#215 = AXIS2_PLACEMENT_3D ( 'NONE', #10, #96, #68 ) ;
#216 = DIRECTION ( 'NONE',  ( -0.7071067811865474617, 8.659560562354932858E-17, -0.7071067811865474617 ) ) ;
#217 = EDGE_CURVE ( 'NONE', #104, #347, #37, .T. ) ;
#218 = CARTESIAN_POINT ( 'NONE',  ( -154.8395502972293230, 9.797174393178849323E-16, -8.000000000000019540 ) ) ;
#219 = AXIS2_PLACEMENT_3D ( 'NONE', #338, #41, #11 ) ;
#220 = CIRCLE ( 'NONE', #215, 12.16666666666663765 ) ;
#221 = DATE_TIME_ROLE ( 'creation_date' ) ;
#222 = CARTESIAN_POINT ( 'NONE',  ( 6.999999999999978684, 0.000000000000000000, 0.000000000000000000 ) ) ;
#223 = PRODUCT_DEFINITION_SHAPE ( 'NONE', 'NONE',  #231 ) ;
#224 = ORIENTED_EDGE ( 'NONE', *, *, #154, .F. ) ;
#225 = DIRECTION ( 'NONE',  ( -0.000000000000000000, 0.000000000000000000, 1.000000000000000000 ) ) ;
#226 = EDGE_CURVE ( 'NONE', #105, #320, #297, .T. ) ;
#227 = DIRECTION ( 'NONE',  ( -1.000000000000000000, -0.000000000000000000, -0.000000000000000000 ) ) ;
#228 = APPROVAL_PERSON_ORGANIZATION ( #143, #94, #243 ) ;
#229 = PERSON_AND_ORGANIZATION ( #195, #259 ) ;
#230 = VERTEX_POINT ( 'NONE', #209 ) ;
#231 = PRODUCT_DEFINITION ( 'UNKNOWN', '', #299, #345 ) ;
#232 = EDGE_LOOP ( 'NONE', ( #287, #32, #131, #132 ) ) ;
#233 = LOCAL_TIME ( 12, 10, 54.00000000000000000, #69 ) ;
#234 = ORIENTED_EDGE ( 'NONE', *, *, #344, .F. ) ;
#235 = CARTESIAN_POINT ( 'NONE',  ( -154.8395502972293230, 0.000000000000000000, 8.000000000000019540 ) ) ;
#236 = ORIENTED_EDGE ( 'NONE', *, *, #349, .F. ) ;
#237 = EDGE_CURVE ( 'NONE', #55, #320, #322, .T. ) ;
#238 = CIRCLE ( 'NONE', #112, 8.000000000000019540 ) ;
#239 = CARTESIAN_POINT ( 'NONE',  ( -2.000000000000001776, 0.000000000000000000, 0.000000000000000000 ) ) ;
#240 = ADVANCED_BREP_SHAPE_REPRESENTATION ( '3D_GR1392_DN16x1.5_18380065', ( #324, #62 ), #18 ) ;
#241 = CYLINDRICAL_SURFACE ( 'NONE', #161, 6.500000000000017764 ) ;
#242 = FACE_OUTER_BOUND ( 'NONE', #232, .T. ) ;
#243 = APPROVAL_ROLE ( '' ) ;
#244 = AXIS2_PLACEMENT_3D ( 'NONE', #331, #245, #15 ) ;
#245 = DIRECTION ( 'NONE',  ( -1.000000000000000000, -0.000000000000000000, -0.000000000000000000 ) ) ;
#246 = MECHANICAL_CONTEXT ( 'NONE', #83, 'mechanical' ) ;
#247 = ORIENTED_EDGE ( 'NONE', *, *, #124, .F. ) ;
#248 = CONICAL_SURFACE ( 'NONE', #106, 5.500000000000016875, 0.7853981633974482790 ) ;
#249 = CARTESIAN_POINT ( 'NONE',  ( 6.999999999999978684, 0.000000000000000000, 0.000000000000000000 ) ) ;
#250 = VERTEX_POINT ( 'NONE', #321 ) ;
#251 = CALENDAR_DATE ( 2024, 21, 9 ) ;
#252 = CIRCLE ( 'NONE', #30, 8.000000000000019540 ) ;
#253 = ORIENTED_EDGE ( 'NONE', *, *, #349, .T. ) ;
#254 = CC_DESIGN_PERSON_AND_ORGANIZATION_ASSIGNMENT ( #199, #49, ( #276 ) ) ;
#255 = VERTEX_POINT ( 'NONE', #85 ) ;
#256 = ORIENTED_EDGE ( 'NONE', *, *, #108, .T. ) ;
#257 = CARTESIAN_POINT ( 'NONE',  ( 6.999999999999978684, 7.347880794884140444E-16, -5.500000000000016875 ) ) ;
#258 = ADVANCED_FACE ( 'NONE', ( #153 ), #183, .T. ) ;
#259 = ORGANIZATION ( 'UNSPECIFIED', 'UNSPECIFIED', '' ) ;
#260 = ORIENTED_EDGE ( 'NONE', *, *, #226, .T. ) ;
#261 = PRODUCT ( '3D_GR1392_DN16x1.5_18380065', '3D_GR1392_DN16x1.5_18380065', '', ( #246 ) ) ;
#262 = DIRECTION ( 'NONE',  ( -0.000000000000000000, 0.000000000000000000, -1.000000000000000000 ) ) ;
#263 = EDGE_LOOP ( 'NONE', ( #256, #260 ) ) ;
#264 = CARTESIAN_POINT ( 'NONE',  ( -154.8395502972293230, 0.000000000000000000, 6.500000000000017764 ) ) ;
#265 = CARTESIAN_POINT ( 'NONE',  ( -2.000000000000001776, 0.000000000000000000, 0.000000000000000000 ) ) ;
#266 = CARTESIAN_POINT ( 'NONE',  ( 0.000000000000000000, 0.000000000000000000, 0.000000000000000000 ) ) ;
#267 = AXIS2_PLACEMENT_3D ( 'NONE', #279, #139, #280 ) ;
#268 = DIRECTION ( 'NONE',  ( -1.000000000000000000, -0.000000000000000000, -0.000000000000000000 ) ) ;
#269 = FACE_OUTER_BOUND ( 'NONE', #130, .T. ) ;
#270 = CARTESIAN_POINT ( 'NONE',  ( -154.8395502972293230, 7.960204194457818157E-16, -6.500000000000017764 ) ) ;
#271 = PERSON_AND_ORGANIZATION ( #195, #259 ) ;
#272 = DIRECTION ( 'NONE',  ( -0.000000000000000000, 0.000000000000000000, -1.000000000000000000 ) ) ;
#273 = PERSON_AND_ORGANIZATION_ROLE ( 'design_supplier' ) ;
#274 = EDGE_CURVE ( 'NONE', #151, #55, #325, .T. ) ;
#275 = CLOSED_SHELL ( 'NONE', ( #43, #16, #166, #308, #213, #258, #282, #100, #91, #20 ) ) ;
#276 = SECURITY_CLASSIFICATION ( '', '', #26 ) ;
#277 = SPHERICAL_SURFACE ( 'NONE', #180, 12.16666666666663765 ) ;
#278 = DATE_AND_TIME ( #337, #233 ) ;
#279 = CARTESIAN_POINT ( 'NONE',  ( 6.999999999999978684, 0.000000000000000000, 0.000000000000000000 ) ) ;
#280 = DIRECTION ( 'NONE',  ( 0.000000000000000000, 0.000000000000000000, 1.000000000000000000 ) ) ;
#281 = CONICAL_SURFACE ( 'NONE', #168, 5.500000000000016875, 0.7853981633974482790 ) ;
#282 = ADVANCED_FACE ( 'NONE', ( #269, #293 ), #34, .F. ) ;
#283 = APPROVAL_ROLE ( '' ) ;
#284 = AXIS2_PLACEMENT_3D ( 'NONE', #134, #115, #123 ) ;
#285 = COORDINATED_UNIVERSAL_TIME_OFFSET ( 1, 0, .AHEAD. ) ;
#286 = VERTEX_POINT ( 'NONE', #257 ) ;
#287 = ORIENTED_EDGE ( 'NONE', *, *, #28, .T. ) ;
#288 = EDGE_CURVE ( 'NONE', #286, #255, #31, .T. ) ;
#289 = ORIENTED_EDGE ( 'NONE', *, *, #217, .T. ) ;
#290 = SPHERICAL_SURFACE ( 'NONE', #75, 12.16666666666663765 ) ;
#291 = VECTOR ( 'NONE', #136, 1000.000000000000114 ) ;
#292 = ORIENTED_EDGE ( 'NONE', *, *, #103, .T. ) ;
#293 = FACE_BOUND ( 'NONE', #263, .T. ) ;
#294 = CARTESIAN_POINT ( 'NONE',  ( 0.000000000000000000, 9.797174393178849323E-16, -8.000000000000019540 ) ) ;
#295 = CARTESIAN_POINT ( 'NONE',  ( 5.999999999999977796, 0.000000000000000000, 6.500000000000017764 ) ) ;
#296 = CARTESIAN_POINT ( 'NONE',  ( 5.999999999999977796, 0.000000000000000000, 0.000000000000000000 ) ) ;
#297 = CIRCLE ( 'NONE', #116, 6.500000000000017764 ) ;
#298 = PLANE ( 'NONE',  #21 ) ;
#299 = PRODUCT_DEFINITION_FORMATION_WITH_SPECIFIED_SOURCE ( 'ANY', '', #261, .NOT_KNOWN. ) ;
#300 = COORDINATED_UNIVERSAL_TIME_OFFSET ( 1, 0, .AHEAD. ) ;
#301 = CARTESIAN_POINT ( 'NONE',  ( 7.166666666666616337, 0.000000000000000000, 0.000000000000000000 ) ) ;
#302 = PERSON_AND_ORGANIZATION_ROLE ( 'creator' ) ;
#303 = LOCAL_TIME ( 12, 10, 54.00000000000000000, #300 ) ;
#304 = FACE_OUTER_BOUND ( 'NONE', #207, .T. ) ;
#305 = CALENDAR_DATE ( 2024, 21, 9 ) ;
#306 = CARTESIAN_POINT ( 'NONE',  ( -2.000000000000001776, 0.000000000000000000, 0.000000000000000000 ) ) ;
#307 = CARTESIAN_POINT ( 'NONE',  ( 6.999999999999978684, 0.000000000000000000, 0.000000000000000000 ) ) ;
#308 = ADVANCED_FACE ( 'NONE', ( #304 ), #277, .T. ) ;
#309 = VECTOR ( 'NONE', #87, 1000.000000000000000 ) ;
#310 = LOCAL_TIME ( 12, 10, 54.00000000000000000, #285 ) ;
#311 = UNCERTAINTY_MEASURE_WITH_UNIT (LENGTH_MEASURE( 1.000000000000000082E-05 ), #120, 'distance_accuracy_value', 'NONE');
#312 = SHAPE_DEFINITION_REPRESENTATION ( #223, #240 ) ;
#313 = ORIENTED_EDGE ( 'NONE', *, *, #82, .F. ) ;
#314 = AXIS2_PLACEMENT_3D ( 'NONE', #222, #160, #323 ) ;
#315 = CC_DESIGN_APPROVAL ( #94, ( #299 ) ) ;
#316 = ORIENTED_EDGE ( 'NONE', *, *, #203, .T. ) ;
#317 = DIRECTION ( 'NONE',  ( -1.000000000000000000, -0.000000000000000000, -0.000000000000000000 ) ) ;
#318 = ORIENTED_EDGE ( 'NONE', *, *, #274, .T. ) ;
#319 = EDGE_CURVE ( 'NONE', #150, #53, #220, .T. ) ;
#320 = VERTEX_POINT ( 'NONE', #45 ) ;
#321 = CARTESIAN_POINT ( 'NONE',  ( -2.000000000000001776, 9.797174393178849323E-16, -8.000000000000019540 ) ) ;
#322 = LINE ( 'NONE', #264, #309 ) ;
#323 = DIRECTION ( 'NONE',  ( 0.000000000000000000, 0.000000000000000000, 1.000000000000000000 ) ) ;
#324 = MANIFOLD_SOLID_BREP ( 'Rotation1', #275 ) ;
#325 = LINE ( 'NONE', #178, #291 ) ;
#326 = CYLINDRICAL_SURFACE ( 'NONE', #173, 6.500000000000017764 ) ;
#327 = CARTESIAN_POINT ( 'NONE',  ( -2.000000000000001776, 0.000000000000000000, 8.000000000000019540 ) ) ;
#328 = APPROVAL_STATUS ( 'not_yet_approved' ) ;
#329 = LOCAL_TIME ( 12, 10, 54.00000000000000000, #24 ) ;
#330 = CC_DESIGN_PERSON_AND_ORGANIZATION_ASSIGNMENT ( #333, #188, ( #231 ) ) ;
#331 = CARTESIAN_POINT ( 'NONE',  ( 0.000000000000000000, 0.000000000000000000, 0.000000000000000000 ) ) ;
#332 = APPROVAL_DATE_TIME ( #278, #94 ) ;
#333 = PERSON_AND_ORGANIZATION ( #195, #259 ) ;
#334 = DIRECTION ( 'NONE',  ( 0.000000000000000000, 1.000000000000000000, 0.000000000000000000 ) ) ;
#335 = DIRECTION ( 'NONE',  ( -1.000000000000000000, -0.000000000000000000, -0.000000000000000000 ) ) ;
#336 = CARTESIAN_POINT ( 'NONE',  ( 7.166666666666616337, 0.000000000000000000, 0.000000000000000000 ) ) ;
#337 = CALENDAR_DATE ( 2024, 21, 9 ) ;
#338 = CARTESIAN_POINT ( 'NONE',  ( 0.000000000000000000, 0.000000000000000000, 0.000000000000000000 ) ) ;
#339 = APPROVAL ( #102, 'UNSPECIFIED' ) ;
#340 = ORIENTED_EDGE ( 'NONE', *, *, #154, .T. ) ;
#341 = CALENDAR_DATE ( 2024, 21, 9 ) ;
#342 = DIRECTION ( 'NONE',  ( -1.000000000000000000, -0.000000000000000000, -0.000000000000000000 ) ) ;
#343 = AXIS2_PLACEMENT_3D ( 'NONE', #60, #114, #181 ) ;
#344 = EDGE_CURVE ( 'NONE', #230, #53, #78, .T. ) ;
#345 = DESIGN_CONTEXT ( 'detailed design', #140, 'design' ) ;
#346 = ORIENTED_EDGE ( 'NONE', *, *, #217, .F. ) ;
#347 = VERTEX_POINT ( 'NONE', #327 ) ;
#348 = DIRECTION ( 'NONE',  ( -0.000000000000000000, 0.000000000000000000, 1.000000000000000000 ) ) ;
#349 = EDGE_CURVE ( 'NONE', #81, #104, #13, .T. ) ;
#350 = ORIENTED_EDGE ( 'NONE', *, *, #64, .F. ) ;
#351 = DIRECTION ( 'NONE',  ( 0.000000000000000000, 0.000000000000000000, 1.000000000000000000 ) ) ;
ENDSEC;
END-ISO-10303-21;
