ISO-10303-21;
HEADER;
/* Generated by software containing ST-Developer
 * from STEP Tools, Inc. (www.steptools.com) 
 */

FILE_DESCRIPTION(
/* description */ ('TC-Dichtung_Fl25(NW10x1)_EPDM'),
/* implementation_level */ '2;1');

FILE_NAME(
/* name */ 
'L:\\Normteile\\N0005 - Dichtungen\\N0005_004 - Triclamp\\N0005_004_00
1 - Dichtung ohne Schulter - EPDM\\N0005_004_001\\N0005_004_001_12.stp',

/* time_stamp */ '2022-03-25T14:19:39+01:00',
/* author */ ('Csasse'),
/* organization */ ('Dockweiler AG '),
/* preprocessor_version */ 'ST-DEVELOPER v18.1',
/* originating_system */ 'Autodesk Inventor 2020',
/* authorisation */ '');

FILE_SCHEMA (('AUTOMOTIVE_DESIGN { 1 0 10303 214 3 1 1 }'));
ENDSEC;

DATA;
#10=MECHANICAL_DESIGN_GEOMETRIC_PRESENTATION_REPRESENTATION('',(#158,#159,
#160,#161,#162,#163,#164,#165,#166),#343);
#11=SHAPE_REPRESENTATION_RELATIONSHIP('SRR','None',#350,#12);
#12=ADVANCED_BREP_SHAPE_REPRESENTATION('',(#13),#342);
#13=MANIFOLD_SOLID_BREP('Volumenk\X\F6rper1',#175);
#14=LINE('',#319,#16);
#15=LINE('',#339,#17);
#16=VECTOR('',#261,10.9);
#17=VECTOR('',#288,4.1);
#18=CYLINDRICAL_SURFACE('',#209,10.9);
#19=CYLINDRICAL_SURFACE('',#224,4.1);
#20=TOROIDAL_SURFACE('',#200,8.9,0.4);
#21=TOROIDAL_SURFACE('',#204,10.1,0.8);
#22=TOROIDAL_SURFACE('',#213,10.1,0.8);
#23=TOROIDAL_SURFACE('',#217,8.9,0.4);
#24=FACE_BOUND('',#35,.T.);
#25=FACE_BOUND('',#42,.T.);
#26=FACE_OUTER_BOUND('',#34,.T.);
#27=FACE_OUTER_BOUND('',#36,.T.);
#28=FACE_OUTER_BOUND('',#37,.T.);
#29=FACE_OUTER_BOUND('',#38,.T.);
#30=FACE_OUTER_BOUND('',#39,.T.);
#31=FACE_OUTER_BOUND('',#40,.T.);
#32=FACE_OUTER_BOUND('',#41,.T.);
#33=FACE_OUTER_BOUND('',#43,.T.);
#34=EDGE_LOOP('',(#108,#109));
#35=EDGE_LOOP('',(#110,#111));
#36=EDGE_LOOP('',(#112,#113,#114,#115,#116,#117));
#37=EDGE_LOOP('',(#118,#119,#120,#121,#122,#123,#124));
#38=EDGE_LOOP('',(#125,#126,#127,#128,#129,#130,#131,#132));
#39=EDGE_LOOP('',(#133,#134,#135,#136,#137,#138,#139));
#40=EDGE_LOOP('',(#140,#141,#142,#143,#144,#145));
#41=EDGE_LOOP('',(#146,#147));
#42=EDGE_LOOP('',(#148,#149));
#43=EDGE_LOOP('',(#150,#151,#152,#153,#154,#155));
#44=CIRCLE('',#196,8.9);
#45=CIRCLE('',#197,8.9);
#46=CIRCLE('',#198,4.1);
#47=CIRCLE('',#199,4.1);
#48=CIRCLE('',#201,0.4);
#49=CIRCLE('',#202,9.3);
#50=CIRCLE('',#203,9.3);
#51=CIRCLE('',#205,10.9);
#52=CIRCLE('',#206,10.9);
#53=CIRCLE('',#207,10.9);
#54=CIRCLE('',#208,0.8);
#55=CIRCLE('',#210,10.9);
#56=CIRCLE('',#211,10.9);
#57=CIRCLE('',#212,10.9);
#58=CIRCLE('',#214,9.3);
#59=CIRCLE('',#215,9.3);
#60=CIRCLE('',#216,0.8);
#61=CIRCLE('',#218,0.4);
#62=CIRCLE('',#219,8.9);
#63=CIRCLE('',#220,8.9);
#64=CIRCLE('',#222,4.1);
#65=CIRCLE('',#223,4.1);
#66=VERTEX_POINT('',#291);
#67=VERTEX_POINT('',#292);
#68=VERTEX_POINT('',#295);
#69=VERTEX_POINT('',#296);
#70=VERTEX_POINT('',#300);
#71=VERTEX_POINT('',#302);
#72=VERTEX_POINT('',#306);
#73=VERTEX_POINT('',#307);
#74=VERTEX_POINT('',#309);
#75=VERTEX_POINT('',#314);
#76=VERTEX_POINT('',#315);
#77=VERTEX_POINT('',#317);
#78=VERTEX_POINT('',#322);
#79=VERTEX_POINT('',#323);
#80=VERTEX_POINT('',#328);
#81=VERTEX_POINT('',#330);
#82=VERTEX_POINT('',#334);
#83=VERTEX_POINT('',#335);
#84=EDGE_CURVE('',#66,#67,#44,.T.);
#85=EDGE_CURVE('',#67,#66,#45,.T.);
#86=EDGE_CURVE('',#68,#69,#46,.T.);
#87=EDGE_CURVE('',#69,#68,#47,.T.);
#88=EDGE_CURVE('',#67,#70,#48,.T.);
#89=EDGE_CURVE('',#71,#70,#49,.T.);
#90=EDGE_CURVE('',#70,#71,#50,.T.);
#91=EDGE_CURVE('',#72,#73,#51,.T.);
#92=EDGE_CURVE('',#74,#72,#52,.T.);
#93=EDGE_CURVE('',#73,#74,#53,.T.);
#94=EDGE_CURVE('',#73,#70,#54,.T.);
#95=EDGE_CURVE('',#75,#76,#55,.T.);
#96=EDGE_CURVE('',#77,#75,#56,.T.);
#97=EDGE_CURVE('',#77,#74,#14,.T.);
#98=EDGE_CURVE('',#76,#77,#57,.T.);
#99=EDGE_CURVE('',#78,#79,#58,.T.);
#100=EDGE_CURVE('',#79,#78,#59,.T.);
#101=EDGE_CURVE('',#79,#76,#60,.T.);
#102=EDGE_CURVE('',#79,#80,#61,.T.);
#103=EDGE_CURVE('',#81,#80,#62,.T.);
#104=EDGE_CURVE('',#80,#81,#63,.T.);
#105=EDGE_CURVE('',#82,#83,#64,.T.);
#106=EDGE_CURVE('',#83,#82,#65,.T.);
#107=EDGE_CURVE('',#83,#69,#15,.T.);
#108=ORIENTED_EDGE('',*,*,#84,.F.);
#109=ORIENTED_EDGE('',*,*,#85,.F.);
#110=ORIENTED_EDGE('',*,*,#86,.T.);
#111=ORIENTED_EDGE('',*,*,#87,.T.);
#112=ORIENTED_EDGE('',*,*,#84,.T.);
#113=ORIENTED_EDGE('',*,*,#88,.T.);
#114=ORIENTED_EDGE('',*,*,#89,.F.);
#115=ORIENTED_EDGE('',*,*,#90,.F.);
#116=ORIENTED_EDGE('',*,*,#88,.F.);
#117=ORIENTED_EDGE('',*,*,#85,.T.);
#118=ORIENTED_EDGE('',*,*,#91,.F.);
#119=ORIENTED_EDGE('',*,*,#92,.F.);
#120=ORIENTED_EDGE('',*,*,#93,.F.);
#121=ORIENTED_EDGE('',*,*,#94,.T.);
#122=ORIENTED_EDGE('',*,*,#90,.T.);
#123=ORIENTED_EDGE('',*,*,#89,.T.);
#124=ORIENTED_EDGE('',*,*,#94,.F.);
#125=ORIENTED_EDGE('',*,*,#95,.F.);
#126=ORIENTED_EDGE('',*,*,#96,.F.);
#127=ORIENTED_EDGE('',*,*,#97,.T.);
#128=ORIENTED_EDGE('',*,*,#92,.T.);
#129=ORIENTED_EDGE('',*,*,#91,.T.);
#130=ORIENTED_EDGE('',*,*,#93,.T.);
#131=ORIENTED_EDGE('',*,*,#97,.F.);
#132=ORIENTED_EDGE('',*,*,#98,.F.);
#133=ORIENTED_EDGE('',*,*,#99,.F.);
#134=ORIENTED_EDGE('',*,*,#100,.F.);
#135=ORIENTED_EDGE('',*,*,#101,.T.);
#136=ORIENTED_EDGE('',*,*,#98,.T.);
#137=ORIENTED_EDGE('',*,*,#96,.T.);
#138=ORIENTED_EDGE('',*,*,#95,.T.);
#139=ORIENTED_EDGE('',*,*,#101,.F.);
#140=ORIENTED_EDGE('',*,*,#99,.T.);
#141=ORIENTED_EDGE('',*,*,#102,.T.);
#142=ORIENTED_EDGE('',*,*,#103,.F.);
#143=ORIENTED_EDGE('',*,*,#104,.F.);
#144=ORIENTED_EDGE('',*,*,#102,.F.);
#145=ORIENTED_EDGE('',*,*,#100,.T.);
#146=ORIENTED_EDGE('',*,*,#103,.T.);
#147=ORIENTED_EDGE('',*,*,#104,.T.);
#148=ORIENTED_EDGE('',*,*,#105,.F.);
#149=ORIENTED_EDGE('',*,*,#106,.F.);
#150=ORIENTED_EDGE('',*,*,#105,.T.);
#151=ORIENTED_EDGE('',*,*,#107,.T.);
#152=ORIENTED_EDGE('',*,*,#86,.F.);
#153=ORIENTED_EDGE('',*,*,#87,.F.);
#154=ORIENTED_EDGE('',*,*,#107,.F.);
#155=ORIENTED_EDGE('',*,*,#106,.T.);
#156=PLANE('',#195);
#157=PLANE('',#221);
#158=STYLED_ITEM('',(#359),#167);
#159=STYLED_ITEM('',(#359),#168);
#160=STYLED_ITEM('',(#359),#169);
#161=STYLED_ITEM('',(#359),#170);
#162=STYLED_ITEM('',(#359),#171);
#163=STYLED_ITEM('',(#359),#172);
#164=STYLED_ITEM('',(#359),#173);
#165=STYLED_ITEM('',(#359),#174);
#166=STYLED_ITEM('',(#359),#13);
#167=ADVANCED_FACE('',(#26,#24),#156,.T.);
#168=ADVANCED_FACE('',(#27),#20,.F.);
#169=ADVANCED_FACE('',(#28),#21,.T.);
#170=ADVANCED_FACE('',(#29),#18,.T.);
#171=ADVANCED_FACE('',(#30),#22,.T.);
#172=ADVANCED_FACE('',(#31),#23,.F.);
#173=ADVANCED_FACE('',(#32,#25),#157,.T.);
#174=ADVANCED_FACE('',(#33),#19,.F.);
#175=CLOSED_SHELL('',(#167,#168,#169,#170,#171,#172,#173,#174));
#176=DERIVED_UNIT_ELEMENT(#178,1.);
#177=DERIVED_UNIT_ELEMENT(#345,3.);
#178=(
MASS_UNIT()
NAMED_UNIT(*)
SI_UNIT($,.GRAM.)
);
#179=DERIVED_UNIT((#176,#177));
#180=MEASURE_REPRESENTATION_ITEM('density measure',
POSITIVE_RATIO_MEASURE(0.93),#179);
#181=PROPERTY_DEFINITION_REPRESENTATION(#186,#183);
#182=PROPERTY_DEFINITION_REPRESENTATION(#187,#184);
#183=REPRESENTATION('material name',(#185),#342);
#184=REPRESENTATION('density',(#180),#342);
#185=DESCRIPTIVE_REPRESENTATION_ITEM('Gummi','Gummi');
#186=PROPERTY_DEFINITION('material property','material name',#352);
#187=PROPERTY_DEFINITION('material property','density of part',#352);
#188=DATE_TIME_ROLE('creation_date');
#189=APPLIED_DATE_AND_TIME_ASSIGNMENT(#190,#188,(#352));
#190=DATE_AND_TIME(#191,#192);
#191=CALENDAR_DATE(2013,27,2);
#192=LOCAL_TIME(12,48,18.,#193);
#193=COORDINATED_UNIVERSAL_TIME_OFFSET(0,0,.BEHIND.);
#194=AXIS2_PLACEMENT_3D('placement',#289,#225,#226);
#195=AXIS2_PLACEMENT_3D('',#290,#227,#228);
#196=AXIS2_PLACEMENT_3D('',#293,#229,#230);
#197=AXIS2_PLACEMENT_3D('',#294,#231,#232);
#198=AXIS2_PLACEMENT_3D('',#297,#233,#234);
#199=AXIS2_PLACEMENT_3D('',#298,#235,#236);
#200=AXIS2_PLACEMENT_3D('',#299,#237,#238);
#201=AXIS2_PLACEMENT_3D('',#301,#239,#240);
#202=AXIS2_PLACEMENT_3D('',#303,#241,#242);
#203=AXIS2_PLACEMENT_3D('',#304,#243,#244);
#204=AXIS2_PLACEMENT_3D('',#305,#245,#246);
#205=AXIS2_PLACEMENT_3D('',#308,#247,#248);
#206=AXIS2_PLACEMENT_3D('',#310,#249,#250);
#207=AXIS2_PLACEMENT_3D('',#311,#251,#252);
#208=AXIS2_PLACEMENT_3D('',#312,#253,#254);
#209=AXIS2_PLACEMENT_3D('',#313,#255,#256);
#210=AXIS2_PLACEMENT_3D('',#316,#257,#258);
#211=AXIS2_PLACEMENT_3D('',#318,#259,#260);
#212=AXIS2_PLACEMENT_3D('',#320,#262,#263);
#213=AXIS2_PLACEMENT_3D('',#321,#264,#265);
#214=AXIS2_PLACEMENT_3D('',#324,#266,#267);
#215=AXIS2_PLACEMENT_3D('',#325,#268,#269);
#216=AXIS2_PLACEMENT_3D('',#326,#270,#271);
#217=AXIS2_PLACEMENT_3D('',#327,#272,#273);
#218=AXIS2_PLACEMENT_3D('',#329,#274,#275);
#219=AXIS2_PLACEMENT_3D('',#331,#276,#277);
#220=AXIS2_PLACEMENT_3D('',#332,#278,#279);
#221=AXIS2_PLACEMENT_3D('',#333,#280,#281);
#222=AXIS2_PLACEMENT_3D('',#336,#282,#283);
#223=AXIS2_PLACEMENT_3D('',#337,#284,#285);
#224=AXIS2_PLACEMENT_3D('',#338,#286,#287);
#225=DIRECTION('axis',(0.,0.,1.));
#226=DIRECTION('refdir',(1.,0.,0.));
#227=DIRECTION('center_axis',(-2.44929359829471E-16,1.,0.));
#228=DIRECTION('ref_axis',(0.,0.,1.));
#229=DIRECTION('center_axis',(2.44929359829471E-16,-1.,0.));
#230=DIRECTION('ref_axis',(1.,2.70786103567111E-16,0.));
#231=DIRECTION('center_axis',(2.44929359829471E-16,-1.,0.));
#232=DIRECTION('ref_axis',(1.,2.70786103567111E-16,0.));
#233=DIRECTION('center_axis',(2.44929359829471E-16,-1.,0.));
#234=DIRECTION('ref_axis',(1.,2.70786103567111E-16,0.));
#235=DIRECTION('center_axis',(2.44929359829471E-16,-1.,0.));
#236=DIRECTION('ref_axis',(1.,2.70786103567111E-16,0.));
#237=DIRECTION('center_axis',(2.44929359829471E-16,-1.,0.));
#238=DIRECTION('ref_axis',(0.,0.,-1.));
#239=DIRECTION('center_axis',(-1.,-2.44929359829471E-16,-1.22464679914735E-16));
#240=DIRECTION('ref_axis',(-1.22464679914735E-16,0.,1.));
#241=DIRECTION('center_axis',(2.44929359829471E-16,-1.,0.));
#242=DIRECTION('ref_axis',(1.,2.70786103567111E-16,0.));
#243=DIRECTION('center_axis',(2.44929359829471E-16,-1.,0.));
#244=DIRECTION('ref_axis',(1.,2.70786103567111E-16,0.));
#245=DIRECTION('center_axis',(2.44929359829471E-16,-1.,0.));
#246=DIRECTION('ref_axis',(0.,0.,-1.));
#247=DIRECTION('center_axis',(2.44929359829471E-16,-1.,0.));
#248=DIRECTION('ref_axis',(1.,2.70786103567111E-16,0.));
#249=DIRECTION('center_axis',(2.44929359829471E-16,-1.,0.));
#250=DIRECTION('ref_axis',(1.,2.70786103567111E-16,0.));
#251=DIRECTION('center_axis',(2.44929359829471E-16,-1.,0.));
#252=DIRECTION('ref_axis',(1.,2.70786103567111E-16,0.));
#253=DIRECTION('center_axis',(-1.,-2.44929359829471E-16,-1.22464679914735E-16));
#254=DIRECTION('ref_axis',(-1.22464679914735E-16,0.,1.));
#255=DIRECTION('center_axis',(2.44929359829471E-16,-1.,0.));
#256=DIRECTION('ref_axis',(1.,2.70786103567111E-16,0.));
#257=DIRECTION('center_axis',(2.44929359829471E-16,-1.,0.));
#258=DIRECTION('ref_axis',(1.,2.70786103567111E-16,0.));
#259=DIRECTION('center_axis',(2.44929359829471E-16,-1.,0.));
#260=DIRECTION('ref_axis',(1.,2.70786103567111E-16,0.));
#261=DIRECTION('',(-2.44929359829471E-16,1.,0.));
#262=DIRECTION('center_axis',(2.44929359829471E-16,-1.,0.));
#263=DIRECTION('ref_axis',(1.,2.70786103567111E-16,0.));
#264=DIRECTION('center_axis',(2.44929359829471E-16,-1.,0.));
#265=DIRECTION('ref_axis',(0.,0.,-1.));
#266=DIRECTION('center_axis',(2.44929359829471E-16,-1.,0.));
#267=DIRECTION('ref_axis',(1.,2.70786103567111E-16,0.));
#268=DIRECTION('center_axis',(2.44929359829471E-16,-1.,0.));
#269=DIRECTION('ref_axis',(1.,2.70786103567111E-16,0.));
#270=DIRECTION('center_axis',(-1.,-2.44929359829471E-16,-1.22464679914735E-16));
#271=DIRECTION('ref_axis',(-1.22464679914735E-16,0.,1.));
#272=DIRECTION('center_axis',(2.44929359829471E-16,-1.,0.));
#273=DIRECTION('ref_axis',(0.,0.,-1.));
#274=DIRECTION('center_axis',(-1.,-2.44929359829471E-16,-1.22464679914735E-16));
#275=DIRECTION('ref_axis',(-1.22464679914735E-16,0.,1.));
#276=DIRECTION('center_axis',(2.44929359829471E-16,-1.,0.));
#277=DIRECTION('ref_axis',(1.,2.70786103567111E-16,0.));
#278=DIRECTION('center_axis',(2.44929359829471E-16,-1.,0.));
#279=DIRECTION('ref_axis',(1.,2.70786103567111E-16,0.));
#280=DIRECTION('center_axis',(2.44929359829471E-16,-1.,0.));
#281=DIRECTION('ref_axis',(0.,0.,-1.));
#282=DIRECTION('center_axis',(2.44929359829471E-16,-1.,0.));
#283=DIRECTION('ref_axis',(1.,2.70786103567111E-16,0.));
#284=DIRECTION('center_axis',(2.44929359829471E-16,-1.,0.));
#285=DIRECTION('ref_axis',(1.,2.70786103567111E-16,0.));
#286=DIRECTION('center_axis',(2.44929359829471E-16,-1.,0.));
#287=DIRECTION('ref_axis',(1.,2.70786103567111E-16,0.));
#288=DIRECTION('',(-2.44929359829471E-16,1.,0.));
#289=CARTESIAN_POINT('',(0.,0.,0.));
#290=CARTESIAN_POINT('Origin',(6.5,2.1,0.));
#291=CARTESIAN_POINT('',(8.9,2.1,0.));
#292=CARTESIAN_POINT('',(-2.10218693193451E-15,2.1,8.9));
#293=CARTESIAN_POINT('Origin',(-5.14351655641887E-16,2.1,0.));
#294=CARTESIAN_POINT('Origin',(-5.14351655641887E-16,2.1,0.));
#295=CARTESIAN_POINT('',(4.1,2.1,0.));
#296=CARTESIAN_POINT('',(-4.1,2.1,-5.02105187650415E-16));
#297=CARTESIAN_POINT('Origin',(-5.14351655641888E-16,2.1,0.));
#298=CARTESIAN_POINT('Origin',(-5.14351655641888E-16,2.1,0.));
#299=CARTESIAN_POINT('Origin',(-1.11022302462516E-15,2.5,0.));
#300=CARTESIAN_POINT('',(-2.24914454783219E-15,2.5,9.3));
#301=CARTESIAN_POINT('Origin',(-2.2001586758663E-15,2.5,8.9));
#302=CARTESIAN_POINT('',(9.3,2.5,0.));
#303=CARTESIAN_POINT('Origin',(-6.12323399573675E-16,2.5,0.));
#304=CARTESIAN_POINT('Origin',(-6.12323399573675E-16,2.5,0.));
#305=CARTESIAN_POINT('Origin',(0.,2.49999999999999,0.));
#306=CARTESIAN_POINT('',(10.9,2.5,0.));
#307=CARTESIAN_POINT('',(-1.33486501107062E-15,2.5,10.9));
#308=CARTESIAN_POINT('Origin',(-6.12323399573675E-16,2.5,0.));
#309=CARTESIAN_POINT('',(-10.9,2.49999999999999,-1.33486501107062E-15));
#310=CARTESIAN_POINT('Origin',(-6.12323399573675E-16,2.5,0.));
#311=CARTESIAN_POINT('Origin',(-6.12323399573675E-16,2.5,0.));
#312=CARTESIAN_POINT('Origin',(-1.23689326713883E-15,2.49999999999999,10.1));
#313=CARTESIAN_POINT('Origin',(-2.57175827820943E-16,1.05,0.));
#314=CARTESIAN_POINT('',(10.9,-0.400000000000002,0.));
#315=CARTESIAN_POINT('',(-1.33486501107062E-15,-0.400000000000005,10.9));
#316=CARTESIAN_POINT('Origin',(9.79717439317894E-17,-0.400000000000005,
0.));
#317=CARTESIAN_POINT('',(-10.9,-0.400000000000008,-1.33486501107062E-15));
#318=CARTESIAN_POINT('Origin',(9.79717439317894E-17,-0.400000000000005,
0.));
#319=CARTESIAN_POINT('',(-10.9,1.04999999999999,-1.33486501107062E-15));
#320=CARTESIAN_POINT('Origin',(9.79717439317894E-17,-0.400000000000005,
0.));
#321=CARTESIAN_POINT('Origin',(0.,-0.400000000000005,0.));
#322=CARTESIAN_POINT('',(9.3,-0.400000000000002,0.));
#323=CARTESIAN_POINT('',(-1.13892152320704E-15,-0.400000000000005,9.3));
#324=CARTESIAN_POINT('Origin',(9.79717439317894E-17,-0.400000000000005,
0.));
#325=CARTESIAN_POINT('Origin',(9.79717439317894E-17,-0.400000000000005,
0.));
#326=CARTESIAN_POINT('Origin',(-1.23689326713883E-15,-0.400000000000005,
10.1));
#327=CARTESIAN_POINT('Origin',(0.,-0.400000000000004,0.));
#328=CARTESIAN_POINT('',(-1.18790739517293E-15,-4.64905891561784E-15,8.9));
#329=CARTESIAN_POINT('Origin',(-1.08993565124114E-15,-0.400000000000004,
8.9));
#330=CARTESIAN_POINT('',(8.9,-2.49800180540659E-15,0.));
#331=CARTESIAN_POINT('Origin',(1.225974780224E-30,-4.67779027318871E-15,
0.));
#332=CARTESIAN_POINT('Origin',(1.225974780224E-30,-4.67779027318871E-15,
0.));
#333=CARTESIAN_POINT('Origin',(6.5,-5.77926701103349E-15,0.));
#334=CARTESIAN_POINT('',(4.1,-9.06053221666039E-15,0.));
#335=CARTESIAN_POINT('',(-4.1,-1.13797860024079E-14,-5.02105187650415E-16));
#336=CARTESIAN_POINT('Origin',(2.54535716275078E-30,-1.00646487671829E-14,
0.));
#337=CARTESIAN_POINT('Origin',(2.54535716275078E-30,-1.00646487671829E-14,
0.));
#338=CARTESIAN_POINT('Origin',(-2.57175827820943E-16,1.04999999999999,0.));
#339=CARTESIAN_POINT('',(-4.1,1.04999999999999,-5.02105187650415E-16));
#340=UNCERTAINTY_MEASURE_WITH_UNIT(LENGTH_MEASURE(0.01),#344,
'DISTANCE_ACCURACY_VALUE',
'Maximum model space distance between geometric entities at asserted c
onnectivities');
#341=UNCERTAINTY_MEASURE_WITH_UNIT(LENGTH_MEASURE(0.01),#344,
'DISTANCE_ACCURACY_VALUE',
'Maximum model space distance between geometric entities at asserted c
onnectivities');
#342=(
GEOMETRIC_REPRESENTATION_CONTEXT(3)
GLOBAL_UNCERTAINTY_ASSIGNED_CONTEXT((#340))
GLOBAL_UNIT_ASSIGNED_CONTEXT((#344,#346,#347))
REPRESENTATION_CONTEXT('','3D')
);
#343=(
GEOMETRIC_REPRESENTATION_CONTEXT(3)
GLOBAL_UNCERTAINTY_ASSIGNED_CONTEXT((#341))
GLOBAL_UNIT_ASSIGNED_CONTEXT((#344,#346,#347))
REPRESENTATION_CONTEXT('','3D')
);
#344=(
LENGTH_UNIT()
NAMED_UNIT(*)
SI_UNIT(.MILLI.,.METRE.)
);
#345=(
LENGTH_UNIT()
NAMED_UNIT(*)
SI_UNIT(.CENTI.,.METRE.)
);
#346=(
NAMED_UNIT(*)
PLANE_ANGLE_UNIT()
SI_UNIT($,.RADIAN.)
);
#347=(
NAMED_UNIT(*)
SI_UNIT($,.STERADIAN.)
SOLID_ANGLE_UNIT()
);
#348=SHAPE_DEFINITION_REPRESENTATION(#349,#350);
#349=PRODUCT_DEFINITION_SHAPE('',$,#352);
#350=SHAPE_REPRESENTATION('',(#194),#342);
#351=PRODUCT_DEFINITION_CONTEXT('part definition',#356,'design');
#352=PRODUCT_DEFINITION('N0005_004_001_12','N0005_004_001_12',#353,#351);
#353=PRODUCT_DEFINITION_FORMATION('00',$,#358);
#354=PRODUCT_RELATED_PRODUCT_CATEGORY('N0005_004_001_12',
'N0005_004_001_12',(#358));
#355=APPLICATION_PROTOCOL_DEFINITION('international standard',
'automotive_design',2009,#356);
#356=APPLICATION_CONTEXT(
'Core Data for Automotive Mechanical Design Process');
#357=PRODUCT_CONTEXT('part definition',#356,'mechanical');
#358=PRODUCT('N0005_004_001_12','N0005_004_001_12',
'TC-Dichtung_Fl25(NW10x1)_EPDM',(#357));
#359=PRESENTATION_STYLE_ASSIGNMENT((#360));
#360=SURFACE_STYLE_USAGE(.BOTH.,#363);
#361=SURFACE_STYLE_RENDERING_WITH_PROPERTIES($,#367,(#362));
#362=SURFACE_STYLE_TRANSPARENT(0.);
#363=SURFACE_SIDE_STYLE('',(#364,#361));
#364=SURFACE_STYLE_FILL_AREA(#365);
#365=FILL_AREA_STYLE('',(#366));
#366=FILL_AREA_STYLE_COLOUR('',#367);
#367=COLOUR_RGB('',0.250980392156863,0.250980392156863,0.250980392156863);
ENDSEC;
END-ISO-10303-21;
