ISO-10303-21;
HEADER;
FILE_DESCRIPTION (( 'STEP AP203' ),
    '1' );
FILE_NAME ('3D_M8012_DN20_17481110.STEP',
    '2024-09-03T13:55:13',
    ( '' ),
    ( '' ),
    'SwSTEP 2.0',
    'SolidWorks 2024',
    '' );
FILE_SCHEMA (( 'CONFIG_CONTROL_DESIGN' ));
ENDSEC;

DATA;
#1 = COORDINATED_UNIVERSAL_TIME_OFFSET ( 1, 0, .AHEAD. ) ;
#2 = PERSON_AND_ORGANIZATION ( #73, #136 ) ;
#3 = ADVANCED_FACE ( 'NONE', ( #129 ), #51, .T. ) ;
#4 = ORIENTED_EDGE ( 'NONE', *, *, #84, .F. ) ;
#5 = LOCAL_TIME ( 15, 55, 13.00000000000000000, #145 ) ;
#6 = APPROVAL_ROLE ( '' ) ;
#7 = DIRECTION ( 'NONE',  ( 4.596983092540343816E-18, 1.000000000000000000, -0.000000000000000000 ) ) ;
#8 = DATE_AND_TIME ( #165, #114 ) ;
#9 = CIRCLE ( 'NONE', #107, 2.000000000000000000 ) ;
#10 =( GEOMETRIC_REPRESENTATION_CONTEXT ( 3 ) GLOBAL_UNCERTAINTY_ASSIGNED_CONTEXT ( ( #201 ) ) GLOBAL_UNIT_ASSIGNED_CONTEXT ( ( #43, #18, #178 ) ) REPRESENTATION_CONTEXT ( 'NONE', 'WORKASPACE' ) );
#11 = CYLINDRICAL_SURFACE ( 'NONE', #130, 10.00000000000000000 ) ;
#12 = LINE ( 'NONE', #54, #121 ) ;
#13 = FACE_OUTER_BOUND ( 'NONE', #176, .T. ) ;
#14 = APPLICATION_CONTEXT ( 'configuration controlled 3d designs of mechanical parts and assemblies' ) ;
#15 = APPROVAL ( #123, 'UNSPECIFIED' ) ;
#16 = CYLINDRICAL_SURFACE ( 'NONE', #146, 10.00000000000000000 ) ;
#17 = DIRECTION ( 'NONE',  ( 0.000000000000000000, 0.000000000000000000, 1.000000000000000000 ) ) ;
#18 =( NAMED_UNIT ( * ) PLANE_ANGLE_UNIT ( ) SI_UNIT ( $, .RADIAN. ) );
#19 = ORIENTED_EDGE ( 'NONE', *, *, #91, .T. ) ;
#20 = EDGE_CURVE ( 'NONE', #24, #144, #218, .T. ) ;
#21 = DIRECTION ( 'NONE',  ( 1.000000000000000000, 0.000000000000000000, 1.224646799147353207E-16 ) ) ;
#22 = AXIS2_PLACEMENT_3D ( 'NONE', #126, #208, #210 ) ;
#23 = ADVANCED_FACE ( 'NONE', ( #167 ), #187, .T. ) ;
#24 = VERTEX_POINT ( 'NONE', #149 ) ;
#25 = MANIFOLD_SOLID_BREP ( 'Rotation2', #196 ) ;
#26 = DIRECTION ( 'NONE',  ( -1.000000000000000000, 4.596983092540343816E-18, 0.000000000000000000 ) ) ;
#27 = DATE_TIME_ROLE ( 'classification_date' ) ;
#28 = FACE_OUTER_BOUND ( 'NONE', #162, .T. ) ;
#29 = CC_DESIGN_PERSON_AND_ORGANIZATION_ASSIGNMENT ( #217, #38, ( #193 ) ) ;
#30 = LINE ( 'NONE', #79, #81 ) ;
#31 = CIRCLE ( 'NONE', #166, 10.00000000000000000 ) ;
#32 = DIRECTION ( 'NONE',  ( -1.000000000000000000, 0.000000000000000000, 0.000000000000000000 ) ) ;
#33 = DIRECTION ( 'NONE',  ( 4.596983092540343816E-18, 1.000000000000000000, -0.000000000000000000 ) ) ;
#34 = CIRCLE ( 'NONE', #175, 12.00000000000000000 ) ;
#35 = APPROVAL_PERSON_ORGANIZATION ( #75, #62, #58 ) ;
#36 = DIRECTION ( 'NONE',  ( -1.000000000000000000, 0.000000000000000000, 0.000000000000000000 ) ) ;
#37 = DIRECTION ( 'NONE',  ( -0.000000000000000000, 0.000000000000000000, -1.000000000000000000 ) ) ;
#38 = PERSON_AND_ORGANIZATION_ROLE ( 'creator' ) ;
#39 = CC_DESIGN_APPROVAL ( #62, ( #193 ) ) ;
#40 = CARTESIAN_POINT ( 'NONE',  ( 10.00000000000000178, -4.596983092540343816E-17, 1.224646799147353256E-15 ) ) ;
#41 = DESIGN_CONTEXT ( 'detailed design', #14, 'design' ) ;
#42 = EDGE_LOOP ( 'NONE', ( #4, #76, #74, #46 ) ) ;
#43 =( LENGTH_UNIT ( ) NAMED_UNIT ( * ) SI_UNIT ( .MILLI., .METRE. ) );
#44 = CIRCLE ( 'NONE', #127, 10.00000000000000000 ) ;
#45 = PERSON_AND_ORGANIZATION ( #73, #136 ) ;
#46 = ORIENTED_EDGE ( 'NONE', *, *, #98, .F. ) ;
#47 = SECURITY_CLASSIFICATION_LEVEL ( 'unclassified' ) ;
#48 = COORDINATED_UNIVERSAL_TIME_OFFSET ( 1, 0, .AHEAD. ) ;
#49 = CC_DESIGN_DATE_AND_TIME_ASSIGNMENT ( #188, #27, ( #245 ) ) ;
#50 = ORIENTED_EDGE ( 'NONE', *, *, #110, .T. ) ;
#51 = PLANE ( 'NONE',  #22 ) ;
#52 = CIRCLE ( 'NONE', #66, 12.00000000000000000 ) ;
#53 = EDGE_CURVE ( 'NONE', #24, #94, #30, .T. ) ;
#54 = CARTESIAN_POINT ( 'NONE',  ( 10.00000000000001421, 2817.965330118411202, 1.224646799147353256E-15 ) ) ;
#55 = CALENDAR_DATE ( 2024, 3, 9 ) ;
#56 = ADVANCED_FACE ( 'NONE', ( #28 ), #72, .T. ) ;
#57 = ORIENTED_EDGE ( 'NONE', *, *, #98, .T. ) ;
#58 = APPROVAL_ROLE ( '' ) ;
#59 = APPROVAL_STATUS ( 'not_yet_approved' ) ;
#60 = ORIENTED_EDGE ( 'NONE', *, *, #20, .F. ) ;
#61 = DATE_TIME_ROLE ( 'creation_date' ) ;
#62 = APPROVAL ( #230, 'UNSPECIFIED' ) ;
#63 = DIRECTION ( 'NONE',  ( 0.000000000000000000, 0.000000000000000000, 1.000000000000000000 ) ) ;
#64 = ORIENTED_EDGE ( 'NONE', *, *, #147, .T. ) ;
#65 = EDGE_CURVE ( 'NONE', #94, #253, #221, .T. ) ;
#66 = AXIS2_PLACEMENT_3D ( 'NONE', #198, #204, #21 ) ;
#67 = DIRECTION ( 'NONE',  ( -1.000000000000000000, 4.596983092540343816E-18, 0.000000000000000000 ) ) ;
#68 = AXIS2_PLACEMENT_3D ( 'NONE', #137, #33, #191 ) ;
#69 = CARTESIAN_POINT ( 'NONE',  ( 1.387778780781445676E-14, 2817.965330118411202, 0.000000000000000000 ) ) ;
#70 = CARTESIAN_POINT ( 'NONE',  ( 0.000000000000000000, 0.000000000000000000, 0.000000000000000000 ) ) ;
#71 = CARTESIAN_POINT ( 'NONE',  ( 9.600000000000001421, 6.200000000000205347, 1.200153863164406345E-15 ) ) ;
#72 = TOROIDAL_SURFACE ( 'NONE', #172, 8.000000000000000000, 2.000000000000000000 ) ;
#73 = PERSON ( 'UNSPECIFIED', 'UNSPECIFIED', 'UNSPECIFIED', ('UNSPECIFIED'), ('UNSPECIFIED'), ('UNSPECIFIED') ) ;
#74 = ORIENTED_EDGE ( 'NONE', *, *, #53, .T. ) ;
#75 = PERSON_AND_ORGANIZATION ( #73, #136 ) ;
#76 = ORIENTED_EDGE ( 'NONE', *, *, #133, .T. ) ;
#77 = CARTESIAN_POINT ( 'NONE',  ( 1.469576158976823947E-15, -1.000000000000000888, 0.000000000000000000 ) ) ;
#78 = CARTESIAN_POINT ( 'NONE',  ( 9.236488298952508525E-16, 0.000000000000000000, 0.000000000000000000 ) ) ;
#79 = CARTESIAN_POINT ( 'NONE',  ( -9.999999999999985789, 2817.965330118411202, 0.000000000000000000 ) ) ;
#80 = PERSON_AND_ORGANIZATION ( #73, #136 ) ;
#81 = VECTOR ( 'NONE', #7, 1000.000000000000000 ) ;
#82 = DIRECTION ( 'NONE',  ( -1.000000000000000000, 0.000000000000000000, 0.000000000000000000 ) ) ;
#83 = VERTEX_POINT ( 'NONE', #192 ) ;
#84 = EDGE_CURVE ( 'NONE', #144, #163, #12, .T. ) ;
#85 = AXIS2_PLACEMENT_3D ( 'NONE', #70, #17, #247 ) ;
#86 = CARTESIAN_POINT ( 'NONE',  ( -9.999999999999998224, 4.999999999999893419, 0.000000000000000000 ) ) ;
#87 = EDGE_CURVE ( 'NONE', #163, #211, #9, .T. ) ;
#88 = CARTESIAN_POINT ( 'NONE',  ( -9.599999999999997868, 6.200000000000205347, 0.000000000000000000 ) ) ;
#89 = CC_DESIGN_APPROVAL ( #15, ( #245 ) ) ;
#90 = DIRECTION ( 'NONE',  ( -1.000000000000000000, 0.000000000000000000, 0.000000000000000000 ) ) ;
#91 = EDGE_CURVE ( 'NONE', #253, #211, #250, .T. ) ;
#92 = ORIENTED_EDGE ( 'NONE', *, *, #87, .F. ) ;
#93 = MECHANICAL_CONTEXT ( 'NONE', #249, 'mechanical' ) ;
#94 = VERTEX_POINT ( 'NONE', #86 ) ;
#95 = CIRCLE ( 'NONE', #241, 9.599999999999999645 ) ;
#96 = DIRECTION ( 'NONE',  ( 4.596983092540343816E-18, 1.000000000000000000, -0.000000000000000000 ) ) ;
#97 = ORIENTED_EDGE ( 'NONE', *, *, #110, .F. ) ;
#98 = EDGE_CURVE ( 'NONE', #163, #94, #44, .T. ) ;
#99 = APPROVAL_DATE_TIME ( #101, #214 ) ;
#100 = TOROIDAL_SURFACE ( 'NONE', #68, 8.000000000000000000, 2.000000000000000000 ) ;
#101 = DATE_AND_TIME ( #153, #228 ) ;
#102 = PRODUCT_RELATED_PRODUCT_CATEGORY ( 'detail', '', ( #181 ) ) ;
#103 = DIRECTION ( 'NONE',  ( -1.000000000000000000, 4.596983092540343816E-18, 0.000000000000000000 ) ) ;
#104 = APPROVAL_ROLE ( '' ) ;
#105 = DIRECTION ( 'NONE',  ( -0.000000000000000000, 0.000000000000000000, -1.000000000000000000 ) ) ;
#106 = CARTESIAN_POINT ( 'NONE',  ( 1.734723475976807094E-15, 5.000000000000000000, 0.000000000000000000 ) ) ;
#107 = AXIS2_PLACEMENT_3D ( 'NONE', #194, #132, #173 ) ;
#108 = EDGE_LOOP ( 'NONE', ( #117, #64, #50 ) ) ;
#109 = DIRECTION ( 'NONE',  ( -1.000000000000000000, 0.000000000000000000, 0.000000000000000000 ) ) ;
#110 = EDGE_CURVE ( 'NONE', #253, #83, #34, .T. ) ;
#111 = CARTESIAN_POINT ( 'NONE',  ( 1.469576158976823947E-15, -1.000000000000000888, 0.000000000000000000 ) ) ;
#112 = ADVANCED_FACE ( 'NONE', ( #13 ), #100, .T. ) ;
#113 = CARTESIAN_POINT ( 'NONE',  ( 10.00000000000000178, 4.999999999999893419, 1.224646799147353256E-15 ) ) ;
#114 = LOCAL_TIME ( 15, 55, 13.00000000000000000, #1 ) ;
#115 = DIRECTION ( 'NONE',  ( -1.000000000000000000, 0.000000000000000000, 0.000000000000000000 ) ) ;
#116 = FACE_OUTER_BOUND ( 'NONE', #236, .T. ) ;
#117 = ORIENTED_EDGE ( 'NONE', *, *, #225, .F. ) ;
#118 = APPLICATION_PROTOCOL_DEFINITION ( 'international standard', 'config_control_design', 1994, #249 ) ;
#119 = ORIENTED_EDGE ( 'NONE', *, *, #65, .F. ) ;
#120 = CC_DESIGN_DATE_AND_TIME_ASSIGNMENT ( #128, #61, ( #193 ) ) ;
#121 = VECTOR ( 'NONE', #134, 1000.000000000000000 ) ;
#122 = LOCAL_TIME ( 15, 55, 13.00000000000000000, #248 ) ;
#123 = APPROVAL_STATUS ( 'not_yet_approved' ) ;
#124 = DIRECTION ( 'NONE',  ( 4.596983092540343816E-18, 1.000000000000000000, -0.000000000000000000 ) ) ;
#125 = CC_DESIGN_PERSON_AND_ORGANIZATION_ASSIGNMENT ( #80, #239, ( #209 ) ) ;
#126 = CARTESIAN_POINT ( 'NONE',  ( -1.056612677655089051E-34, -2.298491546270171600E-17, 0.000000000000000000 ) ) ;
#127 = AXIS2_PLACEMENT_3D ( 'NONE', #212, #195, #32 ) ;
#128 = DATE_AND_TIME ( #148, #122 ) ;
#129 = FACE_OUTER_BOUND ( 'NONE', #179, .T. ) ;
#130 = AXIS2_PLACEMENT_3D ( 'NONE', #170, #216, #139 ) ;
#131 = CC_DESIGN_SECURITY_CLASSIFICATION ( #245, ( #209 ) ) ;
#132 = DIRECTION ( 'NONE',  ( -1.224646799147353207E-16, 5.629680630014033300E-34, 1.000000000000000000 ) ) ;
#133 = EDGE_CURVE ( 'NONE', #144, #24, #180, .T. ) ;
#134 = DIRECTION ( 'NONE',  ( 4.596983092540343816E-18, 1.000000000000000000, -0.000000000000000000 ) ) ;
#135 = AXIS2_PLACEMENT_3D ( 'NONE', #235, #140, #161 ) ;
#136 = ORGANIZATION ( 'UNSPECIFIED', 'UNSPECIFIED', '' ) ;
#137 = CARTESIAN_POINT ( 'NONE',  ( 1.734723475976807094E-15, 5.000000000000000000, 0.000000000000000000 ) ) ;
#138 = ADVANCED_FACE ( 'NONE', ( #157 ), #11, .T. ) ;
#139 = DIRECTION ( 'NONE',  ( -1.000000000000000000, 0.000000000000000000, 0.000000000000000000 ) ) ;
#140 = DIRECTION ( 'NONE',  ( 0.000000000000000000, 0.000000000000000000, 1.000000000000000000 ) ) ;
#141 = ORIENTED_EDGE ( 'NONE', *, *, #87, .T. ) ;
#142 = FACE_OUTER_BOUND ( 'NONE', #233, .T. ) ;
#143 = ADVANCED_FACE ( 'NONE', ( #116 ), #16, .T. ) ;
#144 = VERTEX_POINT ( 'NONE', #40 ) ;
#145 = COORDINATED_UNIVERSAL_TIME_OFFSET ( 1, 0, .AHEAD. ) ;
#146 = AXIS2_PLACEMENT_3D ( 'NONE', #69, #215, #90 ) ;
#147 = EDGE_CURVE ( 'NONE', #211, #253, #95, .T. ) ;
#148 = CALENDAR_DATE ( 2024, 3, 9 ) ;
#149 = CARTESIAN_POINT ( 'NONE',  ( -9.999999999999998224, 4.596983092540343816E-17, 0.000000000000000000 ) ) ;
#150 = AXIS2_PLACEMENT_3D ( 'NONE', #78, #124, #103 ) ;
#151 = PERSON_AND_ORGANIZATION_ROLE ( 'classification_officer' ) ;
#152 = ORIENTED_EDGE ( 'NONE', *, *, #65, .T. ) ;
#153 = CALENDAR_DATE ( 2024, 3, 9 ) ;
#154 = ADVANCED_FACE ( 'NONE', ( #142 ), #231, .T. ) ;
#155 = ORIENTED_EDGE ( 'NONE', *, *, #91, .F. ) ;
#156 = CC_DESIGN_PERSON_AND_ORGANIZATION_ASSIGNMENT ( #2, #151, ( #245 ) ) ;
#157 = FACE_OUTER_BOUND ( 'NONE', #42, .T. ) ;
#158 = DIRECTION ( 'NONE',  ( 4.596983092540343816E-18, 1.000000000000000000, -0.000000000000000000 ) ) ;
#159 = APPLICATION_PROTOCOL_DEFINITION ( 'international standard', 'config_control_design', 1994, #14 ) ;
#160 = PERSON_AND_ORGANIZATION ( #73, #136 ) ;
#161 = DIRECTION ( 'NONE',  ( -1.000000000000000000, 0.000000000000000000, 0.000000000000000000 ) ) ;
#162 = EDGE_LOOP ( 'NONE', ( #92, #57, #152, #184 ) ) ;
#163 = VERTEX_POINT ( 'NONE', #113 ) ;
#164 = DIRECTION ( 'NONE',  ( 4.596983092540343816E-18, 1.000000000000000000, -0.000000000000000000 ) ) ;
#165 = CALENDAR_DATE ( 2024, 3, 9 ) ;
#166 = AXIS2_PLACEMENT_3D ( 'NONE', #202, #164, #199 ) ;
#167 = FACE_OUTER_BOUND ( 'NONE', #108, .T. ) ;
#168 = CARTESIAN_POINT ( 'NONE',  ( -7.999999999999998224, 5.000000000000000000, 0.000000000000000000 ) ) ;
#169 = ORIENTED_EDGE ( 'NONE', *, *, #53, .F. ) ;
#170 = CARTESIAN_POINT ( 'NONE',  ( 1.387778780781445676E-14, 2817.965330118411202, 0.000000000000000000 ) ) ;
#171 = CC_DESIGN_PERSON_AND_ORGANIZATION_ASSIGNMENT ( #183, #205, ( #209 ) ) ;
#172 = AXIS2_PLACEMENT_3D ( 'NONE', #106, #220, #26 ) ;
#173 = DIRECTION ( 'NONE',  ( 1.000000000000000000, 0.000000000000000000, 1.224646799147353454E-16 ) ) ;
#174 = PERSON_AND_ORGANIZATION_ROLE ( 'design_owner' ) ;
#175 = AXIS2_PLACEMENT_3D ( 'NONE', #111, #37, #109 ) ;
#176 = EDGE_LOOP ( 'NONE', ( #206, #141, #155, #119 ) ) ;
#177 = CARTESIAN_POINT ( 'NONE',  ( 9.521501250690031203E-16, 6.200000000000205347, 0.000000000000000000 ) ) ;
#178 =( NAMED_UNIT ( * ) SI_UNIT ( $, .STERADIAN. ) SOLID_ANGLE_UNIT ( ) );
#179 = EDGE_LOOP ( 'NONE', ( #60, #223 ) ) ;
#180 = CIRCLE ( 'NONE', #213, 10.00000000000000000 ) ;
#181 = PRODUCT ( '3D_M8012_DN20_17481110', '3D_M8012_DN20_17481110', '', ( #93 ) ) ;
#182 = PERSON_AND_ORGANIZATION ( #73, #136 ) ;
#183 = PERSON_AND_ORGANIZATION ( #73, #136 ) ;
#184 = ORIENTED_EDGE ( 'NONE', *, *, #147, .F. ) ;
#185 = CC_DESIGN_APPROVAL ( #214, ( #209 ) ) ;
#186 = CALENDAR_DATE ( 2024, 3, 9 ) ;
#187 = SPHERICAL_SURFACE ( 'NONE', #227, 12.00000000000000000 ) ;
#188 = DATE_AND_TIME ( #186, #243 ) ;
#189 = EDGE_CURVE ( 'NONE', #94, #163, #31, .T. ) ;
#190 = AXIS2_PLACEMENT_3D ( 'NONE', #168, #105, #82 ) ;
#191 = DIRECTION ( 'NONE',  ( -1.000000000000000000, 4.596983092540343816E-18, 0.000000000000000000 ) ) ;
#192 = CARTESIAN_POINT ( 'NONE',  ( 7.899518765988961241E-16, 11.00000000000000000, 0.000000000000000000 ) ) ;
#193 = PRODUCT_DEFINITION ( 'UNKNOWN', '', #209, #41 ) ;
#194 = CARTESIAN_POINT ( 'NONE',  ( 8.000000000000001776, 5.000000000000000000, 9.797174393178825657E-16 ) ) ;
#195 = DIRECTION ( 'NONE',  ( 4.596983092540343816E-18, 1.000000000000000000, -0.000000000000000000 ) ) ;
#196 = CLOSED_SHELL ( 'NONE', ( #154, #112, #143, #3, #138, #56, #23 ) ) ;
#197 = CARTESIAN_POINT ( 'NONE',  ( 9.236488298952508525E-16, 0.000000000000000000, 0.000000000000000000 ) ) ;
#198 = CARTESIAN_POINT ( 'NONE',  ( 1.469576158976823947E-15, -1.000000000000000888, 0.000000000000000000 ) ) ;
#199 = DIRECTION ( 'NONE',  ( -1.000000000000000000, 0.000000000000000000, 0.000000000000000000 ) ) ;
#200 = CC_DESIGN_PERSON_AND_ORGANIZATION_ASSIGNMENT ( #160, #174, ( #181 ) ) ;
#201 = UNCERTAINTY_MEASURE_WITH_UNIT (LENGTH_MEASURE( 1.000000000000000082E-05 ), #43, 'distance_accuracy_value', 'NONE');
#202 = CARTESIAN_POINT ( 'NONE',  ( 9.466337453579520231E-16, 4.999999999999893419, 0.000000000000000000 ) ) ;
#203 = ORIENTED_EDGE ( 'NONE', *, *, #225, .T. ) ;
#204 = DIRECTION ( 'NONE',  ( -1.224646799147353207E-16, 5.629680630014033300E-34, 1.000000000000000000 ) ) ;
#205 = PERSON_AND_ORGANIZATION_ROLE ( 'creator' ) ;
#206 = ORIENTED_EDGE ( 'NONE', *, *, #189, .T. ) ;
#207 = COORDINATED_UNIVERSAL_TIME_OFFSET ( 1, 0, .AHEAD. ) ;
#208 = DIRECTION ( 'NONE',  ( -4.596983092540343816E-18, -1.000000000000000000, 0.000000000000000000 ) ) ;
#209 = PRODUCT_DEFINITION_FORMATION_WITH_SPECIFIED_SOURCE ( 'ANY', '', #181, .NOT_KNOWN. ) ;
#210 = DIRECTION ( 'NONE',  ( 1.000000000000000000, -4.596983092540343816E-18, 0.000000000000000000 ) ) ;
#211 = VERTEX_POINT ( 'NONE', #71 ) ;
#212 = CARTESIAN_POINT ( 'NONE',  ( 9.466337453579520231E-16, 4.999999999999893419, 0.000000000000000000 ) ) ;
#213 = AXIS2_PLACEMENT_3D ( 'NONE', #197, #158, #67 ) ;
#214 = APPROVAL ( #59, 'UNSPECIFIED' ) ;
#215 = DIRECTION ( 'NONE',  ( 4.596983092540343816E-18, 1.000000000000000000, -0.000000000000000000 ) ) ;
#216 = DIRECTION ( 'NONE',  ( 4.596983092540343816E-18, 1.000000000000000000, -0.000000000000000000 ) ) ;
#217 = PERSON_AND_ORGANIZATION ( #73, #136 ) ;
#218 = CIRCLE ( 'NONE', #150, 10.00000000000000000 ) ;
#219 = APPROVAL_DATE_TIME ( #8, #15 ) ;
#220 = DIRECTION ( 'NONE',  ( 4.596983092540343816E-18, 1.000000000000000000, -0.000000000000000000 ) ) ;
#221 = CIRCLE ( 'NONE', #190, 2.000000000000000000 ) ;
#222 = SHAPE_DEFINITION_REPRESENTATION ( #252, #238 ) ;
#223 = ORIENTED_EDGE ( 'NONE', *, *, #133, .F. ) ;
#224 = CARTESIAN_POINT ( 'NONE',  ( 9.521501250690031203E-16, 6.200000000000205347, 0.000000000000000000 ) ) ;
#225 = EDGE_CURVE ( 'NONE', #211, #83, #52, .T. ) ;
#226 = APPROVAL_PERSON_ORGANIZATION ( #182, #214, #104 ) ;
#227 = AXIS2_PLACEMENT_3D ( 'NONE', #77, #63, #237 ) ;
#228 = LOCAL_TIME ( 15, 55, 13.00000000000000000, #207 ) ;
#229 = APPROVAL_DATE_TIME ( #246, #62 ) ;
#230 = APPROVAL_STATUS ( 'not_yet_approved' ) ;
#231 = SPHERICAL_SURFACE ( 'NONE', #135, 12.00000000000000000 ) ;
#232 = AXIS2_PLACEMENT_3D ( 'NONE', #224, #244, #36 ) ;
#233 = EDGE_LOOP ( 'NONE', ( #19, #203, #97 ) ) ;
#234 = APPROVAL_PERSON_ORGANIZATION ( #45, #15, #6 ) ;
#235 = CARTESIAN_POINT ( 'NONE',  ( 1.469576158976823947E-15, -1.000000000000000888, 0.000000000000000000 ) ) ;
#236 = EDGE_LOOP ( 'NONE', ( #240, #251, #242, #169 ) ) ;
#237 = DIRECTION ( 'NONE',  ( -1.000000000000000000, 0.000000000000000000, 0.000000000000000000 ) ) ;
#238 = ADVANCED_BREP_SHAPE_REPRESENTATION ( '3D_M8012_DN20_17481110', ( #25, #85 ), #10 ) ;
#239 = PERSON_AND_ORGANIZATION_ROLE ( 'design_supplier' ) ;
#240 = ORIENTED_EDGE ( 'NONE', *, *, #20, .T. ) ;
#241 = AXIS2_PLACEMENT_3D ( 'NONE', #177, #96, #115 ) ;
#242 = ORIENTED_EDGE ( 'NONE', *, *, #189, .F. ) ;
#243 = LOCAL_TIME ( 15, 55, 13.00000000000000000, #48 ) ;
#244 = DIRECTION ( 'NONE',  ( 4.596983092540343816E-18, 1.000000000000000000, -0.000000000000000000 ) ) ;
#245 = SECURITY_CLASSIFICATION ( '', '', #47 ) ;
#246 = DATE_AND_TIME ( #55, #5 ) ;
#247 = DIRECTION ( 'NONE',  ( 1.000000000000000000, 0.000000000000000000, 0.000000000000000000 ) ) ;
#248 = COORDINATED_UNIVERSAL_TIME_OFFSET ( 1, 0, .AHEAD. ) ;
#249 = APPLICATION_CONTEXT ( 'configuration controlled 3d designs of mechanical parts and assemblies' ) ;
#250 = CIRCLE ( 'NONE', #232, 9.599999999999999645 ) ;
#251 = ORIENTED_EDGE ( 'NONE', *, *, #84, .T. ) ;
#252 = PRODUCT_DEFINITION_SHAPE ( 'NONE', 'NONE',  #193 ) ;
#253 = VERTEX_POINT ( 'NONE', #88 ) ;
ENDSEC;
END-ISO-10303-21;
