ISO-10303-21;
HEADER;
FILE_DESCRIPTION (( 'STEP AP203' ),
    '1' );
FILE_NAME ('OT200-32-42_4x1_6_OSTP.step',
    '2020-12-16T02:16:16',
    ( '' ),
    ( '' ),
    'SwSTEP 2.0',
    'SolidWorks 2014',
    '' );
FILE_SCHEMA (( 'CONFIG_CONTROL_DESIGN' ));
ENDSEC;

DATA;
#1 = APPROVAL ( #201, 'UNSPECIFIED' ) ;
#2 = CIRCLE ( 'NONE', #250, 19.59999999999999800 ) ;
#3 = PERSON_AND_ORGANIZATION_ROLE ( 'classification_officer' ) ;
#4 =( NAMED_UNIT ( * ) SI_UNIT ( $, .STERADIAN. ) SOLID_ANGLE_UNIT ( ) );
#5 = LOCAL_TIME ( 3, 16, 16.00000000000000000, #232 ) ;
#6 = ORIENTED_EDGE ( 'NONE', *, *, #176, .T. ) ;
#7 = AXIS2_PLACEMENT_3D ( 'NONE', #223, #50, #102 ) ;
#8 = FACE_OUTER_BOUND ( 'NONE', #173, .T. ) ;
#9 = APPROVAL ( #161, 'UNSPECIFIED' ) ;
#10 = TOROIDAL_SURFACE ( 'NONE', #66, 47.50000000000000000, 19.59999999999999800 ) ;
#11 = ORIENTED_EDGE ( 'NONE', *, *, #114, .T. ) ;
#12 = DIRECTION ( 'NONE',  ( 1.000000000000000000, 0.0000000000000000000, 0.0000000000000000000 ) ) ;
#13 = APPROVAL_PERSON_ORGANIZATION ( #24, #9, #63 ) ;
#14 = CARTESIAN_POINT ( 'NONE',  ( 47.50000000000000000, 67.09999999999999400, 0.0000000000000000000 ) ) ;
#15 = DIRECTION ( 'NONE',  ( 0.0000000000000000000, 0.0000000000000000000, 1.000000000000000000 ) ) ;
#16 = ORIENTED_EDGE ( 'NONE', *, *, #123, .F. ) ;
#17 = EDGE_CURVE ( 'NONE', #129, #115, #82, .T. ) ;
#18 = UNCERTAINTY_MEASURE_WITH_UNIT (LENGTH_MEASURE( 1.000000000000000100E-005 ), #139, 'distance_accuracy_value', 'NONE');
#19 = LOCAL_TIME ( 3, 16, 16.00000000000000000, #40 ) ;
#20 = LOCAL_TIME ( 3, 16, 16.00000000000000000, #225 ) ;
#21 = CC_DESIGN_APPROVAL ( #9, ( #224 ) ) ;
#22 = PERSON_AND_ORGANIZATION ( #172, #72 ) ;
#23 = CARTESIAN_POINT ( 'NONE',  ( 47.50000000000000000, 0.0000000000000000000, 0.0000000000000000000 ) ) ;
#24 = PERSON_AND_ORGANIZATION ( #172, #72 ) ;
#25 = CC_DESIGN_APPROVAL ( #1, ( #236 ) ) ;
#26 = DESIGN_CONTEXT ( 'detailed design', #231, 'design' ) ;
#27 = CIRCLE ( 'NONE', #7, 19.59999999999999100 ) ;
#28 = CARTESIAN_POINT ( 'NONE',  ( 0.0000000000000000000, 0.0000000000000000000, 0.0000000000000000000 ) ) ;
#29 = AXIS2_PLACEMENT_3D ( 'NONE', #245, #150, #128 ) ;
#30 = DATE_AND_TIME ( #146, #5 ) ;
#31 = CARTESIAN_POINT ( 'NONE',  ( 47.50000000000000000, 0.0000000000000000000, 0.0000000000000000000 ) ) ;
#32 = DIRECTION ( 'NONE',  ( 0.0000000000000000000, 0.0000000000000000000, 1.000000000000000000 ) ) ;
#33 = ADVANCED_FACE ( 'NONE', ( #175 ), #10, .F. ) ;
#34 = CARTESIAN_POINT ( 'NONE',  ( -19.59999999999999400, 0.0000000000000000000, 0.0000000000000000000 ) ) ;
#35 = CC_DESIGN_PERSON_AND_ORGANIZATION_ASSIGNMENT ( #90, #96, ( #224 ) ) ;
#36 = CARTESIAN_POINT ( 'NONE',  ( 47.50000000000000000, 47.50000000000000000, 0.0000000000000000000 ) ) ;
#37 = ADVANCED_FACE ( 'NONE', ( #221 ), #168, .T. ) ;
#38 = EDGE_CURVE ( 'NONE', #103, #132, #27, .T. ) ;
#39 = CARTESIAN_POINT ( 'NONE',  ( 0.0000000000000000000, 0.0000000000000000000, 0.0000000000000000000 ) ) ;
#40 = COORDINATED_UNIVERSAL_TIME_OFFSET ( 1, 0, .AHEAD. ) ;
#41 = DIRECTION ( 'NONE',  ( 0.0000000000000000000, 1.000000000000000000, 0.0000000000000000000 ) ) ;
#42 = PERSON_AND_ORGANIZATION_ROLE ( 'design_supplier' ) ;
#43 = AXIS2_PLACEMENT_3D ( 'NONE', #251, #15, #195 ) ;
#44 = CALENDAR_DATE ( 2020, 16, 12 ) ;
#45 = VERTEX_POINT ( 'NONE', #149 ) ;
#46 = DIRECTION ( 'NONE',  ( 0.0000000000000000000, 0.0000000000000000000, 1.000000000000000000 ) ) ;
#47 = DIRECTION ( 'NONE',  ( 0.0000000000000000000, 1.000000000000000000, 0.0000000000000000000 ) ) ;
#48 = SECURITY_CLASSIFICATION ( '', '', #200 ) ;
#49 = ORIENTED_EDGE ( 'NONE', *, *, #38, .F. ) ;
#50 = DIRECTION ( 'NONE',  ( 1.000000000000000000, 6.123233995736766000E-017, 0.0000000000000000000 ) ) ;
#51 = AXIS2_PLACEMENT_3D ( 'NONE', #215, #41, #137 ) ;
#52 = CARTESIAN_POINT ( 'NONE',  ( 47.49999999999998600, 68.70000000000000300, 0.0000000000000000000 ) ) ;
#53 = PERSON_AND_ORGANIZATION ( #172, #72 ) ;
#54 = CIRCLE ( 'NONE', #43, 27.89999999999999500 ) ;
#55 = CC_DESIGN_DATE_AND_TIME_ASSIGNMENT ( #239, #158, ( #224 ) ) ;
#56 = CARTESIAN_POINT ( 'NONE',  ( 47.49999999999999300, 26.30000000000000100, -2.596251214192388800E-015 ) ) ;
#57 = AXIS2_PLACEMENT_3D ( 'NONE', #105, #124, #148 ) ;
#58 = ADVANCED_FACE ( 'NONE', ( #111, #196 ), #166, .T. ) ;
#59 = CALENDAR_DATE ( 2020, 16, 12 ) ;
#60 = FACE_OUTER_BOUND ( 'NONE', #93, .T. ) ;
#61 = CC_DESIGN_SECURITY_CLASSIFICATION ( #48, ( #236 ) ) ;
#62 = CARTESIAN_POINT ( 'NONE',  ( 0.0000000000000000000, 0.0000000000000000000, 0.0000000000000000000 ) ) ;
#63 = APPROVAL_ROLE ( '' ) ;
#64 = CC_DESIGN_PERSON_AND_ORGANIZATION_ASSIGNMENT ( #192, #76, ( #236 ) ) ;
#65 = SHAPE_DEFINITION_REPRESENTATION ( #169, #237 ) ;
#66 = AXIS2_PLACEMENT_3D ( 'NONE', #145, #189, #165 ) ;
#67 = ORIENTED_EDGE ( 'NONE', *, *, #123, .T. ) ;
#68 = AXIS2_PLACEMENT_3D ( 'NONE', #249, #91, #153 ) ;
#69 = DIRECTION ( 'NONE',  ( 0.0000000000000000000, 0.0000000000000000000, 1.000000000000000000 ) ) ;
#70 = PRODUCT_RELATED_PRODUCT_CATEGORY ( 'detail', '', ( #226 ) ) ;
#71 = PERSON_AND_ORGANIZATION ( #172, #72 ) ;
#72 = ORGANIZATION ( 'UNSPECIFIED', 'UNSPECIFIED', '' ) ;
#73 = AXIS2_PLACEMENT_3D ( 'NONE', #62, #218, #199 ) ;
#74 = APPROVAL_ROLE ( '' ) ;
#75 = AXIS2_PLACEMENT_3D ( 'NONE', #23, #117, #178 ) ;
#76 = PERSON_AND_ORGANIZATION_ROLE ( 'creator' ) ;
#77 = ORIENTED_EDGE ( 'NONE', *, *, #85, .F. ) ;
#78 =( NAMED_UNIT ( * ) PLANE_ANGLE_UNIT ( ) SI_UNIT ( $, .RADIAN. ) );
#79 = AXIS2_PLACEMENT_3D ( 'NONE', #39, #159, #182 ) ;
#80 = APPROVAL_PERSON_ORGANIZATION ( #53, #99, #133 ) ;
#81 = DIRECTION ( 'NONE',  ( 0.0000000000000000000, 0.0000000000000000000, 1.000000000000000000 ) ) ;
#82 = CIRCLE ( 'NONE', #230, 68.70000000000000300 ) ;
#83 = EDGE_LOOP ( 'NONE', ( #49, #16 ) ) ;
#84 = VERTEX_POINT ( 'NONE', #34 ) ;
#85 = EDGE_CURVE ( 'NONE', #129, #157, #106, .T. ) ;
#86 = CC_DESIGN_DATE_AND_TIME_ASSIGNMENT ( #156, #112, ( #48 ) ) ;
#87 = DIRECTION ( 'NONE',  ( 1.000000000000000000, 6.123233995736766000E-017, 0.0000000000000000000 ) ) ;
#88 = APPROVAL_DATE_TIME ( #30, #99 ) ;
#89 = CC_DESIGN_PERSON_AND_ORGANIZATION_ASSIGNMENT ( #134, #3, ( #48 ) ) ;
#90 = PERSON_AND_ORGANIZATION ( #172, #72 ) ;
#91 = DIRECTION ( 'NONE',  ( 0.0000000000000000000, 1.000000000000000000, 0.0000000000000000000 ) ) ;
#92 = DIRECTION ( 'NONE',  ( 0.0000000000000000000, 0.0000000000000000000, 1.000000000000000000 ) ) ;
#93 = EDGE_LOOP ( 'NONE', ( #234, #6, #152, #193 ) ) ;
#94 = MECHANICAL_CONTEXT ( 'NONE', #198, 'mechanical' ) ;
#95 = CIRCLE ( 'NONE', #220, 67.09999999999999400 ) ;
#96 = PERSON_AND_ORGANIZATION_ROLE ( 'creator' ) ;
#97 = VERTEX_POINT ( 'NONE', #246 ) ;
#98 = PERSON_AND_ORGANIZATION_ROLE ( 'design_owner' ) ;
#99 = APPROVAL ( #235, 'UNSPECIFIED' ) ;
#100 = TOROIDAL_SURFACE ( 'NONE', #75, 47.50000000000000000, 21.19999999999999900 ) ;
#101 = DIRECTION ( 'NONE',  ( 0.0000000000000000000, 0.0000000000000000000, 1.000000000000000000 ) ) ;
#102 = DIRECTION ( 'NONE',  ( 0.0000000000000000000, 1.000000000000000000, 0.0000000000000000000 ) ) ;
#103 = VERTEX_POINT ( 'NONE', #243 ) ;
#104 = EDGE_CURVE ( 'NONE', #157, #129, #241, .T. ) ;
#105 = CARTESIAN_POINT ( 'NONE',  ( 47.50000000000000000, 0.0000000000000000000, 0.0000000000000000000 ) ) ;
#106 = CIRCLE ( 'NONE', #181, 21.19999999999999900 ) ;
#107 = ORIENTED_EDGE ( 'NONE', *, *, #144, .F. ) ;
#108 = CARTESIAN_POINT ( 'NONE',  ( 47.49999999999999300, 47.50000000000000000, 0.0000000000000000000 ) ) ;
#109 =( GEOMETRIC_REPRESENTATION_CONTEXT ( 3 ) GLOBAL_UNCERTAINTY_ASSIGNED_CONTEXT ( ( #18 ) ) GLOBAL_UNIT_ASSIGNED_CONTEXT ( ( #139, #78, #4 ) ) REPRESENTATION_CONTEXT ( 'NONE', 'WORKASPACE' ) );
#110 = PERSON_AND_ORGANIZATION ( #172, #72 ) ;
#111 = FACE_BOUND ( 'NONE', #83, .T. ) ;
#112 = DATE_TIME_ROLE ( 'classification_date' ) ;
#113 = APPLICATION_PROTOCOL_DEFINITION ( 'international standard', 'config_control_design', 1994, #198 ) ;
#114 = EDGE_CURVE ( 'NONE', #157, #45, #214, .T. ) ;
#115 = VERTEX_POINT ( 'NONE', #174 ) ;
#116 = EDGE_LOOP ( 'NONE', ( #212, #160 ) ) ;
#117 = DIRECTION ( 'NONE',  ( 0.0000000000000000000, 0.0000000000000000000, 1.000000000000000000 ) ) ;
#118 = EDGE_CURVE ( 'NONE', #103, #97, #54, .T. ) ;
#119 = PLANE ( 'NONE',  #73 ) ;
#120 = CARTESIAN_POINT ( 'NONE',  ( 47.50000000000000000, 0.0000000000000000000, 0.0000000000000000000 ) ) ;
#121 = ORIENTED_EDGE ( 'NONE', *, *, #144, .T. ) ;
#122 = ORIENTED_EDGE ( 'NONE', *, *, #85, .T. ) ;
#123 = EDGE_CURVE ( 'NONE', #132, #103, #177, .T. ) ;
#124 = DIRECTION ( 'NONE',  ( 0.0000000000000000000, 0.0000000000000000000, 1.000000000000000000 ) ) ;
#125 = COORDINATED_UNIVERSAL_TIME_OFFSET ( 1, 0, .AHEAD. ) ;
#126 = CLOSED_SHELL ( 'NONE', ( #209, #252, #37, #58, #229, #33 ) ) ;
#127 = DIRECTION ( 'NONE',  ( 1.000000000000000000, 6.123233995736766000E-017, 0.0000000000000000000 ) ) ;
#128 = DIRECTION ( 'NONE',  ( 0.0000000000000000000, 0.0000000000000000000, 1.000000000000000000 ) ) ;
#129 = VERTEX_POINT ( 'NONE', #52 ) ;
#130 = CARTESIAN_POINT ( 'NONE',  ( 47.49999999999999300, 47.50000000000000000, 0.0000000000000000000 ) ) ;
#131 = APPROVAL_PERSON_ORGANIZATION ( #110, #1, #74 ) ;
#132 = VERTEX_POINT ( 'NONE', #14 ) ;
#133 = APPROVAL_ROLE ( '' ) ;
#134 = PERSON_AND_ORGANIZATION ( #172, #72 ) ;
#135 = FACE_BOUND ( 'NONE', #233, .T. ) ;
#136 = EDGE_LOOP ( 'NONE', ( #143, #67, #187, #107 ) ) ;
#137 = DIRECTION ( 'NONE',  ( 0.0000000000000000000, 0.0000000000000000000, 1.000000000000000000 ) ) ;
#138 = CC_DESIGN_PERSON_AND_ORGANIZATION_ASSIGNMENT ( #71, #42, ( #236 ) ) ;
#139 =( LENGTH_UNIT ( ) NAMED_UNIT ( * ) SI_UNIT ( .MILLI., .METRE. ) );
#140 = DIRECTION ( 'NONE',  ( 0.0000000000000000000, 1.000000000000000000, 0.0000000000000000000 ) ) ;
#141 = APPROVAL_DATE_TIME ( #167, #1 ) ;
#142 = CALENDAR_DATE ( 2020, 16, 12 ) ;
#143 = ORIENTED_EDGE ( 'NONE', *, *, #176, .F. ) ;
#144 = EDGE_CURVE ( 'NONE', #84, #97, #162, .T. ) ;
#145 = CARTESIAN_POINT ( 'NONE',  ( 47.50000000000000000, 0.0000000000000000000, 0.0000000000000000000 ) ) ;
#146 = CALENDAR_DATE ( 2020, 16, 12 ) ;
#147 = ORIENTED_EDGE ( 'NONE', *, *, #244, .T. ) ;
#148 = DIRECTION ( 'NONE',  ( 1.000000000000000000, 0.0000000000000000000, 0.0000000000000000000 ) ) ;
#149 = CARTESIAN_POINT ( 'NONE',  ( 21.19999999999999900, 0.0000000000000000000, -2.596251214192388800E-015 ) ) ;
#150 = DIRECTION ( 'NONE',  ( 1.000000000000000000, 6.123233995736766000E-017, -0.0000000000000000000 ) ) ;
#151 = LOCAL_TIME ( 3, 16, 16.00000000000000000, #186 ) ;
#152 = ORIENTED_EDGE ( 'NONE', *, *, #203, .F. ) ;
#153 = DIRECTION ( 'NONE',  ( 0.0000000000000000000, 0.0000000000000000000, 1.000000000000000000 ) ) ;
#154 = CC_DESIGN_APPROVAL ( #99, ( #48 ) ) ;
#155 = EDGE_LOOP ( 'NONE', ( #197, #122 ) ) ;
#156 = DATE_AND_TIME ( #44, #151 ) ;
#157 = VERTEX_POINT ( 'NONE', #56 ) ;
#158 = DATE_TIME_ROLE ( 'creation_date' ) ;
#159 = DIRECTION ( 'NONE',  ( 0.0000000000000000000, 0.0000000000000000000, 1.000000000000000000 ) ) ;
#160 = ORIENTED_EDGE ( 'NONE', *, *, #244, .F. ) ;
#161 = APPROVAL_STATUS ( 'not_yet_approved' ) ;
#162 = CIRCLE ( 'NONE', #68, 19.59999999999999800 ) ;
#163 = ORIENTED_EDGE ( 'NONE', *, *, #114, .F. ) ;
#164 = AXIS2_PLACEMENT_3D ( 'NONE', #191, #92, #228 ) ;
#165 = DIRECTION ( 'NONE',  ( 1.000000000000000000, 0.0000000000000000000, 0.0000000000000000000 ) ) ;
#166 = PLANE ( 'NONE',  #29 ) ;
#167 = DATE_AND_TIME ( #59, #207 ) ;
#168 = TOROIDAL_SURFACE ( 'NONE', #57, 47.50000000000000000, 21.19999999999999900 ) ;
#169 = PRODUCT_DEFINITION_SHAPE ( 'NONE', 'NONE',  #224 ) ;
#170 = EDGE_CURVE ( 'NONE', #45, #115, #208, .T. ) ;
#171 = DIRECTION ( 'NONE',  ( 0.0000000000000000000, 1.000000000000000000, 0.0000000000000000000 ) ) ;
#172 = PERSON ( 'UNSPECIFIED', 'UNSPECIFIED', 'UNSPECIFIED', ('UNSPECIFIED'), ('UNSPECIFIED'), ('UNSPECIFIED') ) ;
#173 = EDGE_LOOP ( 'NONE', ( #77, #183, #147, #163 ) ) ;
#174 = CARTESIAN_POINT ( 'NONE',  ( -21.19999999999999600, 0.0000000000000000000, 0.0000000000000000000 ) ) ;
#175 = FACE_OUTER_BOUND ( 'NONE', #136, .T. ) ;
#176 = EDGE_CURVE ( 'NONE', #132, #84, #95, .T. ) ;
#177 = CIRCLE ( 'NONE', #184, 19.59999999999999100 ) ;
#178 = DIRECTION ( 'NONE',  ( 1.000000000000000000, 0.0000000000000000000, 0.0000000000000000000 ) ) ;
#179 = CIRCLE ( 'NONE', #51, 21.19999999999999900 ) ;
#180 = APPLICATION_PROTOCOL_DEFINITION ( 'international standard', 'config_control_design', 1994, #231 ) ;
#181 = AXIS2_PLACEMENT_3D ( 'NONE', #108, #87, #69 ) ;
#182 = DIRECTION ( 'NONE',  ( 1.000000000000000000, 0.0000000000000000000, 0.0000000000000000000 ) ) ;
#183 = ORIENTED_EDGE ( 'NONE', *, *, #17, .T. ) ;
#184 = AXIS2_PLACEMENT_3D ( 'NONE', #36, #127, #171 ) ;
#185 = ORIENTED_EDGE ( 'NONE', *, *, #170, .T. ) ;
#186 = COORDINATED_UNIVERSAL_TIME_OFFSET ( 1, 0, .AHEAD. ) ;
#187 = ORIENTED_EDGE ( 'NONE', *, *, #118, .T. ) ;
#188 = CC_DESIGN_PERSON_AND_ORGANIZATION_ASSIGNMENT ( #22, #98, ( #226 ) ) ;
#189 = DIRECTION ( 'NONE',  ( 0.0000000000000000000, 0.0000000000000000000, 1.000000000000000000 ) ) ;
#190 = DIRECTION ( 'NONE',  ( 1.000000000000000000, 6.123233995736766000E-017, 0.0000000000000000000 ) ) ;
#191 = CARTESIAN_POINT ( 'NONE',  ( 47.50000000000000000, 0.0000000000000000000, -2.596251214192388800E-015 ) ) ;
#192 = PERSON_AND_ORGANIZATION ( #172, #72 ) ;
#193 = ORIENTED_EDGE ( 'NONE', *, *, #118, .F. ) ;
#194 = DIRECTION ( 'NONE',  ( 0.0000000000000000000, 0.0000000000000000000, 1.000000000000000000 ) ) ;
#195 = DIRECTION ( 'NONE',  ( 1.000000000000000000, 0.0000000000000000000, 0.0000000000000000000 ) ) ;
#196 = FACE_OUTER_BOUND ( 'NONE', #155, .T. ) ;
#197 = ORIENTED_EDGE ( 'NONE', *, *, #104, .T. ) ;
#198 = APPLICATION_CONTEXT ( 'configuration controlled 3d designs of mechanical parts and assemblies' ) ;
#199 = DIRECTION ( 'NONE',  ( 0.0000000000000000000, -0.0000000000000000000, 1.000000000000000000 ) ) ;
#200 = SECURITY_CLASSIFICATION_LEVEL ( 'unclassified' ) ;
#201 = APPROVAL_STATUS ( 'not_yet_approved' ) ;
#202 = DIRECTION ( 'NONE',  ( 0.0000000000000000000, 0.0000000000000000000, 1.000000000000000000 ) ) ;
#203 = EDGE_CURVE ( 'NONE', #97, #84, #2, .T. ) ;
#204 = MANIFOLD_SOLID_BREP ( 'cut-body', #126 ) ;
#205 = DIRECTION ( 'NONE',  ( 1.000000000000000000, 0.0000000000000000000, 0.0000000000000000000 ) ) ;
#206 = AXIS2_PLACEMENT_3D ( 'NONE', #120, #46, #205 ) ;
#207 = LOCAL_TIME ( 3, 16, 16.00000000000000000, #125 ) ;
#208 = CIRCLE ( 'NONE', #210, 21.19999999999999900 ) ;
#209 = ADVANCED_FACE ( 'NONE', ( #60 ), #211, .F. ) ;
#210 = AXIS2_PLACEMENT_3D ( 'NONE', #240, #47, #101 ) ;
#211 = TOROIDAL_SURFACE ( 'NONE', #206, 47.50000000000000000, 19.59999999999999800 ) ;
#212 = ORIENTED_EDGE ( 'NONE', *, *, #170, .F. ) ;
#213 = AXIS2_PLACEMENT_3D ( 'NONE', #130, #190, #194 ) ;
#214 = CIRCLE ( 'NONE', #164, 26.30000000000000400 ) ;
#215 = CARTESIAN_POINT ( 'NONE',  ( 0.0000000000000000000, 0.0000000000000000000, 0.0000000000000000000 ) ) ;
#216 = CALENDAR_DATE ( 2020, 16, 12 ) ;
#217 = APPROVAL_DATE_TIME ( #247, #9 ) ;
#218 = DIRECTION ( 'NONE',  ( 0.0000000000000000000, 1.000000000000000000, 0.0000000000000000000 ) ) ;
#219 = CARTESIAN_POINT ( 'NONE',  ( 47.50000000000000000, 0.0000000000000000000, 0.0000000000000000000 ) ) ;
#220 = AXIS2_PLACEMENT_3D ( 'NONE', #219, #81, #238 ) ;
#221 = FACE_OUTER_BOUND ( 'NONE', #253, .T. ) ;
#222 = ORIENTED_EDGE ( 'NONE', *, *, #104, .F. ) ;
#223 = CARTESIAN_POINT ( 'NONE',  ( 47.50000000000000000, 47.50000000000000000, 0.0000000000000000000 ) ) ;
#224 = PRODUCT_DEFINITION ( 'UNKNOWN', '', #236, #26 ) ;
#225 = COORDINATED_UNIVERSAL_TIME_OFFSET ( 1, 0, .AHEAD. ) ;
#226 = PRODUCT ( 'OT200-32-42_4x1_6_OSTP', 'OT200-32-42_4x1_6_OSTP', '', ( #94 ) ) ;
#227 = FACE_OUTER_BOUND ( 'NONE', #116, .T. ) ;
#228 = DIRECTION ( 'NONE',  ( 1.000000000000000000, 0.0000000000000000000, 0.0000000000000000000 ) ) ;
#229 = ADVANCED_FACE ( 'NONE', ( #135, #227 ), #119, .F. ) ;
#230 = AXIS2_PLACEMENT_3D ( 'NONE', #31, #32, #12 ) ;
#231 = APPLICATION_CONTEXT ( 'configuration controlled 3d designs of mechanical parts and assemblies' ) ;
#232 = COORDINATED_UNIVERSAL_TIME_OFFSET ( 1, 0, .AHEAD. ) ;
#233 = EDGE_LOOP ( 'NONE', ( #242, #121 ) ) ;
#234 = ORIENTED_EDGE ( 'NONE', *, *, #38, .T. ) ;
#235 = APPROVAL_STATUS ( 'not_yet_approved' ) ;
#236 = PRODUCT_DEFINITION_FORMATION_WITH_SPECIFIED_SOURCE ( 'ANY', '', #226, .NOT_KNOWN. ) ;
#237 = ADVANCED_BREP_SHAPE_REPRESENTATION ( 'OT200-32-42_4x1_6_OSTP', ( #204, #79 ), #109 ) ;
#238 = DIRECTION ( 'NONE',  ( 1.000000000000000000, 0.0000000000000000000, 0.0000000000000000000 ) ) ;
#239 = DATE_AND_TIME ( #216, #19 ) ;
#240 = CARTESIAN_POINT ( 'NONE',  ( 0.0000000000000000000, 0.0000000000000000000, 0.0000000000000000000 ) ) ;
#241 = CIRCLE ( 'NONE', #213, 21.19999999999999900 ) ;
#242 = ORIENTED_EDGE ( 'NONE', *, *, #203, .T. ) ;
#243 = CARTESIAN_POINT ( 'NONE',  ( 47.50000000000000000, 27.90000000000000200, -2.400307726328812300E-015 ) ) ;
#244 = EDGE_CURVE ( 'NONE', #115, #45, #179, .T. ) ;
#245 = CARTESIAN_POINT ( 'NONE',  ( 47.49999999999999300, 47.50000000000000000, 0.0000000000000000000 ) ) ;
#246 = CARTESIAN_POINT ( 'NONE',  ( 19.59999999999999800, 0.0000000000000000000, -2.400307726328812300E-015 ) ) ;
#247 = DATE_AND_TIME ( #142, #20 ) ;
#248 = ORIENTED_EDGE ( 'NONE', *, *, #17, .F. ) ;
#249 = CARTESIAN_POINT ( 'NONE',  ( 0.0000000000000000000, 0.0000000000000000000, 0.0000000000000000000 ) ) ;
#250 = AXIS2_PLACEMENT_3D ( 'NONE', #28, #140, #202 ) ;
#251 = CARTESIAN_POINT ( 'NONE',  ( 47.50000000000000000, 0.0000000000000000000, -2.400307726328812300E-015 ) ) ;
#252 = ADVANCED_FACE ( 'NONE', ( #8 ), #100, .T. ) ;
#253 = EDGE_LOOP ( 'NONE', ( #248, #222, #11, #185 ) ) ;
ENDSEC;
END-ISO-10303-21;
