ISO-10303-21;
HEADER;
FILE_DESCRIPTION (( 'STEP AP203' ),
    '1' );
FILE_NAME ('11-0216-06_outokumpu.step',
    '2015-08-11T14:13:44',
    ( '' ),
    ( '' ),
    'SwSTEP 2.0',
    'SolidWorks 2008',
    '' );
FILE_SCHEMA (( 'CONFIG_CONTROL_DESIGN' ));
ENDSEC;

DATA;
#1 = ORIENTED_EDGE ( 'NONE', *, *, #41, .F. ) ;
#2 = VERTEX_POINT ( 'NONE', #112 ) ;
#3 = VERTEX_POINT ( 'NONE', #111 ) ;
#4 = ORIENTED_EDGE ( 'NONE', *, *, #120, .T. ) ;
#5 = VERTEX_POINT ( 'NONE', #110 ) ;
#6 = ORIENTED_EDGE ( 'NONE', *, *, #11, .T. ) ;
#7 = VERTEX_POINT ( 'NONE', #109 ) ;
#8 = VERTEX_POINT ( 'NONE', #134 ) ;
#9 = ORIENTED_EDGE ( 'NONE', *, *, #28, .T. ) ;
#10 = ORIENTED_EDGE ( 'NONE', *, *, #20, .T. ) ;
#11 = EDGE_CURVE ( 'NONE', #7, #2, #133, .T. ) ;
#12 = DIRECTION ( 'NONE',  ( 1.000000000000000000, 0.0000000000000000000, 0.0000000000000000000 ) ) ;
#13 = VERTEX_POINT ( 'NONE', #129 ) ;
#14 = DIRECTION ( 'NONE',  ( -0.0000000000000000000, -0.0000000000000000000, 1.000000000000000000 ) ) ;
#15 = ORIENTED_EDGE ( 'NONE', *, *, #17, .F. ) ;
#16 = EDGE_LOOP ( 'NONE', ( #15, #6, #4, #56, #1 ) ) ;
#17 = EDGE_CURVE ( 'NONE', #7, #5, #74, .T. ) ;
#18 = DIRECTION ( 'NONE',  ( 1.000000000000000000, 0.0000000000000000000, 0.0000000000000000000 ) ) ;
#19 = ADVANCED_FACE ( 'NONE', ( #75 ), #68, .F. ) ;
#20 = EDGE_CURVE ( 'NONE', #105, #38, #155, .T. ) ;
#21 = EDGE_CURVE ( 'NONE', #105, #44, #184, .T. ) ;
#22 = VERTEX_POINT ( 'NONE', #143 ) ;
#23 = ORIENTED_EDGE ( 'NONE', *, *, #21, .F. ) ;
#24 = ORIENTED_EDGE ( 'NONE', *, *, #25, .F. ) ;
#25 = EDGE_CURVE ( 'NONE', #22, #8, #160, .T. ) ;
#26 = APPLICATION_CONTEXT ( 'configuration controlled 3d designs of mechanical parts and assemblies' ) ;
#27 = APPLICATION_PROTOCOL_DEFINITION ( 'international standard', 'config_control_design', 1994, #26 ) ;
#28 = EDGE_CURVE ( 'NONE', #13, #8, #161, .T. ) ;
#29 = EDGE_CURVE ( 'NONE', #38, #53, #185, .T. ) ;
#30 = VERTEX_POINT ( 'NONE', #178 ) ;
#31 = ORIENTED_EDGE ( 'NONE', *, *, #17, .T. ) ;
#32 = ORIENTED_EDGE ( 'NONE', *, *, #33, .T. ) ;
#33 = EDGE_CURVE ( 'NONE', #5, #38, #177, .T. ) ;
#34 = ORIENTED_EDGE ( 'NONE', *, *, #108, .F. ) ;
#35 = EDGE_CURVE ( 'NONE', #53, #36, #208, .T. ) ;
#36 = VERTEX_POINT ( 'NONE', #202 ) ;
#37 = ADVANCED_FACE ( 'NONE', ( #204 ), #203, .F. ) ;
#38 = VERTEX_POINT ( 'NONE', #174 ) ;
#39 = ORIENTED_EDGE ( 'NONE', *, *, #29, .T. ) ;
#40 = ORGANIZATION ( 'UNSPECIFIED', 'UNSPECIFIED', '' ) ;
#41 = EDGE_CURVE ( 'NONE', #5, #127, #168, .T. ) ;
#42 = ADVANCED_FACE ( 'NONE', ( #169 ), #154, .T. ) ;
#43 = VERTEX_POINT ( 'NONE', #153 ) ;
#44 = VERTEX_POINT ( 'NONE', #148 ) ;
#45 = ORIENTED_EDGE ( 'NONE', *, *, #46, .F. ) ;
#46 = EDGE_CURVE ( 'NONE', #43, #22, #147, .T. ) ;
#47 = ADVANCED_FACE ( 'NONE', ( #198 ), #197, .F. ) ;
#48 = EDGE_LOOP ( 'NONE', ( #49, #31, #32, #89, #62, #61 ) ) ;
#49 = ORIENTED_EDGE ( 'NONE', *, *, #50, .T. ) ;
#50 = EDGE_CURVE ( 'NONE', #30, #7, #192, .T. ) ;
#51 = MANIFOLD_SOLID_BREP ( 'NONE', #117 ) ;
#52 = EDGE_LOOP ( 'NONE', ( #39, #54, #34, #23, #10 ) ) ;
#53 = VERTEX_POINT ( 'NONE', #292 ) ;
#54 = ORIENTED_EDGE ( 'NONE', *, *, #35, .T. ) ;
#55 = EDGE_LOOP ( 'NONE', ( #95, #121 ) ) ;
#56 = ORIENTED_EDGE ( 'NONE', *, *, #79, .F. ) ;
#57 = EDGE_LOOP ( 'NONE', ( #58, #65, #77, #80, #81 ) ) ;
#58 = ORIENTED_EDGE ( 'NONE', *, *, #11, .F. ) ;
#59 = ADVANCED_FACE ( 'NONE', ( #212 ), #278, .F. ) ;
#60 = ORIENTED_EDGE ( 'NONE', *, *, #33, .F. ) ;
#61 = ORIENTED_EDGE ( 'NONE', *, *, #97, .F. ) ;
#62 = ORIENTED_EDGE ( 'NONE', *, *, #136, .F. ) ;
#63 = ORIENTED_EDGE ( 'NONE', *, *, #64, .T. ) ;
#64 = EDGE_CURVE ( 'NONE', #127, #30, #294, .T. ) ;
#65 = ORIENTED_EDGE ( 'NONE', *, *, #50, .F. ) ;
#66 = DIRECTION ( 'NONE',  ( -0.0000000000000000000, -0.0000000000000000000, 1.000000000000000000 ) ) ;
#67 = AXIS2_PLACEMENT_3D ( 'NONE', #69, #66, #12 ) ;
#68 = CONICAL_SURFACE ( 'NONE', #67, 16.62450000000000500, 0.7853981633974536100 ) ;
#69 = CARTESIAN_POINT ( 'NONE',  ( 0.0000000000000000000, 0.0000000000000000000, -0.5805403324154406700 ) ) ;
#70 = DIRECTION ( 'NONE',  ( 1.000000000000000000, 0.0000000000000000000, 0.0000000000000000000 ) ) ;
#71 = DIRECTION ( 'NONE',  ( -0.0000000000000000000, -0.0000000000000000000, 1.000000000000000000 ) ) ;
#72 = CARTESIAN_POINT ( 'NONE',  ( 0.0000000000000000000, 0.0000000000000000000, -0.5805403324154406700 ) ) ;
#73 = AXIS2_PLACEMENT_3D ( 'NONE', #72, #71, #70 ) ;
#74 = CIRCLE ( 'NONE', #73, 16.62450000000000500 ) ;
#75 = FACE_OUTER_BOUND ( 'NONE', #16, .T. ) ;
#76 = EDGE_CURVE ( 'NONE', #43, #13, #261, .T. ) ;
#77 = ORIENTED_EDGE ( 'NONE', *, *, #64, .F. ) ;
#78 = ORIENTED_EDGE ( 'NONE', *, *, #76, .T. ) ;
#79 = EDGE_CURVE ( 'NONE', #127, #3, #262, .T. ) ;
#80 = ORIENTED_EDGE ( 'NONE', *, *, #79, .T. ) ;
#81 = ORIENTED_EDGE ( 'NONE', *, *, #96, .T. ) ;
#82 = ORIENTED_EDGE ( 'NONE', *, *, #104, .F. ) ;
#83 = ORIENTED_EDGE ( 'NONE', *, *, #21, .T. ) ;
#84 = ORIENTED_EDGE ( 'NONE', *, *, #136, .T. ) ;
#85 = ORIENTED_EDGE ( 'NONE', *, *, #88, .T. ) ;
#86 = ORIENTED_EDGE ( 'NONE', *, *, #97, .T. ) ;
#87 = ORIENTED_EDGE ( 'NONE', *, *, #88, .F. ) ;
#88 = EDGE_CURVE ( 'NONE', #53, #137, #214, .T. ) ;
#89 = ORIENTED_EDGE ( 'NONE', *, *, #20, .F. ) ;
#90 = EDGE_LOOP ( 'NONE', ( #91, #98 ) ) ;
#91 = ORIENTED_EDGE ( 'NONE', *, *, #76, .F. ) ;
#92 = EDGE_LOOP ( 'NONE', ( #100, #103 ) ) ;
#93 = ORIENTED_EDGE ( 'NONE', *, *, #94, .T. ) ;
#94 = EDGE_CURVE ( 'NONE', #8, #22, #252, .T. ) ;
#95 = ORIENTED_EDGE ( 'NONE', *, *, #96, .F. ) ;
#96 = EDGE_CURVE ( 'NONE', #3, #2, #242, .T. ) ;
#97 = EDGE_CURVE ( 'NONE', #30, #137, #243, .T. ) ;
#98 = ORIENTED_EDGE ( 'NONE', *, *, #99, .F. ) ;
#99 = EDGE_CURVE ( 'NONE', #13, #43, #258, .T. ) ;
#100 = ORIENTED_EDGE ( 'NONE', *, *, #108, .T. ) ;
#101 = ORIENTED_EDGE ( 'NONE', *, *, #29, .F. ) ;
#102 = ADVANCED_FACE ( 'NONE', ( #254, #253 ), #223, .F. ) ;
#103 = ORIENTED_EDGE ( 'NONE', *, *, #104, .T. ) ;
#104 = EDGE_CURVE ( 'NONE', #36, #44, #218, .T. ) ;
#105 = VERTEX_POINT ( 'NONE', #300 ) ;
#106 = EDGE_LOOP ( 'NONE', ( #78, #9, #24, #45 ) ) ;
#107 = ADVANCED_FACE ( 'NONE', ( #299 ), #297, .F. ) ;
#108 = EDGE_CURVE ( 'NONE', #44, #36, #233, .T. ) ;
#109 = CARTESIAN_POINT ( 'NONE',  ( -16.62450000000000500, 2.071393501898317300E-015, -0.5805403324154406700 ) ) ;
#110 = CARTESIAN_POINT ( 'NONE',  ( 2.035846832912011700E-015, -16.62450000000000500, -0.5805403324154406700 ) ) ;
#111 = CARTESIAN_POINT ( 'NONE',  ( 17.20504033241545000, 0.0000000000000000000, -1.087506354010156600E-016 ) ) ;
#112 = CARTESIAN_POINT ( 'NONE',  ( -17.20504033241545000, 2.106940170884622900E-015, -1.087506354010156600E-016 ) ) ;
#113 = DESIGN_CONTEXT ( 'detailed design', #26, 'design' ) ;
#114 = CC_DESIGN_PERSON_AND_ORGANIZATION_ASSIGNMENT ( #116, #115, ( #316 ) ) ;
#115 = PERSON_AND_ORGANIZATION_ROLE ( 'design_owner' ) ;
#116 = PERSON_AND_ORGANIZATION ( #315, #40 ) ;
#117 = CLOSED_SHELL ( 'NONE', ( #37, #19, #42, #47, #59, #102, #139, #122, #126, #107 ) ) ;
#118 = EDGE_LOOP ( 'NONE', ( #119, #85, #84, #83, #82 ) ) ;
#119 = ORIENTED_EDGE ( 'NONE', *, *, #35, .F. ) ;
#120 = EDGE_CURVE ( 'NONE', #2, #3, #291, .T. ) ;
#121 = ORIENTED_EDGE ( 'NONE', *, *, #120, .F. ) ;
#122 = ADVANCED_FACE ( 'NONE', ( #286 ), #285, .T. ) ;
#123 = EDGE_LOOP ( 'NONE', ( #141, #142, #135, #125 ) ) ;
#124 = ORIENTED_EDGE ( 'NONE', *, *, #41, .T. ) ;
#125 = ORIENTED_EDGE ( 'NONE', *, *, #94, .F. ) ;
#126 = ADVANCED_FACE ( 'NONE', ( #284 ), #275, .F. ) ;
#127 = VERTEX_POINT ( 'NONE', #276 ) ;
#128 = EDGE_LOOP ( 'NONE', ( #60, #124, #63, #86, #87, #101 ) ) ;
#129 = CARTESIAN_POINT ( 'NONE',  ( -20.00000000000000000, 2.449212707644754500E-015, -15.00000000000000400 ) ) ;
#130 = DIRECTION ( 'NONE',  ( -0.7071067811865512400, 8.659274570719402300E-017, 0.7071067811865439100 ) ) ;
#131 = VECTOR ( 'NONE', #130, 999.9999999999998900 ) ;
#132 = CARTESIAN_POINT ( 'NONE',  ( -16.62450000000000500, 2.035846832912011700E-015, -0.5805403324154406700 ) ) ;
#133 = LINE ( 'NONE', #132, #131 ) ;
#134 = CARTESIAN_POINT ( 'NONE',  ( -20.00000000000000000, 2.449212707644754500E-015, 0.0000000000000000000 ) ) ;
#135 = ORIENTED_EDGE ( 'NONE', *, *, #46, .T. ) ;
#136 = EDGE_CURVE ( 'NONE', #137, #105, #270, .T. ) ;
#137 = VERTEX_POINT ( 'NONE', #265 ) ;
#138 = ORIENTED_EDGE ( 'NONE', *, *, #25, .T. ) ;
#139 = ADVANCED_FACE ( 'NONE', ( #264, #263 ), #319, .F. ) ;
#140 = EDGE_LOOP ( 'NONE', ( #138, #93 ) ) ;
#141 = ORIENTED_EDGE ( 'NONE', *, *, #28, .F. ) ;
#142 = ORIENTED_EDGE ( 'NONE', *, *, #99, .T. ) ;
#143 = CARTESIAN_POINT ( 'NONE',  ( 20.00000000000000000, 0.0000000000000000000, 0.0000000000000000000 ) ) ;
#144 = DIRECTION ( 'NONE',  ( 1.000000000000000000, 0.0000000000000000000, 0.0000000000000000000 ) ) ;
#145 = DIRECTION ( 'NONE',  ( -0.0000000000000000000, -0.0000000000000000000, 1.000000000000000000 ) ) ;
#146 = AXIS2_PLACEMENT_3D ( 'NONE', #189, #145, #144 ) ;
#147 = LINE ( 'NONE', #201, #200 ) ;
#148 = CARTESIAN_POINT ( 'NONE',  ( -17.20504033241558900, 0.0000000000000000000, -15.00000000000000400 ) ) ;
#149 = DIRECTION ( 'NONE',  ( 1.000000000000000000, 0.0000000000000000000, 0.0000000000000000000 ) ) ;
#150 = DIRECTION ( 'NONE',  ( -0.0000000000000000000, -0.0000000000000000000, 1.000000000000000000 ) ) ;
#151 = CARTESIAN_POINT ( 'NONE',  ( 0.0000000000000000000, 0.0000000000000000000, -4.336808689942017700E-016 ) ) ;
#152 = AXIS2_PLACEMENT_3D ( 'NONE', #151, #150, #149 ) ;
#153 = CARTESIAN_POINT ( 'NONE',  ( 20.00000000000000000, 0.0000000000000000000, -15.00000000000000400 ) ) ;
#154 = CYLINDRICAL_SURFACE ( 'NONE', #152, 20.00000000000000000 ) ;
#155 = CIRCLE ( 'NONE', #146, 16.62450000000000500 ) ;
#156 = DIRECTION ( 'NONE',  ( 1.000000000000000000, 0.0000000000000000000, 0.0000000000000000000 ) ) ;
#157 = DIRECTION ( 'NONE',  ( -0.0000000000000000000, -0.0000000000000000000, 1.000000000000000000 ) ) ;
#158 = CARTESIAN_POINT ( 'NONE',  ( 0.0000000000000000000, 0.0000000000000000000, 0.0000000000000000000 ) ) ;
#159 = AXIS2_PLACEMENT_3D ( 'NONE', #158, #157, #156 ) ;
#160 = CIRCLE ( 'NONE', #159, 20.00000000000000000 ) ;
#161 = LINE ( 'NONE', #188, #187 ) ;
#162 = DIRECTION ( 'NONE',  ( -0.7071067811865517900, 0.0000000000000000000, -0.7071067811865433500 ) ) ;
#163 = VECTOR ( 'NONE', #162, 1000.000000000000000 ) ;
#164 = DIRECTION ( 'NONE',  ( 1.000000000000000000, 0.0000000000000000000, 0.0000000000000000000 ) ) ;
#165 = DIRECTION ( 'NONE',  ( -0.0000000000000000000, -0.0000000000000000000, 1.000000000000000000 ) ) ;
#166 = CARTESIAN_POINT ( 'NONE',  ( 0.0000000000000000000, 0.0000000000000000000, -0.5805403324154406700 ) ) ;
#167 = AXIS2_PLACEMENT_3D ( 'NONE', #166, #165, #164 ) ;
#168 = CIRCLE ( 'NONE', #167, 16.62450000000000500 ) ;
#169 = FACE_OUTER_BOUND ( 'NONE', #106, .T. ) ;
#170 = DIRECTION ( 'NONE',  ( -1.000000000000000000, 0.0000000000000000000, 0.0000000000000000000 ) ) ;
#171 = DIRECTION ( 'NONE',  ( 0.0000000000000000000, 0.0000000000000000000, -1.000000000000000000 ) ) ;
#172 = CARTESIAN_POINT ( 'NONE',  ( 0.0000000000000000000, 0.0000000000000000000, -15.00000000000000400 ) ) ;
#173 = AXIS2_PLACEMENT_3D ( 'NONE', #172, #171, #170 ) ;
#174 = CARTESIAN_POINT ( 'NONE',  ( 2.035846832912011700E-015, -16.62450000000000500, -14.41945966758442500 ) ) ;
#175 = DIRECTION ( 'NONE',  ( -0.0000000000000000000, 2.802823354294675800E-016, -1.000000000000000000 ) ) ;
#176 = CARTESIAN_POINT ( 'NONE',  ( 2.035846832912011700E-015, -16.62450000000000500, -15.00000000000006900 ) ) ;
#177 = LINE ( 'NONE', #176, #209 ) ;
#178 = CARTESIAN_POINT ( 'NONE',  ( 0.0000000000000000000, 16.62450000000000500, -0.5805403324154406700 ) ) ;
#179 = DIRECTION ( 'NONE',  ( 1.000000000000000000, 0.0000000000000000000, 0.0000000000000000000 ) ) ;
#180 = DIRECTION ( 'NONE',  ( -0.0000000000000000000, -0.0000000000000000000, 1.000000000000000000 ) ) ;
#181 = CARTESIAN_POINT ( 'NONE',  ( 0.0000000000000000000, 0.0000000000000000000, -14.41945966758442500 ) ) ;
#182 = AXIS2_PLACEMENT_3D ( 'NONE', #181, #180, #179 ) ;
#183 = CARTESIAN_POINT ( 'NONE',  ( -17.20504033241558900, 0.0000000000000000000, -15.00000000000000400 ) ) ;
#184 = LINE ( 'NONE', #183, #163 ) ;
#185 = CIRCLE ( 'NONE', #182, 16.62450000000000500 ) ;
#186 = DIRECTION ( 'NONE',  ( -0.0000000000000000000, -0.0000000000000000000, 1.000000000000000000 ) ) ;
#187 = VECTOR ( 'NONE', #186, 1000.000000000000000 ) ;
#188 = CARTESIAN_POINT ( 'NONE',  ( -20.00000000000000000, 2.449212707644754500E-015, -4.336808689942017700E-016 ) ) ;
#189 = CARTESIAN_POINT ( 'NONE',  ( 0.0000000000000000000, 0.0000000000000000000, -14.41945966758442500 ) ) ;
#190 = CARTESIAN_POINT ( 'NONE',  ( 0.0000000000000000000, 0.0000000000000000000, -0.5805403324154406700 ) ) ;
#191 = AXIS2_PLACEMENT_3D ( 'NONE', #190, #14, #18 ) ;
#192 = CIRCLE ( 'NONE', #191, 16.62450000000000500 ) ;
#193 = DIRECTION ( 'NONE',  ( 0.0000000000000000000, 1.000000000000000000, 3.130422224987470400E-016 ) ) ;
#194 = DIRECTION ( 'NONE',  ( -0.0000000000000000000, 2.802823354294675800E-016, -1.000000000000000000 ) ) ;
#195 = CARTESIAN_POINT ( 'NONE',  ( 0.0000000000000000000, 7.347880794884164100E-016, -15.00000000000006400 ) ) ;
#196 = AXIS2_PLACEMENT_3D ( 'NONE', #195, #194, #193 ) ;
#197 = CYLINDRICAL_SURFACE ( 'NONE', #196, 16.62450000000000500 ) ;
#198 = FACE_OUTER_BOUND ( 'NONE', #48, .T. ) ;
#199 = DIRECTION ( 'NONE',  ( -0.0000000000000000000, -0.0000000000000000000, 1.000000000000000000 ) ) ;
#200 = VECTOR ( 'NONE', #199, 1000.000000000000000 ) ;
#201 = CARTESIAN_POINT ( 'NONE',  ( 20.00000000000000000, 0.0000000000000000000, -4.336808689942017700E-016 ) ) ;
#202 = CARTESIAN_POINT ( 'NONE',  ( 17.20504033241558900, 2.106940170884639900E-015, -15.00000000000000400 ) ) ;
#203 = CONICAL_SURFACE ( 'NONE', #173, 17.20504033241558900, 0.7853981633974542700 ) ;
#204 = FACE_OUTER_BOUND ( 'NONE', #52, .T. ) ;
#205 = DIRECTION ( 'NONE',  ( 0.7071067811865517900, 8.659274570719408400E-017, -0.7071067811865433500 ) ) ;
#206 = VECTOR ( 'NONE', #205, 1000.000000000000000 ) ;
#207 = CARTESIAN_POINT ( 'NONE',  ( 17.20504033241558900, 2.106940170884639900E-015, -15.00000000000000400 ) ) ;
#208 = LINE ( 'NONE', #207, #206 ) ;
#209 = VECTOR ( 'NONE', #175, 1000.000000000000000 ) ;
#210 = CARTESIAN_POINT ( 'NONE',  ( 0.0000000000000000000, 0.0000000000000000000, -0.5805403324154406700 ) ) ;
#211 = DIRECTION ( 'NONE',  ( -0.0000000000000000000, 2.802823354294675800E-016, -1.000000000000000000 ) ) ;
#212 = FACE_OUTER_BOUND ( 'NONE', #128, .T. ) ;
#213 = DIRECTION ( 'NONE',  ( 0.0000000000000000000, 1.000000000000000000, 3.130422224987470400E-016 ) ) ;
#214 = CIRCLE ( 'NONE', #247, 16.62450000000000500 ) ;
#215 = DIRECTION ( 'NONE',  ( 0.7071067811865512400, 0.0000000000000000000, 0.7071067811865439100 ) ) ;
#216 = VECTOR ( 'NONE', #215, 999.9999999999998900 ) ;
#217 = CARTESIAN_POINT ( 'NONE',  ( 16.62450000000000500, 0.0000000000000000000, -0.5805403324154406700 ) ) ;
#218 = CIRCLE ( 'NONE', #304, 17.20504033241558900 ) ;
#219 = DIRECTION ( 'NONE',  ( 1.000000000000000000, 0.0000000000000000000, 0.0000000000000000000 ) ) ;
#220 = DIRECTION ( 'NONE',  ( 0.0000000000000000000, -0.0000000000000000000, 1.000000000000000000 ) ) ;
#221 = CARTESIAN_POINT ( 'NONE',  ( 0.0000000000000000000, 20.00000000000000000, -15.00000000000000200 ) ) ;
#222 = AXIS2_PLACEMENT_3D ( 'NONE', #221, #220, #219 ) ;
#223 = PLANE ( 'NONE',  #222 ) ;
#224 = DIRECTION ( 'NONE',  ( -0.0000000000000000000, 2.802823354294675800E-016, -1.000000000000000000 ) ) ;
#225 = VECTOR ( 'NONE', #224, 1000.000000000000000 ) ;
#226 = CARTESIAN_POINT ( 'NONE',  ( 0.0000000000000000000, 16.62450000000000500, -15.00000000000005900 ) ) ;
#227 = CARTESIAN_POINT ( 'NONE',  ( 0.0000000000000000000, 0.0000000000000000000, -15.00000000000000400 ) ) ;
#228 = DIRECTION ( 'NONE',  ( 1.000000000000000000, 0.0000000000000000000, 0.0000000000000000000 ) ) ;
#229 = DIRECTION ( 'NONE',  ( 1.000000000000000000, 0.0000000000000000000, 0.0000000000000000000 ) ) ;
#230 = DIRECTION ( 'NONE',  ( -0.0000000000000000000, -0.0000000000000000000, 1.000000000000000000 ) ) ;
#231 = CARTESIAN_POINT ( 'NONE',  ( 0.0000000000000000000, 0.0000000000000000000, -15.00000000000000400 ) ) ;
#232 = AXIS2_PLACEMENT_3D ( 'NONE', #231, #230, #229 ) ;
#233 = CIRCLE ( 'NONE', #232, 17.20504033241558900 ) ;
#234 = DIRECTION ( 'NONE',  ( -1.000000000000000000, 0.0000000000000000000, 0.0000000000000000000 ) ) ;
#235 = DIRECTION ( 'NONE',  ( 0.0000000000000000000, 0.0000000000000000000, -1.000000000000000000 ) ) ;
#236 = CARTESIAN_POINT ( 'NONE',  ( 0.0000000000000000000, 0.0000000000000000000, -15.00000000000000400 ) ) ;
#237 = DIRECTION ( 'NONE',  ( 1.000000000000000000, 0.0000000000000000000, 0.0000000000000000000 ) ) ;
#238 = CARTESIAN_POINT ( 'NONE',  ( 0.0000000000000000000, 7.347880794884164100E-016, -15.00000000000006400 ) ) ;
#239 = DIRECTION ( 'NONE',  ( -0.0000000000000000000, -0.0000000000000000000, 1.000000000000000000 ) ) ;
#240 = CARTESIAN_POINT ( 'NONE',  ( 0.0000000000000000000, 0.0000000000000000000, -1.087506354010156600E-016 ) ) ;
#241 = AXIS2_PLACEMENT_3D ( 'NONE', #240, #239, #228 ) ;
#242 = CIRCLE ( 'NONE', #241, 17.20504033241545000 ) ;
#243 = LINE ( 'NONE', #226, #225 ) ;
#244 = AXIS2_PLACEMENT_3D ( 'NONE', #238, #211, #213 ) ;
#245 = DIRECTION ( 'NONE',  ( -0.0000000000000000000, -0.0000000000000000000, 1.000000000000000000 ) ) ;
#246 = CARTESIAN_POINT ( 'NONE',  ( 0.0000000000000000000, 0.0000000000000000000, -14.41945966758442500 ) ) ;
#247 = AXIS2_PLACEMENT_3D ( 'NONE', #246, #245, #295 ) ;
#248 = CARTESIAN_POINT ( 'NONE',  ( 0.0000000000000000000, 0.0000000000000000000, 0.0000000000000000000 ) ) ;
#249 = DIRECTION ( 'NONE',  ( 1.000000000000000000, 0.0000000000000000000, 0.0000000000000000000 ) ) ;
#250 = DIRECTION ( 'NONE',  ( -0.0000000000000000000, -0.0000000000000000000, 1.000000000000000000 ) ) ;
#251 = AXIS2_PLACEMENT_3D ( 'NONE', #248, #250, #249 ) ;
#252 = CIRCLE ( 'NONE', #251, 20.00000000000000000 ) ;
#253 = FACE_BOUND ( 'NONE', #92, .T. ) ;
#254 = FACE_OUTER_BOUND ( 'NONE', #90, .T. ) ;
#255 = DIRECTION ( 'NONE',  ( 1.000000000000000000, 0.0000000000000000000, 0.0000000000000000000 ) ) ;
#256 = DIRECTION ( 'NONE',  ( -0.0000000000000000000, -0.0000000000000000000, 1.000000000000000000 ) ) ;
#257 = AXIS2_PLACEMENT_3D ( 'NONE', #227, #256, #255 ) ;
#258 = CIRCLE ( 'NONE', #257, 20.00000000000000000 ) ;
#259 = DIRECTION ( 'NONE',  ( -0.0000000000000000000, -0.0000000000000000000, 1.000000000000000000 ) ) ;
#260 = AXIS2_PLACEMENT_3D ( 'NONE', #236, #259, #277 ) ;
#261 = CIRCLE ( 'NONE', #260, 20.00000000000000000 ) ;
#262 = LINE ( 'NONE', #217, #216 ) ;
#263 = FACE_BOUND ( 'NONE', #55, .T. ) ;
#264 = FACE_OUTER_BOUND ( 'NONE', #140, .T. ) ;
#265 = CARTESIAN_POINT ( 'NONE',  ( 0.0000000000000000000, 16.62450000000000500, -14.41945966758442500 ) ) ;
#266 = DIRECTION ( 'NONE',  ( 1.000000000000000000, 0.0000000000000000000, 0.0000000000000000000 ) ) ;
#267 = DIRECTION ( 'NONE',  ( -0.0000000000000000000, -0.0000000000000000000, 1.000000000000000000 ) ) ;
#268 = CARTESIAN_POINT ( 'NONE',  ( 0.0000000000000000000, 0.0000000000000000000, -14.41945966758442500 ) ) ;
#269 = AXIS2_PLACEMENT_3D ( 'NONE', #268, #267, #266 ) ;
#270 = CIRCLE ( 'NONE', #269, 16.62450000000000500 ) ;
#271 = PERSON_AND_ORGANIZATION ( #315, #40 ) ;
#272 = DIRECTION ( 'NONE',  ( 1.000000000000000000, 0.0000000000000000000, 0.0000000000000000000 ) ) ;
#273 = DIRECTION ( 'NONE',  ( -0.0000000000000000000, -0.0000000000000000000, 1.000000000000000000 ) ) ;
#274 = AXIS2_PLACEMENT_3D ( 'NONE', #283, #273, #272 ) ;
#275 = CONICAL_SURFACE ( 'NONE', #274, 16.62450000000000500, 0.7853981633974536100 ) ;
#276 = CARTESIAN_POINT ( 'NONE',  ( 16.62450000000000500, 0.0000000000000000000, -0.5805403324154406700 ) ) ;
#277 = DIRECTION ( 'NONE',  ( 1.000000000000000000, 0.0000000000000000000, 0.0000000000000000000 ) ) ;
#278 = CYLINDRICAL_SURFACE ( 'NONE', #244, 16.62450000000000500 ) ;
#279 = DIRECTION ( 'NONE',  ( 1.000000000000000000, 0.0000000000000000000, 0.0000000000000000000 ) ) ;
#280 = DIRECTION ( 'NONE',  ( -0.0000000000000000000, -0.0000000000000000000, 1.000000000000000000 ) ) ;
#281 = CARTESIAN_POINT ( 'NONE',  ( 0.0000000000000000000, 0.0000000000000000000, -4.336808689942017700E-016 ) ) ;
#282 = AXIS2_PLACEMENT_3D ( 'NONE', #281, #280, #279 ) ;
#283 = CARTESIAN_POINT ( 'NONE',  ( 0.0000000000000000000, 0.0000000000000000000, -0.5805403324154406700 ) ) ;
#284 = FACE_OUTER_BOUND ( 'NONE', #57, .T. ) ;
#285 = CYLINDRICAL_SURFACE ( 'NONE', #282, 20.00000000000000000 ) ;
#286 = FACE_OUTER_BOUND ( 'NONE', #123, .T. ) ;
#287 = DIRECTION ( 'NONE',  ( 1.000000000000000000, 0.0000000000000000000, 0.0000000000000000000 ) ) ;
#288 = DIRECTION ( 'NONE',  ( -0.0000000000000000000, -0.0000000000000000000, 1.000000000000000000 ) ) ;
#289 = CARTESIAN_POINT ( 'NONE',  ( 0.0000000000000000000, 0.0000000000000000000, -1.087506354010156600E-016 ) ) ;
#290 = AXIS2_PLACEMENT_3D ( 'NONE', #289, #288, #287 ) ;
#291 = CIRCLE ( 'NONE', #290, 17.20504033241545000 ) ;
#292 = CARTESIAN_POINT ( 'NONE',  ( 16.62450000000000500, 2.071393501898325600E-015, -14.41945966758442500 ) ) ;
#293 = AXIS2_PLACEMENT_3D ( 'NONE', #210, #305, #237 ) ;
#294 = CIRCLE ( 'NONE', #293, 16.62450000000000500 ) ;
#295 = DIRECTION ( 'NONE',  ( 1.000000000000000000, 0.0000000000000000000, 0.0000000000000000000 ) ) ;
#296 = AXIS2_PLACEMENT_3D ( 'NONE', #298, #235, #234 ) ;
#297 = CONICAL_SURFACE ( 'NONE', #296, 17.20504033241558900, 0.7853981633974542700 ) ;
#298 = CARTESIAN_POINT ( 'NONE',  ( 0.0000000000000000000, 0.0000000000000000000, -15.00000000000000400 ) ) ;
#299 = FACE_OUTER_BOUND ( 'NONE', #118, .T. ) ;
#300 = CARTESIAN_POINT ( 'NONE',  ( -16.62450000000000500, 0.0000000000000000000, -14.41945966758442500 ) ) ;
#301 = DIRECTION ( 'NONE',  ( 1.000000000000000000, 0.0000000000000000000, 0.0000000000000000000 ) ) ;
#302 = DIRECTION ( 'NONE',  ( -0.0000000000000000000, -0.0000000000000000000, 1.000000000000000000 ) ) ;
#303 = CARTESIAN_POINT ( 'NONE',  ( 0.0000000000000000000, 0.0000000000000000000, -15.00000000000000400 ) ) ;
#304 = AXIS2_PLACEMENT_3D ( 'NONE', #303, #302, #301 ) ;
#305 = DIRECTION ( 'NONE',  ( -0.0000000000000000000, -0.0000000000000000000, 1.000000000000000000 ) ) ;
#306 =( LENGTH_UNIT ( ) NAMED_UNIT ( * ) SI_UNIT ( .MILLI., .METRE. ) );
#307 = DIRECTION ( 'NONE',  ( 0.0000000000000000000, 0.0000000000000000000, -1.000000000000000000 ) ) ;
#308 = CARTESIAN_POINT ( 'NONE',  ( 0.0000000000000000000, 20.00000000000000000, -2.168404344971008900E-016 ) ) ;
#309 = APPLICATION_CONTEXT ( 'configuration controlled 3d designs of mechanical parts and assemblies' ) ;
#310 = AXIS2_PLACEMENT_3D ( 'NONE', #308, #307, #313 ) ;
#311 = CARTESIAN_POINT ( 'NONE',  ( 0.0000000000000000000, 0.0000000000000000000, 0.0000000000000000000 ) ) ;
#312 = AXIS2_PLACEMENT_3D ( 'NONE', #311, #323, #322 ) ;
#313 = DIRECTION ( 'NONE',  ( -1.000000000000000000, 0.0000000000000000000, -0.0000000000000000000 ) ) ;
#314 = PRODUCT_DEFINITION ( 'UNKNOWN', '', #348, #113 ) ;
#315 = PERSON ( 'UNSPECIFIED', 'UNSPECIFIED', 'UNSPECIFIED', ('UNSPECIFIED'), ('UNSPECIFIED'), ('UNSPECIFIED') ) ;
#316 = PRODUCT ( '11-0216-06_outokumpu', '11-0216-06_outokumpu', '', ( #317 ) ) ;
#317 = MECHANICAL_CONTEXT ( 'NONE', #309, 'mechanical' ) ;
#318 = APPLICATION_PROTOCOL_DEFINITION ( 'international standard', 'config_control_design', 1994, #309 ) ;
#319 = PLANE ( 'NONE',  #310 ) ;
#320 = UNCERTAINTY_MEASURE_WITH_UNIT (LENGTH_MEASURE( 1.000000000000000100E-005 ), #306, 'distance_accuracy_value', 'NONE');
#321 =( NAMED_UNIT ( * ) SI_UNIT ( $, .STERADIAN. ) SOLID_ANGLE_UNIT ( ) );
#322 = DIRECTION ( 'NONE',  ( 1.000000000000000000, 0.0000000000000000000, 0.0000000000000000000 ) ) ;
#323 = DIRECTION ( 'NONE',  ( 0.0000000000000000000, 0.0000000000000000000, 1.000000000000000000 ) ) ;
#324 = ADVANCED_BREP_SHAPE_REPRESENTATION ( '11-0216-06_outokumpu', ( #51, #312 ), #325 ) ;
#325 =( GEOMETRIC_REPRESENTATION_CONTEXT ( 3 ) GLOBAL_UNCERTAINTY_ASSIGNED_CONTEXT ( ( #320 ) ) GLOBAL_UNIT_ASSIGNED_CONTEXT ( ( #306, #326, #321 ) ) REPRESENTATION_CONTEXT ( 'NONE', 'WORKASPACE' ) );
#326 =( NAMED_UNIT ( * ) PLANE_ANGLE_UNIT ( ) SI_UNIT ( $, .RADIAN. ) );
#327 = DATE_AND_TIME ( #389, #328 ) ;
#328 = LOCAL_TIME ( 16, 13, 44.00000000000000000, #329 ) ;
#329 = COORDINATED_UNIVERSAL_TIME_OFFSET ( 1, 0, .AHEAD. ) ;
#330 = CC_DESIGN_PERSON_AND_ORGANIZATION_ASSIGNMENT ( #332, #331, ( #333 ) ) ;
#331 = PERSON_AND_ORGANIZATION_ROLE ( 'classification_officer' ) ;
#332 = PERSON_AND_ORGANIZATION ( #315, #40 ) ;
#333 = SECURITY_CLASSIFICATION ( '', '', #338 ) ;
#334 = APPROVAL ( #360, 'UNSPECIFIED' ) ;
#335 = CC_DESIGN_PERSON_AND_ORGANIZATION_ASSIGNMENT ( #336, #349, ( #314 ) ) ;
#336 = PERSON_AND_ORGANIZATION ( #315, #40 ) ;
#337 = CALENDAR_DATE ( 2015, 11, 8 ) ;
#338 = SECURITY_CLASSIFICATION_LEVEL ( 'unclassified' ) ;
#339 = CC_DESIGN_PERSON_AND_ORGANIZATION_ASSIGNMENT ( #364, #340, ( #348 ) ) ;
#340 = PERSON_AND_ORGANIZATION_ROLE ( 'design_supplier' ) ;
#341 = APPROVAL_PERSON_ORGANIZATION ( #271, #334, #370 ) ;
#342 = CC_DESIGN_APPROVAL ( #334, ( #314 ) ) ;
#343 = DATE_AND_TIME ( #380, #344 ) ;
#344 = LOCAL_TIME ( 16, 13, 44.00000000000000000, #369 ) ;
#345 = APPROVAL_ROLE ( '' ) ;
#346 = APPROVAL_STATUS ( 'not_yet_approved' ) ;
#347 = PERSON_AND_ORGANIZATION ( #315, #40 ) ;
#348 = PRODUCT_DEFINITION_FORMATION_WITH_SPECIFIED_SOURCE ( 'ANY', '', #316, .NOT_KNOWN. ) ;
#349 = PERSON_AND_ORGANIZATION_ROLE ( 'creator' ) ;
#350 = COORDINATED_UNIVERSAL_TIME_OFFSET ( 1, 0, .AHEAD. ) ;
#351 = DATE_AND_TIME ( #337, #378 ) ;
#352 = APPROVAL_DATE_TIME ( #353, #358 ) ;
#353 = DATE_AND_TIME ( #354, #355 ) ;
#354 = CALENDAR_DATE ( 2015, 11, 8 ) ;
#355 = LOCAL_TIME ( 16, 13, 44.00000000000000000, #356 ) ;
#356 = COORDINATED_UNIVERSAL_TIME_OFFSET ( 1, 0, .AHEAD. ) ;
#357 = APPROVAL_PERSON_ORGANIZATION ( #347, #358, #345 ) ;
#358 = APPROVAL ( #346, 'UNSPECIFIED' ) ;
#359 = APPROVAL_DATE_TIME ( #351, #334 ) ;
#360 = APPROVAL_STATUS ( 'not_yet_approved' ) ;
#361 = CC_DESIGN_DATE_AND_TIME_ASSIGNMENT ( #343, #379, ( #314 ) ) ;
#362 = SHAPE_DEFINITION_REPRESENTATION ( #363, #324 ) ;
#363 = PRODUCT_DEFINITION_SHAPE ( 'NONE', 'NONE',  #314 ) ;
#364 = PERSON_AND_ORGANIZATION ( #315, #40 ) ;
#365 = CC_DESIGN_PERSON_AND_ORGANIZATION_ASSIGNMENT ( #367, #366, ( #348 ) ) ;
#366 = PERSON_AND_ORGANIZATION_ROLE ( 'creator' ) ;
#367 = PERSON_AND_ORGANIZATION ( #315, #40 ) ;
#368 = CC_DESIGN_APPROVAL ( #358, ( #348 ) ) ;
#369 = COORDINATED_UNIVERSAL_TIME_OFFSET ( 1, 0, .AHEAD. ) ;
#370 = APPROVAL_ROLE ( '' ) ;
#371 = PRODUCT_RELATED_PRODUCT_CATEGORY ( 'detail', '', ( #316 ) ) ;
#372 = CC_DESIGN_SECURITY_CLASSIFICATION ( #333, ( #348 ) ) ;
#373 = CC_DESIGN_APPROVAL ( #384, ( #333 ) ) ;
#374 = APPROVAL_DATE_TIME ( #375, #384 ) ;
#375 = DATE_AND_TIME ( #376, #377 ) ;
#376 = CALENDAR_DATE ( 2015, 11, 8 ) ;
#377 = LOCAL_TIME ( 16, 13, 44.00000000000000000, #381 ) ;
#378 = LOCAL_TIME ( 16, 13, 44.00000000000000000, #350 ) ;
#379 = DATE_TIME_ROLE ( 'creation_date' ) ;
#380 = CALENDAR_DATE ( 2015, 11, 8 ) ;
#381 = COORDINATED_UNIVERSAL_TIME_OFFSET ( 1, 0, .AHEAD. ) ;
#382 = APPROVAL_PERSON_ORGANIZATION ( #386, #384, #383 ) ;
#383 = APPROVAL_ROLE ( '' ) ;
#384 = APPROVAL ( #385, 'UNSPECIFIED' ) ;
#385 = APPROVAL_STATUS ( 'not_yet_approved' ) ;
#386 = PERSON_AND_ORGANIZATION ( #315, #40 ) ;
#387 = CC_DESIGN_DATE_AND_TIME_ASSIGNMENT ( #327, #388, ( #333 ) ) ;
#388 = DATE_TIME_ROLE ( 'classification_date' ) ;
#389 = CALENDAR_DATE ( 2015, 11, 8 ) ;
ENDSEC;
END-ISO-10303-21;
