ISO-10303-21;
HEADER;
FILE_DESCRIPTION (( 'STEP AP203' ),
    '1' );
FILE_NAME ('3D_R1650_26.9x1.6_17353150.STEP',
    '2024-08-03T07:39:09',
    ( '' ),
    ( '' ),
    'SwSTEP 2.0',
    'SolidWorks 2024',
    '' );
FILE_SCHEMA (( 'CONFIG_CONTROL_DESIGN' ));
ENDSEC;

DATA;
#1 = AXIS2_PLACEMENT_3D ( 'NONE', #27, #131, #58 ) ;
#2 = DIRECTION ( 'NONE',  ( 1.110223024625156540E-16, 0.000000000000000000, 1.000000000000000000 ) ) ;
#3 = DIRECTION ( 'NONE',  ( 0.7071067811865514585, 0.000000000000000000, 0.7071067811865436870 ) ) ;
#4 = ORIENTED_EDGE ( 'NONE', *, *, #148, .T. ) ;
#5 = ADVANCED_FACE ( 'NONE', ( #224 ), #82, .T. ) ;
#6 = PERSON_AND_ORGANIZATION ( #69, #15 ) ;
#7 = EDGE_LOOP ( 'NONE', ( #52, #221 ) ) ;
#8 = CARTESIAN_POINT ( 'NONE',  ( 0.000000000000000000, 0.000000000000000000, 0.000000000000000000 ) ) ;
#9 = APPROVAL_STATUS ( 'not_yet_approved' ) ;
#10 = CARTESIAN_POINT ( 'NONE',  ( -16.64999999999999858, 0.000000000000000000, 1.848521336000885482E-15 ) ) ;
#11 = DATE_AND_TIME ( #93, #233 ) ;
#12 = CLOSED_SHELL ( 'NONE', ( #162, #5, #101, #183, #248, #190 ) ) ;
#13 = CC_DESIGN_PERSON_AND_ORGANIZATION_ASSIGNMENT ( #59, #161, ( #100 ) ) ;
#14 = AXIS2_PLACEMENT_3D ( 'NONE', #94, #136, #43 ) ;
#15 = ORGANIZATION ( 'UNSPECIFIED', 'UNSPECIFIED', '' ) ;
#16 = ORIENTED_EDGE ( 'NONE', *, *, #207, .F. ) ;
#17 =( LENGTH_UNIT ( ) NAMED_UNIT ( * ) SI_UNIT ( .MILLI., .METRE. ) );
#18 = PERSON_AND_ORGANIZATION ( #69, #15 ) ;
#19 = ORIENTED_EDGE ( 'NONE', *, *, #220, .F. ) ;
#20 = AXIS2_PLACEMENT_3D ( 'NONE', #108, #214, #107 ) ;
#21 = EDGE_CURVE ( 'NONE', #49, #252, #143, .T. ) ;
#22 = CARTESIAN_POINT ( 'NONE',  ( -11.77332790675607654, -1.451206456989613517E-15, -11.77332790675595398 ) ) ;
#23 = CALENDAR_DATE ( 2024, 3, 8 ) ;
#24 = CARTESIAN_POINT ( 'NONE',  ( -28.49999999999999289, 0.000000000000000000, -5.204170427930421283E-15 ) ) ;
#25 = DIRECTION ( 'NONE',  ( 0.000000000000000000, 0.000000000000000000, 1.000000000000000000 ) ) ;
#26 = ADVANCED_BREP_SHAPE_REPRESENTATION ( '3D_R1650_26.9x1.6_17353150', ( #74, #121 ), #160 ) ;
#27 = CARTESIAN_POINT ( 'NONE',  ( -20.15254326381671035, 0.000000000000000000, -20.15254326381649363 ) ) ;
#28 = AXIS2_PLACEMENT_3D ( 'NONE', #141, #199, #25 ) ;
#29 = EDGE_CURVE ( 'NONE', #119, #96, #193, .T. ) ;
#30 = AXIS2_PLACEMENT_3D ( 'NONE', #80, #159, #92 ) ;
#31 = UNCERTAINTY_MEASURE_WITH_UNIT (LENGTH_MEASURE( 1.000000000000000082E-05 ), #17, 'distance_accuracy_value', 'NONE');
#32 = PLANE ( 'NONE',  #216 ) ;
#33 = APPROVAL ( #86, 'UNSPECIFIED' ) ;
#34 = DIRECTION ( 'NONE',  ( 0.000000000000000000, 0.000000000000000000, 1.000000000000000000 ) ) ;
#35 = DIRECTION ( 'NONE',  ( 1.000000000000000000, 0.000000000000000000, -1.110223024625156540E-16 ) ) ;
#36 = VERTEX_POINT ( 'NONE', #99 ) ;
#37 = EDGE_CURVE ( 'NONE', #41, #178, #39, .T. ) ;
#38 = DIRECTION ( 'NONE',  ( 0.000000000000000000, 0.000000000000000000, 1.000000000000000000 ) ) ;
#39 = CIRCLE ( 'NONE', #206, 13.44999999999999929 ) ;
#40 = DIRECTION ( 'NONE',  ( 0.7071067811865514585, 0.000000000000000000, 0.7071067811865436870 ) ) ;
#41 = VERTEX_POINT ( 'NONE', #174 ) ;
#42 = DIRECTION ( 'NONE',  ( 1.000000000000000000, 0.000000000000000000, -1.110223024625156787E-16 ) ) ;
#43 = DIRECTION ( 'NONE',  ( 0.000000000000000000, 0.000000000000000000, 1.000000000000000000 ) ) ;
#44 = CIRCLE ( 'NONE', #83, 13.44999999999999929 ) ;
#45 = PRODUCT_RELATED_PRODUCT_CATEGORY ( 'detail', '', ( #97 ) ) ;
#46 = DIRECTION ( 'NONE',  ( 0.7071067811865514585, 0.000000000000000000, 0.7071067811865436870 ) ) ;
#47 = LOCAL_TIME ( 9, 39, 9.000000000000000000, #139 ) ;
#48 = APPROVAL_PERSON_ORGANIZATION ( #18, #33, #57 ) ;
#49 = VERTEX_POINT ( 'NONE', #222 ) ;
#50 = CARTESIAN_POINT ( 'NONE',  ( 0.000000000000000000, 0.000000000000000000, 0.000000000000000000 ) ) ;
#51 = EDGE_CURVE ( 'NONE', #178, #41, #44, .T. ) ;
#52 = ORIENTED_EDGE ( 'NONE', *, *, #29, .T. ) ;
#53 = AXIS2_PLACEMENT_3D ( 'NONE', #76, #2, #234 ) ;
#54 = EDGE_LOOP ( 'NONE', ( #153, #103, #176, #210 ) ) ;
#55 = PERSON_AND_ORGANIZATION ( #69, #15 ) ;
#56 = EDGE_LOOP ( 'NONE', ( #19, #147 ) ) ;
#57 = APPROVAL_ROLE ( '' ) ;
#58 = DIRECTION ( 'NONE',  ( 0.7071067811865514585, 0.000000000000000000, 0.7071067811865436870 ) ) ;
#59 = PERSON_AND_ORGANIZATION ( #69, #15 ) ;
#60 = DIRECTION ( 'NONE',  ( 0.000000000000000000, 1.000000000000000000, 0.000000000000000000 ) ) ;
#61 = CARTESIAN_POINT ( 'NONE',  ( -28.49999999999999289, 0.000000000000000000, -5.204170427930421283E-15 ) ) ;
#62 = PRODUCT_DEFINITION_SHAPE ( 'NONE', 'NONE',  #125 ) ;
#63 = AXIS2_PLACEMENT_3D ( 'NONE', #120, #135, #40 ) ;
#64 = CALENDAR_DATE ( 2024, 3, 8 ) ;
#65 = DATE_TIME_ROLE ( 'classification_date' ) ;
#66 = CC_DESIGN_PERSON_AND_ORGANIZATION_ASSIGNMENT ( #55, #89, ( #97 ) ) ;
#67 = CIRCLE ( 'NONE', #63, 11.84999999999999787 ) ;
#68 = EDGE_LOOP ( 'NONE', ( #170, #156, #180, #78 ) ) ;
#69 = PERSON ( 'UNSPECIFIED', 'UNSPECIFIED', 'UNSPECIFIED', ('UNSPECIFIED'), ('UNSPECIFIED'), ('UNSPECIFIED') ) ;
#70 = DIRECTION ( 'NONE',  ( 0.000000000000000000, 1.000000000000000000, 0.000000000000000000 ) ) ;
#71 = ORIENTED_EDGE ( 'NONE', *, *, #37, .F. ) ;
#72 = COORDINATED_UNIVERSAL_TIME_OFFSET ( 1, 0, .AHEAD. ) ;
#73 = CC_DESIGN_APPROVAL ( #247, ( #100 ) ) ;
#74 = MANIFOLD_SOLID_BREP ( 'Wandung1', #12 ) ;
#75 = ORIENTED_EDGE ( 'NONE', *, *, #51, .F. ) ;
#76 = CARTESIAN_POINT ( 'NONE',  ( -28.49999999999999645, 0.000000000000000000, 3.164135620181695746E-15 ) ) ;
#77 = DIRECTION ( 'NONE',  ( -0.7071067811865436870, 0.000000000000000000, 0.7071067811865513475 ) ) ;
#78 = ORIENTED_EDGE ( 'NONE', *, *, #148, .F. ) ;
#79 = APPROVAL_ROLE ( '' ) ;
#80 = CARTESIAN_POINT ( 'NONE',  ( -28.49999999999999289, 0.000000000000000000, -5.204170427930421283E-15 ) ) ;
#81 = AXIS2_PLACEMENT_3D ( 'NONE', #201, #236, #38 ) ;
#82 = TOROIDAL_SURFACE ( 'NONE', #163, 28.49999999999999645, 13.44999999999999929 ) ;
#83 = AXIS2_PLACEMENT_3D ( 'NONE', #215, #239, #3 ) ;
#84 = EDGE_LOOP ( 'NONE', ( #75, #71 ) ) ;
#85 =( NAMED_UNIT ( * ) SI_UNIT ( $, .STERADIAN. ) SOLID_ANGLE_UNIT ( ) );
#86 = APPROVAL_STATUS ( 'not_yet_approved' ) ;
#87 = DIRECTION ( 'NONE',  ( 0.000000000000000000, 1.000000000000000000, 0.000000000000000000 ) ) ;
#88 = TOROIDAL_SURFACE ( 'NONE', #81, 28.49999999999999645, 11.84999999999999964 ) ;
#89 = PERSON_AND_ORGANIZATION_ROLE ( 'design_owner' ) ;
#90 = CARTESIAN_POINT ( 'NONE',  ( -20.15254326381670680, 0.000000000000000000, -20.15254326381649719 ) ) ;
#91 = FACE_OUTER_BOUND ( 'NONE', #84, .T. ) ;
#92 = DIRECTION ( 'NONE',  ( 1.000000000000000000, 0.000000000000000000, -1.110223024625156787E-16 ) ) ;
#93 = CALENDAR_DATE ( 2024, 3, 8 ) ;
#94 = CARTESIAN_POINT ( 'NONE',  ( 0.000000000000000000, 0.000000000000000000, 0.000000000000000000 ) ) ;
#95 = PERSON_AND_ORGANIZATION ( #69, #15 ) ;
#96 = VERTEX_POINT ( 'NONE', #115 ) ;
#97 = PRODUCT ( '3D_R1650_26.9x1.6_17353150', '3D_R1650_26.9x1.6_17353150', '', ( #235 ) ) ;
#98 = APPROVAL_STATUS ( 'not_yet_approved' ) ;
#99 = CARTESIAN_POINT ( 'NONE',  ( -40.34999999999999432, 0.000000000000000000, 4.479749904362506010E-15 ) ) ;
#100 = PRODUCT_DEFINITION_FORMATION_WITH_SPECIFIED_SOURCE ( 'ANY', '', #97, .NOT_KNOWN. ) ;
#101 = ADVANCED_FACE ( 'NONE', ( #151 ), #246, .T. ) ;
#102 = CC_DESIGN_PERSON_AND_ORGANIZATION_ASSIGNMENT ( #6, #117, ( #177 ) ) ;
#103 = ORIENTED_EDGE ( 'NONE', *, *, #122, .T. ) ;
#104 = APPLICATION_PROTOCOL_DEFINITION ( 'international standard', 'config_control_design', 1994, #185 ) ;
#105 = CIRCLE ( 'NONE', #20, 15.04999999999999716 ) ;
#106 = FACE_BOUND ( 'NONE', #7, .T. ) ;
#107 = DIRECTION ( 'NONE',  ( 0.000000000000000000, 0.000000000000000000, 1.000000000000000000 ) ) ;
#108 = CARTESIAN_POINT ( 'NONE',  ( 0.000000000000000000, -1.647149944853189991E-15, 0.000000000000000000 ) ) ;
#109 = CIRCLE ( 'NONE', #127, 11.84999999999999964 ) ;
#110 = CARTESIAN_POINT ( 'NONE',  ( 0.000000000000000000, 0.000000000000000000, 0.000000000000000000 ) ) ;
#111 = COORDINATED_UNIVERSAL_TIME_OFFSET ( 1, 0, .AHEAD. ) ;
#112 = DIRECTION ( 'NONE',  ( 0.000000000000000000, 0.000000000000000000, 1.000000000000000000 ) ) ;
#113 = DIRECTION ( 'NONE',  ( 1.110223024625156787E-16, 0.000000000000000000, 1.000000000000000000 ) ) ;
#114 = DATE_AND_TIME ( #181, #47 ) ;
#115 = CARTESIAN_POINT ( 'NONE',  ( -28.53175862087734771, 0.000000000000000000, -28.53175862087703507 ) ) ;
#116 = FACE_OUTER_BOUND ( 'NONE', #218, .T. ) ;
#117 = PERSON_AND_ORGANIZATION_ROLE ( 'classification_officer' ) ;
#118 = AXIS2_PLACEMENT_3D ( 'NONE', #24, #155, #237 ) ;
#119 = VERTEX_POINT ( 'NONE', #22 ) ;
#120 = CARTESIAN_POINT ( 'NONE',  ( -20.15254326381671035, 0.000000000000000000, -20.15254326381649363 ) ) ;
#121 = AXIS2_PLACEMENT_3D ( 'NONE', #50, #253, #146 ) ;
#122 = EDGE_CURVE ( 'NONE', #41, #252, #211, .T. ) ;
#123 = APPLICATION_CONTEXT ( 'configuration controlled 3d designs of mechanical parts and assemblies' ) ;
#124 = LOCAL_TIME ( 9, 39, 9.000000000000000000, #137 ) ;
#125 = PRODUCT_DEFINITION ( 'UNKNOWN', '', #100, #188 ) ;
#126 = DATE_TIME_ROLE ( 'creation_date' ) ;
#127 = AXIS2_PLACEMENT_3D ( 'NONE', #130, #171, #35 ) ;
#128 = CC_DESIGN_SECURITY_CLASSIFICATION ( #177, ( #100 ) ) ;
#129 = VERTEX_POINT ( 'NONE', #10 ) ;
#130 = CARTESIAN_POINT ( 'NONE',  ( -28.49999999999999645, 0.000000000000000000, 3.164135620181695746E-15 ) ) ;
#131 = DIRECTION ( 'NONE',  ( -0.7071067811865436870, 0.000000000000000000, 0.7071067811865513475 ) ) ;
#132 = PERSON_AND_ORGANIZATION ( #69, #15 ) ;
#133 = APPROVAL ( #9, 'UNSPECIFIED' ) ;
#134 = AXIS2_PLACEMENT_3D ( 'NONE', #61, #113, #42 ) ;
#135 = DIRECTION ( 'NONE',  ( -0.7071067811865436870, 0.000000000000000000, 0.7071067811865513475 ) ) ;
#136 = DIRECTION ( 'NONE',  ( 0.000000000000000000, 1.000000000000000000, 0.000000000000000000 ) ) ;
#137 = COORDINATED_UNIVERSAL_TIME_OFFSET ( 1, 0, .AHEAD. ) ;
#138 = DIRECTION ( 'NONE',  ( 0.000000000000000000, 0.000000000000000000, 1.000000000000000000 ) ) ;
#139 = COORDINATED_UNIVERSAL_TIME_OFFSET ( 1, 0, .AHEAD. ) ;
#140 = CIRCLE ( 'NONE', #30, 13.44999999999999929 ) ;
#141 = CARTESIAN_POINT ( 'NONE',  ( 0.000000000000000000, 0.000000000000000000, 0.000000000000000000 ) ) ;
#142 = SHAPE_DEFINITION_REPRESENTATION ( #62, #26 ) ;
#143 = CIRCLE ( 'NONE', #118, 13.44999999999999929 ) ;
#144 = EDGE_LOOP ( 'NONE', ( #189, #197, #208, #16 ) ) ;
#145 = ORIENTED_EDGE ( 'NONE', *, *, #172, .F. ) ;
#146 = DIRECTION ( 'NONE',  ( 1.000000000000000000, 0.000000000000000000, 0.000000000000000000 ) ) ;
#147 = ORIENTED_EDGE ( 'NONE', *, *, #238, .F. ) ;
#148 = EDGE_CURVE ( 'NONE', #252, #49, #140, .T. ) ;
#149 = LOCAL_TIME ( 9, 39, 9.000000000000000000, #111 ) ;
#150 = DIRECTION ( 'NONE',  ( -0.7071067811865436870, 0.000000000000000000, 0.7071067811865513475 ) ) ;
#151 = FACE_OUTER_BOUND ( 'NONE', #68, .T. ) ;
#152 = CC_DESIGN_DATE_AND_TIME_ASSIGNMENT ( #231, #126, ( #125 ) ) ;
#153 = ORIENTED_EDGE ( 'NONE', *, *, #51, .T. ) ;
#154 = LOCAL_TIME ( 9, 39, 9.000000000000000000, #72 ) ;
#155 = DIRECTION ( 'NONE',  ( 1.110223024625156540E-16, 0.000000000000000000, 1.000000000000000000 ) ) ;
#156 = ORIENTED_EDGE ( 'NONE', *, *, #37, .T. ) ;
#157 = APPROVAL_DATE_TIME ( #11, #133 ) ;
#158 = EDGE_CURVE ( 'NONE', #96, #119, #67, .T. ) ;
#159 = DIRECTION ( 'NONE',  ( 1.110223024625156540E-16, 0.000000000000000000, 1.000000000000000000 ) ) ;
#160 =( GEOMETRIC_REPRESENTATION_CONTEXT ( 3 ) GLOBAL_UNCERTAINTY_ASSIGNED_CONTEXT ( ( #31 ) ) GLOBAL_UNIT_ASSIGNED_CONTEXT ( ( #17, #169, #85 ) ) REPRESENTATION_CONTEXT ( 'NONE', 'WORKASPACE' ) );
#161 = PERSON_AND_ORGANIZATION_ROLE ( 'creator' ) ;
#162 = ADVANCED_FACE ( 'NONE', ( #241 ), #88, .F. ) ;
#163 = AXIS2_PLACEMENT_3D ( 'NONE', #8, #60, #138 ) ;
#164 = CC_DESIGN_APPROVAL ( #133, ( #177 ) ) ;
#165 = EDGE_LOOP ( 'NONE', ( #250, #4 ) ) ;
#166 = APPROVAL_PERSON_ORGANIZATION ( #209, #247, #242 ) ;
#167 = ORIENTED_EDGE ( 'NONE', *, *, #29, .F. ) ;
#168 = DIRECTION ( 'NONE',  ( 0.7071067811865513475, 0.000000000000000000, 0.7071067811865436870 ) ) ;
#169 =( NAMED_UNIT ( * ) PLANE_ANGLE_UNIT ( ) SI_UNIT ( $, .RADIAN. ) );
#170 = ORIENTED_EDGE ( 'NONE', *, *, #122, .F. ) ;
#171 = DIRECTION ( 'NONE',  ( 1.110223024625156540E-16, 0.000000000000000000, 1.000000000000000000 ) ) ;
#172 = EDGE_CURVE ( 'NONE', #96, #36, #243, .T. ) ;
#173 = CALENDAR_DATE ( 2024, 3, 8 ) ;
#174 = CARTESIAN_POINT ( 'NONE',  ( -29.66312947077582507, 0.000000000000000000, -29.66312947077551243 ) ) ;
#175 = DATE_AND_TIME ( #64, #124 ) ;
#176 = ORIENTED_EDGE ( 'NONE', *, *, #21, .F. ) ;
#177 = SECURITY_CLASSIFICATION ( '', '', #179 ) ;
#178 = VERTEX_POINT ( 'NONE', #225 ) ;
#179 = SECURITY_CLASSIFICATION_LEVEL ( 'unclassified' ) ;
#180 = ORIENTED_EDGE ( 'NONE', *, *, #228, .T. ) ;
#181 = CALENDAR_DATE ( 2024, 3, 8 ) ;
#182 = AXIS2_PLACEMENT_3D ( 'NONE', #229, #87, #34 ) ;
#183 = ADVANCED_FACE ( 'NONE', ( #244, #227 ), #184, .T. ) ;
#184 = PLANE ( 'NONE',  #134 ) ;
#185 = APPLICATION_CONTEXT ( 'configuration controlled 3d designs of mechanical parts and assemblies' ) ;
#186 = AXIS2_PLACEMENT_3D ( 'NONE', #110, #195, #112 ) ;
#187 = CARTESIAN_POINT ( 'NONE',  ( 0.000000000000000000, 0.000000000000000000, 0.000000000000000000 ) ) ;
#188 = DESIGN_CONTEXT ( 'detailed design', #123, 'design' ) ;
#189 = ORIENTED_EDGE ( 'NONE', *, *, #158, .F. ) ;
#190 = ADVANCED_FACE ( 'NONE', ( #116 ), #249, .F. ) ;
#191 = CARTESIAN_POINT ( 'NONE',  ( -41.95000000000000284, 0.000000000000000000, -3.710920459809585421E-15 ) ) ;
#192 = APPROVAL_DATE_TIME ( #213, #33 ) ;
#193 = CIRCLE ( 'NONE', #1, 11.84999999999999787 ) ;
#194 = CARTESIAN_POINT ( 'NONE',  ( -20.15254326381670680, 0.000000000000000000, -20.15254326381649719 ) ) ;
#195 = DIRECTION ( 'NONE',  ( 0.000000000000000000, 1.000000000000000000, 0.000000000000000000 ) ) ;
#196 = ORIENTED_EDGE ( 'NONE', *, *, #220, .T. ) ;
#197 = ORIENTED_EDGE ( 'NONE', *, *, #172, .T. ) ;
#198 = CC_DESIGN_DATE_AND_TIME_ASSIGNMENT ( #175, #65, ( #177 ) ) ;
#199 = DIRECTION ( 'NONE',  ( 0.000000000000000000, 1.000000000000000000, 0.000000000000000000 ) ) ;
#200 = PERSON_AND_ORGANIZATION_ROLE ( 'design_supplier' ) ;
#201 = CARTESIAN_POINT ( 'NONE',  ( 0.000000000000000000, 0.000000000000000000, 0.000000000000000000 ) ) ;
#202 = APPROVAL_DATE_TIME ( #114, #247 ) ;
#203 = CC_DESIGN_PERSON_AND_ORGANIZATION_ASSIGNMENT ( #132, #217, ( #125 ) ) ;
#204 = AXIS2_PLACEMENT_3D ( 'NONE', #187, #70, #251 ) ;
#205 = CC_DESIGN_PERSON_AND_ORGANIZATION_ASSIGNMENT ( #245, #200, ( #100 ) ) ;
#206 = AXIS2_PLACEMENT_3D ( 'NONE', #90, #77, #46 ) ;
#207 = EDGE_CURVE ( 'NONE', #119, #129, #226, .T. ) ;
#208 = ORIENTED_EDGE ( 'NONE', *, *, #238, .T. ) ;
#209 = PERSON_AND_ORGANIZATION ( #69, #15 ) ;
#210 = ORIENTED_EDGE ( 'NONE', *, *, #228, .F. ) ;
#211 = CIRCLE ( 'NONE', #28, 41.95000000000000284 ) ;
#212 = APPLICATION_PROTOCOL_DEFINITION ( 'international standard', 'config_control_design', 1994, #123 ) ;
#213 = DATE_AND_TIME ( #173, #154 ) ;
#214 = DIRECTION ( 'NONE',  ( 0.000000000000000000, 1.000000000000000000, 0.000000000000000000 ) ) ;
#215 = CARTESIAN_POINT ( 'NONE',  ( -20.15254326381670680, 0.000000000000000000, -20.15254326381649719 ) ) ;
#216 = AXIS2_PLACEMENT_3D ( 'NONE', #194, #150, #168 ) ;
#217 = PERSON_AND_ORGANIZATION_ROLE ( 'creator' ) ;
#218 = EDGE_LOOP ( 'NONE', ( #145, #167, #240, #196 ) ) ;
#219 = COORDINATED_UNIVERSAL_TIME_OFFSET ( 1, 0, .AHEAD. ) ;
#220 = EDGE_CURVE ( 'NONE', #129, #36, #230, .T. ) ;
#221 = ORIENTED_EDGE ( 'NONE', *, *, #158, .T. ) ;
#222 = CARTESIAN_POINT ( 'NONE',  ( -15.04999999999999538, 0.000000000000000000, -6.697420396051257146E-15 ) ) ;
#223 = APPROVAL_PERSON_ORGANIZATION ( #95, #133, #79 ) ;
#224 = FACE_OUTER_BOUND ( 'NONE', #54, .T. ) ;
#225 = CARTESIAN_POINT ( 'NONE',  ( -10.64195705685759030, -1.647149944853189991E-15, -10.64195705685748727 ) ) ;
#226 = CIRCLE ( 'NONE', #182, 16.64999999999999858 ) ;
#227 = FACE_OUTER_BOUND ( 'NONE', #165, .T. ) ;
#228 = EDGE_CURVE ( 'NONE', #178, #49, #105, .T. ) ;
#229 = CARTESIAN_POINT ( 'NONE',  ( 0.000000000000000000, -1.451206456989613517E-15, 0.000000000000000000 ) ) ;
#230 = CIRCLE ( 'NONE', #53, 11.84999999999999964 ) ;
#231 = DATE_AND_TIME ( #23, #149 ) ;
#232 = CC_DESIGN_APPROVAL ( #33, ( #125 ) ) ;
#233 = LOCAL_TIME ( 9, 39, 9.000000000000000000, #219 ) ;
#234 = DIRECTION ( 'NONE',  ( 1.000000000000000000, 0.000000000000000000, -1.110223024625156540E-16 ) ) ;
#235 = MECHANICAL_CONTEXT ( 'NONE', #185, 'mechanical' ) ;
#236 = DIRECTION ( 'NONE',  ( 0.000000000000000000, 1.000000000000000000, 0.000000000000000000 ) ) ;
#237 = DIRECTION ( 'NONE',  ( 1.000000000000000000, 0.000000000000000000, -1.110223024625156787E-16 ) ) ;
#238 = EDGE_CURVE ( 'NONE', #36, #129, #109, .T. ) ;
#239 = DIRECTION ( 'NONE',  ( -0.7071067811865436870, 0.000000000000000000, 0.7071067811865513475 ) ) ;
#240 = ORIENTED_EDGE ( 'NONE', *, *, #207, .T. ) ;
#241 = FACE_OUTER_BOUND ( 'NONE', #144, .T. ) ;
#242 = APPROVAL_ROLE ( '' ) ;
#243 = CIRCLE ( 'NONE', #186, 40.34999999999999432 ) ;
#244 = FACE_BOUND ( 'NONE', #56, .T. ) ;
#245 = PERSON_AND_ORGANIZATION ( #69, #15 ) ;
#246 = TOROIDAL_SURFACE ( 'NONE', #14, 28.49999999999999645, 13.44999999999999929 ) ;
#247 = APPROVAL ( #98, 'UNSPECIFIED' ) ;
#248 = ADVANCED_FACE ( 'NONE', ( #106, #91 ), #32, .F. ) ;
#249 = TOROIDAL_SURFACE ( 'NONE', #204, 28.49999999999999645, 11.84999999999999964 ) ;
#250 = ORIENTED_EDGE ( 'NONE', *, *, #21, .T. ) ;
#251 = DIRECTION ( 'NONE',  ( 0.000000000000000000, 0.000000000000000000, 1.000000000000000000 ) ) ;
#252 = VERTEX_POINT ( 'NONE', #191 ) ;
#253 = DIRECTION ( 'NONE',  ( 0.000000000000000000, 0.000000000000000000, 1.000000000000000000 ) ) ;
ENDSEC;
END-ISO-10303-21;
