ISO-10303-21;
HEADER;
FILE_DESCRIPTION (( 'STEP AP203' ),
    '1' );
FILE_NAME ('19-0402-02_outokumpu.step',
    '2015-08-11T09:23:50',
    ( '' ),
    ( '' ),
    'SwSTEP 2.0',
    'SolidWorks 2008',
    '' );
FILE_SCHEMA (( 'CONFIG_CONTROL_DESIGN' ));
ENDSEC;

DATA;
#1 = CARTESIAN_POINT ( 'NONE',  ( 0.0000000000000000000, 0.0000000000000000000, -50.00000000000000000 ) ) ;
#2 = DIRECTION ( 'NONE',  ( 1.000000000000000000, 0.0000000000000000000, 0.0000000000000000000 ) ) ;
#3 = DIRECTION ( 'NONE',  ( -0.0000000000000000000, -0.0000000000000000000, 1.000000000000000000 ) ) ;
#4 = DIRECTION ( 'NONE',  ( -0.0000000000000000000, -0.0000000000000000000, 1.000000000000000000 ) ) ;
#5 = DIRECTION ( 'NONE',  ( -0.0000000000000000000, 1.085776366117874700E-016, -1.000000000000000000 ) ) ;
#6 = DIRECTION ( 'NONE',  ( 1.000000000000000000, 0.0000000000000000000, 0.0000000000000000000 ) ) ;
#7 = DIRECTION ( 'NONE',  ( 0.0000000000000000000, 1.000000000000000000, 0.0000000000000000000 ) ) ;
#8 = ORIENTED_EDGE ( 'NONE', *, *, #88, .F. ) ;
#9 = ADVANCED_FACE ( 'NONE', ( #51, #50 ), #49, .F. ) ;
#10 = EDGE_LOOP ( 'NONE', ( #11, #12 ) ) ;
#11 = ORIENTED_EDGE ( 'NONE', *, *, #109, .F. ) ;
#12 = ORIENTED_EDGE ( 'NONE', *, *, #13, .F. ) ;
#13 = EDGE_CURVE ( 'NONE', #129, #108, #36, .T. ) ;
#14 = EDGE_LOOP ( 'NONE', ( #99, #100 ) ) ;
#15 = ORIENTED_EDGE ( 'NONE', *, *, #16, .F. ) ;
#16 = EDGE_CURVE ( 'NONE', #84, #81, #135, .T. ) ;
#17 = ORIENTED_EDGE ( 'NONE', *, *, #83, .F. ) ;
#18 = ADVANCED_FACE ( 'NONE', ( #145 ), #152, .T. ) ;
#19 = EDGE_LOOP ( 'NONE', ( #20, #21, #22, #23 ) ) ;
#20 = ORIENTED_EDGE ( 'NONE', *, *, #26, .F. ) ;
#21 = ORIENTED_EDGE ( 'NONE', *, *, #13, .T. ) ;
#22 = ORIENTED_EDGE ( 'NONE', *, *, #56, .T. ) ;
#23 = ORIENTED_EDGE ( 'NONE', *, *, #106, .F. ) ;
#24 = ADVANCED_FACE ( 'NONE', ( #150 ), #149, .F. ) ;
#25 = EDGE_LOOP ( 'NONE', ( #114, #115, #116, #117, #118 ) ) ;
#26 = EDGE_CURVE ( 'NONE', #129, #113, #159, .T. ) ;
#27 = ORIENTED_EDGE ( 'NONE', *, *, #28, .F. ) ;
#28 = EDGE_CURVE ( 'NONE', #29, #113, #155, .T. ) ;
#29 = VERTEX_POINT ( 'NONE', #168 ) ;
#30 = EDGE_CURVE ( 'NONE', #31, #126, #162, .T. ) ;
#31 = VERTEX_POINT ( 'NONE', #163 ) ;
#32 = ORIENTED_EDGE ( 'NONE', *, *, #33, .F. ) ;
#33 = EDGE_CURVE ( 'NONE', #61, #31, #142, .T. ) ;
#34 = CARTESIAN_POINT ( 'NONE',  ( 0.0000000000000000000, 0.0000000000000000000, -50.00000000000000000 ) ) ;
#35 = AXIS2_PLACEMENT_3D ( 'NONE', #34, #3, #2 ) ;
#36 = CIRCLE ( 'NONE', #35, 9.250000000000000000 ) ;
#37 = DIRECTION ( 'NONE',  ( 1.000000000000000000, 0.0000000000000000000, 0.0000000000000000000 ) ) ;
#38 = DIRECTION ( 'NONE',  ( 0.0000000000000000000, -0.0000000000000000000, 1.000000000000000000 ) ) ;
#39 = CARTESIAN_POINT ( 'NONE',  ( 0.0000000000000000000, 9.250000000000000000, -50.00000000000000000 ) ) ;
#40 = ORIENTED_EDGE ( 'NONE', *, *, #41, .F. ) ;
#41 = EDGE_CURVE ( 'NONE', #42, #91, #138, .T. ) ;
#42 = VERTEX_POINT ( 'NONE', #180 ) ;
#43 = MANIFOLD_SOLID_BREP ( 'NONE', #52 ) ;
#44 = ORIENTED_EDGE ( 'NONE', *, *, #45, .F. ) ;
#45 = EDGE_CURVE ( 'NONE', #46, #84, #173, .T. ) ;
#46 = VERTEX_POINT ( 'NONE', #181 ) ;
#47 = ORIENTED_EDGE ( 'NONE', *, *, #107, .F. ) ;
#48 = AXIS2_PLACEMENT_3D ( 'NONE', #39, #38, #37 ) ;
#49 = PLANE ( 'NONE',  #48 ) ;
#50 = FACE_BOUND ( 'NONE', #14, .T. ) ;
#51 = FACE_OUTER_BOUND ( 'NONE', #10, .T. ) ;
#52 = CLOSED_SHELL ( 'NONE', ( #85, #73, #72, #57, #95, #9, #102, #18, #24, #119 ) ) ;
#53 = ORIENTED_EDGE ( 'NONE', *, *, #125, .T. ) ;
#54 = ORIENTED_EDGE ( 'NONE', *, *, #101, .F. ) ;
#55 = ORIENTED_EDGE ( 'NONE', *, *, #56, .F. ) ;
#56 = EDGE_CURVE ( 'NONE', #108, #29, #170, .T. ) ;
#57 = ADVANCED_FACE ( 'NONE', ( #175 ), #179, .F. ) ;
#58 = EDGE_LOOP ( 'NONE', ( #59, #62, #63, #65, #66, #32 ) ) ;
#59 = ORIENTED_EDGE ( 'NONE', *, *, #60, .T. ) ;
#60 = EDGE_CURVE ( 'NONE', #61, #77, #183, .T. ) ;
#61 = VERTEX_POINT ( 'NONE', #313 ) ;
#62 = ORIENTED_EDGE ( 'NONE', *, *, #76, .T. ) ;
#63 = ORIENTED_EDGE ( 'NONE', *, *, #64, .T. ) ;
#64 = EDGE_CURVE ( 'NONE', #78, #89, #264, .T. ) ;
#65 = ORIENTED_EDGE ( 'NONE', *, *, #128, .F. ) ;
#66 = ORIENTED_EDGE ( 'NONE', *, *, #30, .F. ) ;
#67 = ORIENTED_EDGE ( 'NONE', *, *, #68, .T. ) ;
#68 = EDGE_CURVE ( 'NONE', #46, #61, #282, .T. ) ;
#69 = ORIENTED_EDGE ( 'NONE', *, *, #33, .T. ) ;
#70 = ORIENTED_EDGE ( 'NONE', *, *, #71, .F. ) ;
#71 = EDGE_CURVE ( 'NONE', #90, #31, #305, .T. ) ;
#72 = ADVANCED_FACE ( 'NONE', ( #217 ), #216, .T. ) ;
#73 = ADVANCED_FACE ( 'NONE', ( #280 ), #212, .F. ) ;
#74 = EDGE_LOOP ( 'NONE', ( #75, #79, #82, #44, #47 ) ) ;
#75 = ORIENTED_EDGE ( 'NONE', *, *, #76, .F. ) ;
#76 = EDGE_CURVE ( 'NONE', #77, #78, #184, .T. ) ;
#77 = VERTEX_POINT ( 'NONE', #218 ) ;
#78 = VERTEX_POINT ( 'NONE', #299 ) ;
#79 = ORIENTED_EDGE ( 'NONE', *, *, #80, .T. ) ;
#80 = EDGE_CURVE ( 'NONE', #77, #81, #298, .T. ) ;
#81 = VERTEX_POINT ( 'NONE', #294 ) ;
#82 = ORIENTED_EDGE ( 'NONE', *, *, #83, .T. ) ;
#83 = EDGE_CURVE ( 'NONE', #81, #84, #293, .T. ) ;
#84 = VERTEX_POINT ( 'NONE', #288 ) ;
#85 = ADVANCED_FACE ( 'NONE', ( #287 ), #211, .F. ) ;
#86 = EDGE_LOOP ( 'NONE', ( #87, #92, #40, #124, #127 ) ) ;
#87 = ORIENTED_EDGE ( 'NONE', *, *, #88, .T. ) ;
#88 = EDGE_CURVE ( 'NONE', #89, #90, #206, .T. ) ;
#89 = VERTEX_POINT ( 'NONE', #261 ) ;
#90 = VERTEX_POINT ( 'NONE', #260 ) ;
#91 = VERTEX_POINT ( 'NONE', #259 ) ;
#92 = ORIENTED_EDGE ( 'NONE', *, *, #93, .T. ) ;
#93 = EDGE_CURVE ( 'NONE', #90, #91, #258, .T. ) ;
#94 = EDGE_LOOP ( 'NONE', ( #110, #112, #27, #55 ) ) ;
#95 = ADVANCED_FACE ( 'NONE', ( #254 ), #253, .F. ) ;
#96 = EDGE_LOOP ( 'NONE', ( #97, #98, #67, #69, #70, #8 ) ) ;
#97 = ORIENTED_EDGE ( 'NONE', *, *, #64, .F. ) ;
#98 = ORIENTED_EDGE ( 'NONE', *, *, #107, .T. ) ;
#99 = ORIENTED_EDGE ( 'NONE', *, *, #41, .T. ) ;
#100 = ORIENTED_EDGE ( 'NONE', *, *, #101, .T. ) ;
#101 = EDGE_CURVE ( 'NONE', #91, #42, #252, .T. ) ;
#102 = ADVANCED_FACE ( 'NONE', ( #194, #193 ), #192, .F. ) ;
#103 = EDGE_LOOP ( 'NONE', ( #104, #105 ) ) ;
#104 = ORIENTED_EDGE ( 'NONE', *, *, #28, .T. ) ;
#105 = ORIENTED_EDGE ( 'NONE', *, *, #106, .T. ) ;
#106 = EDGE_CURVE ( 'NONE', #113, #29, #311, .T. ) ;
#107 = EDGE_CURVE ( 'NONE', #78, #46, #242, .T. ) ;
#108 = VERTEX_POINT ( 'NONE', #237 ) ;
#109 = EDGE_CURVE ( 'NONE', #108, #129, #236, .T. ) ;
#110 = ORIENTED_EDGE ( 'NONE', *, *, #109, .T. ) ;
#111 = EDGE_LOOP ( 'NONE', ( #15, #17 ) ) ;
#112 = ORIENTED_EDGE ( 'NONE', *, *, #26, .T. ) ;
#113 = VERTEX_POINT ( 'NONE', #231 ) ;
#114 = ORIENTED_EDGE ( 'NONE', *, *, #80, .F. ) ;
#115 = ORIENTED_EDGE ( 'NONE', *, *, #60, .F. ) ;
#116 = ORIENTED_EDGE ( 'NONE', *, *, #68, .F. ) ;
#117 = ORIENTED_EDGE ( 'NONE', *, *, #45, .T. ) ;
#118 = ORIENTED_EDGE ( 'NONE', *, *, #16, .T. ) ;
#119 = ADVANCED_FACE ( 'NONE', ( #230 ), #277, .F. ) ;
#120 = EDGE_LOOP ( 'NONE', ( #121, #122, #123, #53, #54 ) ) ;
#121 = ORIENTED_EDGE ( 'NONE', *, *, #93, .F. ) ;
#122 = ORIENTED_EDGE ( 'NONE', *, *, #71, .T. ) ;
#123 = ORIENTED_EDGE ( 'NONE', *, *, #30, .T. ) ;
#124 = ORIENTED_EDGE ( 'NONE', *, *, #125, .F. ) ;
#125 = EDGE_CURVE ( 'NONE', #126, #42, #272, .T. ) ;
#126 = VERTEX_POINT ( 'NONE', #268 ) ;
#127 = ORIENTED_EDGE ( 'NONE', *, *, #128, .T. ) ;
#128 = EDGE_CURVE ( 'NONE', #126, #89, #267, .T. ) ;
#129 = VERTEX_POINT ( 'NONE', #248 ) ;
#130 = DIRECTION ( 'NONE',  ( 1.000000000000000000, 0.0000000000000000000, 0.0000000000000000000 ) ) ;
#131 = DIRECTION ( 'NONE',  ( -0.0000000000000000000, -0.0000000000000000000, 1.000000000000000000 ) ) ;
#132 = CARTESIAN_POINT ( 'NONE',  ( 0.0000000000000000000, 0.0000000000000000000, -0.2297262821014150200 ) ) ;
#133 = AXIS2_PLACEMENT_3D ( 'NONE', #132, #131, #130 ) ;
#134 = CARTESIAN_POINT ( 'NONE',  ( 0.0000000000000000000, 0.0000000000000000000, -2.743547246460436300E-017 ) ) ;
#135 = CIRCLE ( 'NONE', #154, 6.808226282101412800 ) ;
#136 = DIRECTION ( 'NONE',  ( -0.0000000000000000000, -0.0000000000000000000, 1.000000000000000000 ) ) ;
#137 = AXIS2_PLACEMENT_3D ( 'NONE', #1, #4, #6 ) ;
#138 = CIRCLE ( 'NONE', #137, 6.808226282101472300 ) ;
#139 = DIRECTION ( 'NONE',  ( -0.0000000000000000000, 1.085776366117874700E-016, -1.000000000000000000 ) ) ;
#140 = VECTOR ( 'NONE', #139, 1000.000000000000000 ) ;
#141 = CARTESIAN_POINT ( 'NONE',  ( 0.0000000000000000000, 6.578500000000004500, -50.00000000000001400 ) ) ;
#142 = LINE ( 'NONE', #141, #140 ) ;
#143 = DIRECTION ( 'NONE',  ( 1.000000000000000000, 0.0000000000000000000, 0.0000000000000000000 ) ) ;
#144 = DIRECTION ( 'NONE',  ( -0.0000000000000000000, -0.0000000000000000000, 1.000000000000000000 ) ) ;
#145 = FACE_OUTER_BOUND ( 'NONE', #19, .T. ) ;
#146 = DIRECTION ( 'NONE',  ( 1.000000000000000000, 0.0000000000000000000, 0.0000000000000000000 ) ) ;
#147 = DIRECTION ( 'NONE',  ( -0.0000000000000000000, -0.0000000000000000000, 1.000000000000000000 ) ) ;
#148 = CARTESIAN_POINT ( 'NONE',  ( 0.0000000000000000000, 0.0000000000000000000, -4.336808689942017700E-016 ) ) ;
#149 = CONICAL_SURFACE ( 'NONE', #133, 6.578499999999995600, 0.7853981633974532800 ) ;
#150 = FACE_OUTER_BOUND ( 'NONE', #25, .T. ) ;
#151 = AXIS2_PLACEMENT_3D ( 'NONE', #148, #147, #146 ) ;
#152 = CYLINDRICAL_SURFACE ( 'NONE', #151, 9.250000000000000000 ) ;
#153 = DIRECTION ( 'NONE',  ( 1.000000000000000000, 0.0000000000000000000, 0.0000000000000000000 ) ) ;
#154 = AXIS2_PLACEMENT_3D ( 'NONE', #134, #136, #153 ) ;
#155 = CIRCLE ( 'NONE', #167, 9.250000000000000000 ) ;
#156 = DIRECTION ( 'NONE',  ( -0.0000000000000000000, -0.0000000000000000000, 1.000000000000000000 ) ) ;
#157 = VECTOR ( 'NONE', #156, 1000.000000000000000 ) ;
#158 = CARTESIAN_POINT ( 'NONE',  ( -9.250000000000000000, 1.132760877285699000E-015, -4.336808689942017700E-016 ) ) ;
#159 = LINE ( 'NONE', #158, #157 ) ;
#160 = CARTESIAN_POINT ( 'NONE',  ( 0.0000000000000000000, 0.0000000000000000000, -49.77027371789853300 ) ) ;
#161 = AXIS2_PLACEMENT_3D ( 'NONE', #160, #144, #143 ) ;
#162 = CIRCLE ( 'NONE', #161, 6.578499999999995600 ) ;
#163 = CARTESIAN_POINT ( 'NONE',  ( 0.0000000000000000000, 6.578499999999995600, -49.77027371789853300 ) ) ;
#164 = DIRECTION ( 'NONE',  ( 1.000000000000000000, 0.0000000000000000000, 0.0000000000000000000 ) ) ;
#165 = DIRECTION ( 'NONE',  ( -0.0000000000000000000, -0.0000000000000000000, 1.000000000000000000 ) ) ;
#166 = CARTESIAN_POINT ( 'NONE',  ( 0.0000000000000000000, 0.0000000000000000000, 0.0000000000000000000 ) ) ;
#167 = AXIS2_PLACEMENT_3D ( 'NONE', #166, #165, #164 ) ;
#168 = CARTESIAN_POINT ( 'NONE',  ( 9.250000000000000000, 0.0000000000000000000, 0.0000000000000000000 ) ) ;
#169 = CARTESIAN_POINT ( 'NONE',  ( 9.250000000000000000, 0.0000000000000000000, -4.336808689942017700E-016 ) ) ;
#170 = LINE ( 'NONE', #169, #174 ) ;
#171 = CARTESIAN_POINT ( 'NONE',  ( 6.578499999999995600, 0.0000000000000000000, -0.2297262821014150200 ) ) ;
#172 = VECTOR ( 'NONE', #182, 999.9999999999998900 ) ;
#173 = LINE ( 'NONE', #171, #172 ) ;
#174 = VECTOR ( 'NONE', #176, 1000.000000000000000 ) ;
#175 = FACE_OUTER_BOUND ( 'NONE', #58, .T. ) ;
#176 = DIRECTION ( 'NONE',  ( -0.0000000000000000000, -0.0000000000000000000, 1.000000000000000000 ) ) ;
#177 = CARTESIAN_POINT ( 'NONE',  ( 0.0000000000000000000, 1.959434878635760800E-015, -50.00000000000001400 ) ) ;
#178 = AXIS2_PLACEMENT_3D ( 'NONE', #177, #5, #7 ) ;
#179 = CYLINDRICAL_SURFACE ( 'NONE', #178, 6.578500000000002700 ) ;
#180 = CARTESIAN_POINT ( 'NONE',  ( -6.808226282101472300, 0.0000000000000000000, -50.00000000000000000 ) ) ;
#181 = CARTESIAN_POINT ( 'NONE',  ( 6.578499999999995600, 0.0000000000000000000, -0.2297262821014150200 ) ) ;
#182 = DIRECTION ( 'NONE',  ( 0.7071067811865510100, 0.0000000000000000000, 0.7071067811865441300 ) ) ;
#183 = CIRCLE ( 'NONE', #202, 6.578499999999995600 ) ;
#184 = CIRCLE ( 'NONE', #222, 6.578499999999995600 ) ;
#185 = DIRECTION ( 'NONE',  ( 1.000000000000000000, 0.0000000000000000000, 0.0000000000000000000 ) ) ;
#186 = DIRECTION ( 'NONE',  ( -0.0000000000000000000, -0.0000000000000000000, 1.000000000000000000 ) ) ;
#187 = AXIS2_PLACEMENT_3D ( 'NONE', #279, #186, #185 ) ;
#188 = DIRECTION ( 'NONE',  ( -1.000000000000000000, 0.0000000000000000000, -0.0000000000000000000 ) ) ;
#189 = DIRECTION ( 'NONE',  ( 0.0000000000000000000, 0.0000000000000000000, -1.000000000000000000 ) ) ;
#190 = AXIS2_PLACEMENT_3D ( 'NONE', #191, #189, #188 ) ;
#191 = CARTESIAN_POINT ( 'NONE',  ( 0.0000000000000000000, 9.250000000000000000, -2.168404344971008900E-016 ) ) ;
#192 = PLANE ( 'NONE',  #190 ) ;
#193 = FACE_BOUND ( 'NONE', #111, .T. ) ;
#194 = FACE_OUTER_BOUND ( 'NONE', #103, .T. ) ;
#195 = DIRECTION ( 'NONE',  ( 1.000000000000000000, 0.0000000000000000000, 0.0000000000000000000 ) ) ;
#196 = DIRECTION ( 'NONE',  ( -0.0000000000000000000, -0.0000000000000000000, 1.000000000000000000 ) ) ;
#197 = CARTESIAN_POINT ( 'NONE',  ( 0.0000000000000000000, 0.0000000000000000000, -50.00000000000000000 ) ) ;
#198 = AXIS2_PLACEMENT_3D ( 'NONE', #197, #196, #195 ) ;
#199 = DIRECTION ( 'NONE',  ( 0.0000000000000000000, 1.000000000000000000, 0.0000000000000000000 ) ) ;
#200 = DIRECTION ( 'NONE',  ( -0.0000000000000000000, 1.085776366117874700E-016, -1.000000000000000000 ) ) ;
#201 = AXIS2_PLACEMENT_3D ( 'NONE', #251, #200, #199 ) ;
#202 = AXIS2_PLACEMENT_3D ( 'NONE', #306, #229, #285 ) ;
#203 = DIRECTION ( 'NONE',  ( -0.0000000000000000000, -0.0000000000000000000, 1.000000000000000000 ) ) ;
#204 = CARTESIAN_POINT ( 'NONE',  ( 0.0000000000000000000, 0.0000000000000000000, -49.77027371789853300 ) ) ;
#205 = AXIS2_PLACEMENT_3D ( 'NONE', #204, #203, #262 ) ;
#206 = CIRCLE ( 'NONE', #205, 6.578499999999995600 ) ;
#207 = DIRECTION ( 'NONE',  ( -1.000000000000000000, 0.0000000000000000000, 0.0000000000000000000 ) ) ;
#208 = DIRECTION ( 'NONE',  ( 0.0000000000000000000, 0.0000000000000000000, -1.000000000000000000 ) ) ;
#209 = CARTESIAN_POINT ( 'NONE',  ( 0.0000000000000000000, 0.0000000000000000000, -50.00000000000000000 ) ) ;
#210 = AXIS2_PLACEMENT_3D ( 'NONE', #209, #208, #207 ) ;
#211 = CONICAL_SURFACE ( 'NONE', #210, 6.808226282101472300, 0.7853981633974690400 ) ;
#212 = CONICAL_SURFACE ( 'NONE', #187, 6.578499999999995600, 0.7853981633974532800 ) ;
#213 = DIRECTION ( 'NONE',  ( 1.000000000000000000, 0.0000000000000000000, 0.0000000000000000000 ) ) ;
#214 = DIRECTION ( 'NONE',  ( -0.0000000000000000000, -0.0000000000000000000, 1.000000000000000000 ) ) ;
#215 = AXIS2_PLACEMENT_3D ( 'NONE', #300, #214, #213 ) ;
#216 = CYLINDRICAL_SURFACE ( 'NONE', #215, 9.250000000000000000 ) ;
#217 = FACE_OUTER_BOUND ( 'NONE', #94, .T. ) ;
#218 = CARTESIAN_POINT ( 'NONE',  ( -6.578499999999995600, 8.196735030971197100E-016, -0.2297262821014150200 ) ) ;
#219 = DIRECTION ( 'NONE',  ( 1.000000000000000000, 0.0000000000000000000, 0.0000000000000000000 ) ) ;
#220 = DIRECTION ( 'NONE',  ( -0.0000000000000000000, -0.0000000000000000000, 1.000000000000000000 ) ) ;
#221 = CARTESIAN_POINT ( 'NONE',  ( 0.0000000000000000000, 0.0000000000000000000, -0.2297262821014150200 ) ) ;
#222 = AXIS2_PLACEMENT_3D ( 'NONE', #221, #220, #219 ) ;
#223 = PERSON ( 'UNSPECIFIED', 'UNSPECIFIED', 'UNSPECIFIED', ('UNSPECIFIED'), ('UNSPECIFIED'), ('UNSPECIFIED') ) ;
#224 = PRODUCT ( '19-0402-02_outokumpu', '19-0402-02_outokumpu', '', ( #225 ) ) ;
#225 = MECHANICAL_CONTEXT ( 'NONE', #227, 'mechanical' ) ;
#226 = APPLICATION_PROTOCOL_DEFINITION ( 'international standard', 'config_control_design', 1994, #227 ) ;
#227 = APPLICATION_CONTEXT ( 'configuration controlled 3d designs of mechanical parts and assemblies' ) ;
#228 = DIRECTION ( 'NONE',  ( 1.000000000000000000, 0.0000000000000000000, 0.0000000000000000000 ) ) ;
#229 = DIRECTION ( 'NONE',  ( -0.0000000000000000000, -0.0000000000000000000, 1.000000000000000000 ) ) ;
#230 = FACE_OUTER_BOUND ( 'NONE', #120, .T. ) ;
#231 = CARTESIAN_POINT ( 'NONE',  ( -9.250000000000000000, 1.132760877285699000E-015, 0.0000000000000000000 ) ) ;
#232 = DIRECTION ( 'NONE',  ( 1.000000000000000000, 0.0000000000000000000, 0.0000000000000000000 ) ) ;
#233 = DIRECTION ( 'NONE',  ( -0.0000000000000000000, -0.0000000000000000000, 1.000000000000000000 ) ) ;
#234 = CARTESIAN_POINT ( 'NONE',  ( 0.0000000000000000000, 0.0000000000000000000, -50.00000000000000000 ) ) ;
#235 = AXIS2_PLACEMENT_3D ( 'NONE', #234, #233, #232 ) ;
#236 = CIRCLE ( 'NONE', #235, 9.250000000000000000 ) ;
#237 = CARTESIAN_POINT ( 'NONE',  ( 9.250000000000000000, 0.0000000000000000000, -50.00000000000000000 ) ) ;
#238 = DIRECTION ( 'NONE',  ( 1.000000000000000000, 0.0000000000000000000, 0.0000000000000000000 ) ) ;
#239 = DIRECTION ( 'NONE',  ( -0.0000000000000000000, -0.0000000000000000000, 1.000000000000000000 ) ) ;
#240 = CARTESIAN_POINT ( 'NONE',  ( 0.0000000000000000000, 0.0000000000000000000, -0.2297262821014150200 ) ) ;
#241 = AXIS2_PLACEMENT_3D ( 'NONE', #240, #239, #238 ) ;
#242 = CIRCLE ( 'NONE', #241, 6.578499999999995600 ) ;
#243 = UNCERTAINTY_MEASURE_WITH_UNIT (LENGTH_MEASURE( 1.000000000000000100E-005 ), #246, 'distance_accuracy_value', 'NONE');
#244 =( NAMED_UNIT ( * ) SI_UNIT ( $, .STERADIAN. ) SOLID_ANGLE_UNIT ( ) );
#245 =( NAMED_UNIT ( * ) PLANE_ANGLE_UNIT ( ) SI_UNIT ( $, .RADIAN. ) );
#246 =( LENGTH_UNIT ( ) NAMED_UNIT ( * ) SI_UNIT ( .MILLI., .METRE. ) );
#247 = AXIS2_PLACEMENT_3D ( 'NONE', #315, #314, #228 ) ;
#248 = CARTESIAN_POINT ( 'NONE',  ( -9.250000000000000000, 1.132760877285699000E-015, -50.00000000000000000 ) ) ;
#249 = DIRECTION ( 'NONE',  ( 1.000000000000000000, 0.0000000000000000000, 0.0000000000000000000 ) ) ;
#250 = DIRECTION ( 'NONE',  ( -0.0000000000000000000, -0.0000000000000000000, 1.000000000000000000 ) ) ;
#251 = CARTESIAN_POINT ( 'NONE',  ( 0.0000000000000000000, 1.959434878635760800E-015, -50.00000000000001400 ) ) ;
#252 = CIRCLE ( 'NONE', #198, 6.808226282101472300 ) ;
#253 = CYLINDRICAL_SURFACE ( 'NONE', #201, 6.578500000000002700 ) ;
#254 = FACE_OUTER_BOUND ( 'NONE', #96, .T. ) ;
#255 = DIRECTION ( 'NONE',  ( 0.7071067811865622300, 8.659274570719535400E-017, -0.7071067811865329200 ) ) ;
#256 = VECTOR ( 'NONE', #255, 1000.000000000000000 ) ;
#257 = CARTESIAN_POINT ( 'NONE',  ( 6.808226282101472300, 8.337397163321963200E-016, -50.00000000000000000 ) ) ;
#258 = LINE ( 'NONE', #257, #256 ) ;
#259 = CARTESIAN_POINT ( 'NONE',  ( 6.808226282101472300, 8.337397163321963200E-016, -50.00000000000000000 ) ) ;
#260 = CARTESIAN_POINT ( 'NONE',  ( 6.578499999999995600, 8.196735030971233600E-016, -49.77027371789853300 ) ) ;
#261 = CARTESIAN_POINT ( 'NONE',  ( 8.056072898620508900E-016, -6.578499999999995600, -49.77027371789853300 ) ) ;
#262 = DIRECTION ( 'NONE',  ( 1.000000000000000000, 0.0000000000000000000, 0.0000000000000000000 ) ) ;
#263 = DIRECTION ( 'NONE',  ( -0.0000000000000000000, -0.0000000000000000000, 1.000000000000000000 ) ) ;
#264 = LINE ( 'NONE', #278, #283 ) ;
#265 = CARTESIAN_POINT ( 'NONE',  ( 0.0000000000000000000, 0.0000000000000000000, -49.77027371789853300 ) ) ;
#266 = AXIS2_PLACEMENT_3D ( 'NONE', #265, #250, #249 ) ;
#267 = CIRCLE ( 'NONE', #266, 6.578499999999995600 ) ;
#268 = CARTESIAN_POINT ( 'NONE',  ( -6.578499999999995600, 0.0000000000000000000, -49.77027371789853300 ) ) ;
#269 = DIRECTION ( 'NONE',  ( -0.7071067811865622300, 0.0000000000000000000, -0.7071067811865329200 ) ) ;
#270 = VECTOR ( 'NONE', #269, 1000.000000000000000 ) ;
#271 = CARTESIAN_POINT ( 'NONE',  ( -6.808226282101472300, 0.0000000000000000000, -50.00000000000000000 ) ) ;
#272 = LINE ( 'NONE', #271, #270 ) ;
#273 = DIRECTION ( 'NONE',  ( -1.000000000000000000, 0.0000000000000000000, 0.0000000000000000000 ) ) ;
#274 = DIRECTION ( 'NONE',  ( 0.0000000000000000000, 0.0000000000000000000, -1.000000000000000000 ) ) ;
#275 = CARTESIAN_POINT ( 'NONE',  ( 0.0000000000000000000, 0.0000000000000000000, -50.00000000000000000 ) ) ;
#276 = AXIS2_PLACEMENT_3D ( 'NONE', #275, #274, #273 ) ;
#277 = CONICAL_SURFACE ( 'NONE', #276, 6.808226282101472300, 0.7853981633974690400 ) ;
#278 = CARTESIAN_POINT ( 'NONE',  ( 8.056072898620512900E-016, -6.578500000000000900, -50.00000000000001400 ) ) ;
#279 = CARTESIAN_POINT ( 'NONE',  ( 0.0000000000000000000, 0.0000000000000000000, -0.2297262821014150200 ) ) ;
#280 = FACE_OUTER_BOUND ( 'NONE', #74, .T. ) ;
#281 = DIRECTION ( 'NONE',  ( -0.0000000000000000000, 1.085776366117874700E-016, -1.000000000000000000 ) ) ;
#282 = CIRCLE ( 'NONE', #284, 6.578499999999995600 ) ;
#283 = VECTOR ( 'NONE', #281, 1000.000000000000000 ) ;
#284 = AXIS2_PLACEMENT_3D ( 'NONE', #286, #263, #312 ) ;
#285 = DIRECTION ( 'NONE',  ( 1.000000000000000000, 0.0000000000000000000, 0.0000000000000000000 ) ) ;
#286 = CARTESIAN_POINT ( 'NONE',  ( 0.0000000000000000000, 0.0000000000000000000, -0.2297262821014150200 ) ) ;
#287 = FACE_OUTER_BOUND ( 'NONE', #86, .T. ) ;
#288 = CARTESIAN_POINT ( 'NONE',  ( 6.808226282101412800, 0.0000000000000000000, -2.743547246460436300E-017 ) ) ;
#289 = DIRECTION ( 'NONE',  ( 1.000000000000000000, 0.0000000000000000000, 0.0000000000000000000 ) ) ;
#290 = DIRECTION ( 'NONE',  ( -0.0000000000000000000, -0.0000000000000000000, 1.000000000000000000 ) ) ;
#291 = CARTESIAN_POINT ( 'NONE',  ( 0.0000000000000000000, 0.0000000000000000000, -2.743547246460436300E-017 ) ) ;
#292 = AXIS2_PLACEMENT_3D ( 'NONE', #291, #290, #289 ) ;
#293 = CIRCLE ( 'NONE', #292, 6.808226282101412800 ) ;
#294 = CARTESIAN_POINT ( 'NONE',  ( -6.808226282101412800, 8.337397163321891200E-016, -2.743547246460436300E-017 ) ) ;
#295 = DIRECTION ( 'NONE',  ( -0.7071067811865510100, 8.659274570719398600E-017, 0.7071067811865441300 ) ) ;
#296 = VECTOR ( 'NONE', #295, 999.9999999999998900 ) ;
#297 = CARTESIAN_POINT ( 'NONE',  ( -6.578499999999995600, 8.056072898620504000E-016, -0.2297262821014150200 ) ) ;
#298 = LINE ( 'NONE', #297, #296 ) ;
#299 = CARTESIAN_POINT ( 'NONE',  ( 8.056072898620508900E-016, -6.578499999999995600, -0.2297262821014150200 ) ) ;
#300 = CARTESIAN_POINT ( 'NONE',  ( 0.0000000000000000000, 0.0000000000000000000, -4.336808689942017700E-016 ) ) ;
#301 = DIRECTION ( 'NONE',  ( 1.000000000000000000, 0.0000000000000000000, 0.0000000000000000000 ) ) ;
#302 = DIRECTION ( 'NONE',  ( -0.0000000000000000000, -0.0000000000000000000, 1.000000000000000000 ) ) ;
#303 = CARTESIAN_POINT ( 'NONE',  ( 0.0000000000000000000, 0.0000000000000000000, -49.77027371789853300 ) ) ;
#304 = AXIS2_PLACEMENT_3D ( 'NONE', #303, #302, #301 ) ;
#305 = CIRCLE ( 'NONE', #304, 6.578499999999995600 ) ;
#306 = CARTESIAN_POINT ( 'NONE',  ( 0.0000000000000000000, 0.0000000000000000000, -0.2297262821014150200 ) ) ;
#307 = DIRECTION ( 'NONE',  ( 1.000000000000000000, 0.0000000000000000000, 0.0000000000000000000 ) ) ;
#308 = DIRECTION ( 'NONE',  ( -0.0000000000000000000, -0.0000000000000000000, 1.000000000000000000 ) ) ;
#309 = CARTESIAN_POINT ( 'NONE',  ( 0.0000000000000000000, 0.0000000000000000000, 0.0000000000000000000 ) ) ;
#310 = AXIS2_PLACEMENT_3D ( 'NONE', #309, #308, #307 ) ;
#311 = CIRCLE ( 'NONE', #310, 9.250000000000000000 ) ;
#312 = DIRECTION ( 'NONE',  ( 1.000000000000000000, 0.0000000000000000000, 0.0000000000000000000 ) ) ;
#313 = CARTESIAN_POINT ( 'NONE',  ( 0.0000000000000000000, 6.578499999999995600, -0.2297262821014150200 ) ) ;
#314 = DIRECTION ( 'NONE',  ( 0.0000000000000000000, 0.0000000000000000000, 1.000000000000000000 ) ) ;
#315 = CARTESIAN_POINT ( 'NONE',  ( 0.0000000000000000000, 0.0000000000000000000, 0.0000000000000000000 ) ) ;
#316 = ADVANCED_BREP_SHAPE_REPRESENTATION ( '19-0402-02_outokumpu', ( #43, #247 ), #317 ) ;
#317 =( GEOMETRIC_REPRESENTATION_CONTEXT ( 3 ) GLOBAL_UNCERTAINTY_ASSIGNED_CONTEXT ( ( #243 ) ) GLOBAL_UNIT_ASSIGNED_CONTEXT ( ( #246, #245, #244 ) ) REPRESENTATION_CONTEXT ( 'NONE', 'WORKASPACE' ) );
#318 = DATE_AND_TIME ( #382, #383 ) ;
#319 = APPROVAL_ROLE ( '' ) ;
#320 = APPROVAL ( #321, 'UNSPECIFIED' ) ;
#321 = APPROVAL_STATUS ( 'not_yet_approved' ) ;
#322 = PERSON_AND_ORGANIZATION ( #223, #327 ) ;
#323 = CC_DESIGN_DATE_AND_TIME_ASSIGNMENT ( #325, #324, ( #335 ) ) ;
#324 = DATE_TIME_ROLE ( 'classification_date' ) ;
#325 = DATE_AND_TIME ( #326, #347 ) ;
#326 = CALENDAR_DATE ( 2015, 11, 8 ) ;
#327 = ORGANIZATION ( 'UNSPECIFIED', 'UNSPECIFIED', '' ) ;
#328 = CC_DESIGN_PERSON_AND_ORGANIZATION_ASSIGNMENT ( #343, #329, ( #353 ) ) ;
#329 = PERSON_AND_ORGANIZATION_ROLE ( 'creator' ) ;
#330 = PRODUCT_RELATED_PRODUCT_CATEGORY ( 'detail', '', ( #224 ) ) ;
#331 = CC_DESIGN_SECURITY_CLASSIFICATION ( #335, ( #338 ) ) ;
#332 = CC_DESIGN_PERSON_AND_ORGANIZATION_ASSIGNMENT ( #334, #333, ( #335 ) ) ;
#333 = PERSON_AND_ORGANIZATION_ROLE ( 'classification_officer' ) ;
#334 = PERSON_AND_ORGANIZATION ( #223, #327 ) ;
#335 = SECURITY_CLASSIFICATION ( '', '', #341 ) ;
#336 = APPROVAL_STATUS ( 'not_yet_approved' ) ;
#337 = PERSON_AND_ORGANIZATION ( #223, #327 ) ;
#338 = PRODUCT_DEFINITION_FORMATION_WITH_SPECIFIED_SOURCE ( 'ANY', '', #224, .NOT_KNOWN. ) ;
#339 = SHAPE_DEFINITION_REPRESENTATION ( #340, #316 ) ;
#340 = PRODUCT_DEFINITION_SHAPE ( 'NONE', 'NONE',  #353 ) ;
#341 = SECURITY_CLASSIFICATION_LEVEL ( 'unclassified' ) ;
#342 = CC_DESIGN_PERSON_AND_ORGANIZATION_ASSIGNMENT ( #362, #361, ( #338 ) ) ;
#343 = PERSON_AND_ORGANIZATION ( #223, #327 ) ;
#344 = CC_DESIGN_APPROVAL ( #350, ( #353 ) ) ;
#345 = APPROVAL_DATE_TIME ( #346, #350 ) ;
#346 = DATE_AND_TIME ( #354, #355 ) ;
#347 = LOCAL_TIME ( 11, 23, 50.00000000000000000, #348 ) ;
#348 = COORDINATED_UNIVERSAL_TIME_OFFSET ( 1, 0, .AHEAD. ) ;
#349 = APPROVAL_ROLE ( '' ) ;
#350 = APPROVAL ( #351, 'UNSPECIFIED' ) ;
#351 = APPROVAL_STATUS ( 'not_yet_approved' ) ;
#352 = PERSON_AND_ORGANIZATION ( #223, #327 ) ;
#353 = PRODUCT_DEFINITION ( 'UNKNOWN', '', #338, #378 ) ;
#354 = CALENDAR_DATE ( 2015, 11, 8 ) ;
#355 = LOCAL_TIME ( 11, 23, 50.00000000000000000, #356 ) ;
#356 = COORDINATED_UNIVERSAL_TIME_OFFSET ( 1, 0, .AHEAD. ) ;
#357 = APPROVAL_PERSON_ORGANIZATION ( #352, #350, #349 ) ;
#358 = CC_DESIGN_PERSON_AND_ORGANIZATION_ASSIGNMENT ( #360, #359, ( #338 ) ) ;
#359 = PERSON_AND_ORGANIZATION_ROLE ( 'creator' ) ;
#360 = PERSON_AND_ORGANIZATION ( #223, #327 ) ;
#361 = PERSON_AND_ORGANIZATION_ROLE ( 'design_supplier' ) ;
#362 = PERSON_AND_ORGANIZATION ( #223, #327 ) ;
#363 = PERSON_AND_ORGANIZATION ( #223, #327 ) ;
#364 = CC_DESIGN_APPROVAL ( #377, ( #338 ) ) ;
#365 = APPROVAL_DATE_TIME ( #366, #377 ) ;
#366 = DATE_AND_TIME ( #367, #373 ) ;
#367 = CALENDAR_DATE ( 2015, 11, 8 ) ;
#368 = CC_DESIGN_DATE_AND_TIME_ASSIGNMENT ( #370, #369, ( #353 ) ) ;
#369 = DATE_TIME_ROLE ( 'creation_date' ) ;
#370 = DATE_AND_TIME ( #371, #386 ) ;
#371 = CALENDAR_DATE ( 2015, 11, 8 ) ;
#372 = PERSON_AND_ORGANIZATION_ROLE ( 'design_owner' ) ;
#373 = LOCAL_TIME ( 11, 23, 50.00000000000000000, #374 ) ;
#374 = COORDINATED_UNIVERSAL_TIME_OFFSET ( 1, 0, .AHEAD. ) ;
#375 = APPROVAL_PERSON_ORGANIZATION ( #337, #377, #376 ) ;
#376 = APPROVAL_ROLE ( '' ) ;
#377 = APPROVAL ( #336, 'UNSPECIFIED' ) ;
#378 = DESIGN_CONTEXT ( 'detailed design', #388, 'design' ) ;
#379 = APPLICATION_PROTOCOL_DEFINITION ( 'international standard', 'config_control_design', 1994, #388 ) ;
#380 = CC_DESIGN_APPROVAL ( #320, ( #335 ) ) ;
#381 = APPROVAL_DATE_TIME ( #318, #320 ) ;
#382 = CALENDAR_DATE ( 2015, 11, 8 ) ;
#383 = LOCAL_TIME ( 11, 23, 50.00000000000000000, #384 ) ;
#384 = COORDINATED_UNIVERSAL_TIME_OFFSET ( 1, 0, .AHEAD. ) ;
#385 = APPROVAL_PERSON_ORGANIZATION ( #322, #320, #319 ) ;
#386 = LOCAL_TIME ( 11, 23, 50.00000000000000000, #387 ) ;
#387 = COORDINATED_UNIVERSAL_TIME_OFFSET ( 1, 0, .AHEAD. ) ;
#388 = APPLICATION_CONTEXT ( 'configuration controlled 3d designs of mechanical parts and assemblies' ) ;
#389 = CC_DESIGN_PERSON_AND_ORGANIZATION_ASSIGNMENT ( #363, #372, ( #224 ) ) ;
ENDSEC;
END-ISO-10303-21;
