ISO-10303-21;
HEADER;
FILE_DESCRIPTION (( 'STEP AP203' ),
    '1' );
FILE_NAME ('OT214-500-506x3_OSTP.step',
    '2021-02-10T13:01:10',
    ( '' ),
    ( '' ),
    'SwSTEP 2.0',
    'SolidWorks 2014',
    '' );
FILE_SCHEMA (( 'CONFIG_CONTROL_DESIGN' ));
ENDSEC;

DATA;
#1 = EDGE_CURVE ( 'NONE', #202, #56, #252, .T. ) ;
#2 = PERSON_AND_ORGANIZATION ( #199, #138 ) ;
#3 = ORIENTED_EDGE ( 'NONE', *, *, #58, .F. ) ;
#4 = EDGE_CURVE ( 'NONE', #247, #146, #243, .T. ) ;
#5 = CARTESIAN_POINT ( 'NONE',  ( 253.0000000000000000, 0.0000000000000000000, -3.098356401842803700E-014 ) ) ;
#6 = CC_DESIGN_APPROVAL ( #200, ( #178 ) ) ;
#7 = COORDINATED_UNIVERSAL_TIME_OFFSET ( 1, 0, .AHEAD. ) ;
#8 = ORIENTED_EDGE ( 'NONE', *, *, #72, .F. ) ;
#9 = DIRECTION ( 'NONE',  ( 0.0000000000000000000, 0.0000000000000000000, 1.000000000000000000 ) ) ;
#10 = DIRECTION ( 'NONE',  ( 0.0000000000000000000, 0.0000000000000000000, 1.000000000000000000 ) ) ;
#11 = CARTESIAN_POINT ( 'NONE',  ( 599.9999999999998900, 347.0000000000000000, -3.098356401842803700E-014 ) ) ;
#12 = APPLICATION_CONTEXT ( 'configuration controlled 3d designs of mechanical parts and assemblies' ) ;
#13 = COORDINATED_UNIVERSAL_TIME_OFFSET ( 1, 0, .AHEAD. ) ;
#14 = CIRCLE ( 'NONE', #203, 250.0000000000000000 ) ;
#15 = PERSON_AND_ORGANIZATION_ROLE ( 'design_owner' ) ;
#16 =( GEOMETRIC_REPRESENTATION_CONTEXT ( 3 ) GLOBAL_UNCERTAINTY_ASSIGNED_CONTEXT ( ( #77 ) ) GLOBAL_UNIT_ASSIGNED_CONTEXT ( ( #230, #232, #173 ) ) REPRESENTATION_CONTEXT ( 'NONE', 'WORKASPACE' ) );
#17 = CIRCLE ( 'NONE', #136, 850.0000000000000000 ) ;
#18 = LOCAL_TIME ( 14, 1, 10.00000000000000000, #33 ) ;
#19 = VERTEX_POINT ( 'NONE', #128 ) ;
#20 = VERTEX_POINT ( 'NONE', #183 ) ;
#21 = DIRECTION ( 'NONE',  ( 0.0000000000000000000, 1.000000000000000000, 0.0000000000000000000 ) ) ;
#22 = AXIS2_PLACEMENT_3D ( 'NONE', #185, #31, #187 ) ;
#23 = CARTESIAN_POINT ( 'NONE',  ( -250.0000000000000000, 0.0000000000000000000, 0.0000000000000000000 ) ) ;
#24 = ORIENTED_EDGE ( 'NONE', *, *, #113, .F. ) ;
#25 = CARTESIAN_POINT ( 'NONE',  ( 599.9999999999998900, 600.0000000000000000, 0.0000000000000000000 ) ) ;
#26 = CARTESIAN_POINT ( 'NONE',  ( 250.0000000000000000, 0.0000000000000000000, -3.061616997868383100E-014 ) ) ;
#27 = CARTESIAN_POINT ( 'NONE',  ( 0.0000000000000000000, 0.0000000000000000000, 0.0000000000000000000 ) ) ;
#28 = VERTEX_POINT ( 'NONE', #23 ) ;
#29 = DIRECTION ( 'NONE',  ( 0.0000000000000000000, 0.0000000000000000000, 1.000000000000000000 ) ) ;
#30 = DIRECTION ( 'NONE',  ( 1.000000000000000000, 0.0000000000000000000, 0.0000000000000000000 ) ) ;
#31 = DIRECTION ( 'NONE',  ( 1.000000000000000000, 6.123233995736766000E-017, 0.0000000000000000000 ) ) ;
#32 = APPROVAL_ROLE ( '' ) ;
#33 = COORDINATED_UNIVERSAL_TIME_OFFSET ( 1, 0, .AHEAD. ) ;
#34 = FACE_BOUND ( 'NONE', #63, .T. ) ;
#35 = AXIS2_PLACEMENT_3D ( 'NONE', #93, #135, #30 ) ;
#36 = ORIENTED_EDGE ( 'NONE', *, *, #1, .F. ) ;
#37 = MANIFOLD_SOLID_BREP ( 'cut-body', #177 ) ;
#38 = AXIS2_PLACEMENT_3D ( 'NONE', #226, #9, #207 ) ;
#39 = CIRCLE ( 'NONE', #75, 253.0000000000000000 ) ;
#40 = FACE_OUTER_BOUND ( 'NONE', #133, .T. ) ;
#41 = CARTESIAN_POINT ( 'NONE',  ( 600.0000000000000000, 0.0000000000000000000, -3.098356401842803700E-014 ) ) ;
#42 = AXIS2_PLACEMENT_3D ( 'NONE', #206, #10, #47 ) ;
#43 = DIRECTION ( 'NONE',  ( 1.000000000000000000, 6.123233995736766000E-017, -0.0000000000000000000 ) ) ;
#44 = CARTESIAN_POINT ( 'NONE',  ( 0.0000000000000000000, 0.0000000000000000000, 0.0000000000000000000 ) ) ;
#45 = FACE_OUTER_BOUND ( 'NONE', #181, .T. ) ;
#46 = ADVANCED_FACE ( 'NONE', ( #139, #174 ), #127, .T. ) ;
#47 = DIRECTION ( 'NONE',  ( 1.000000000000000000, 0.0000000000000000000, 0.0000000000000000000 ) ) ;
#48 = CALENDAR_DATE ( 2021, 10, 2 ) ;
#49 = ADVANCED_FACE ( 'NONE', ( #123 ), #91, .T. ) ;
#50 = DIRECTION ( 'NONE',  ( 0.0000000000000000000, 1.000000000000000000, 0.0000000000000000000 ) ) ;
#51 = EDGE_CURVE ( 'NONE', #111, #28, #69, .T. ) ;
#52 = DATE_TIME_ROLE ( 'classification_date' ) ;
#53 = APPLICATION_PROTOCOL_DEFINITION ( 'international standard', 'config_control_design', 1994, #12 ) ;
#54 = CALENDAR_DATE ( 2021, 10, 2 ) ;
#55 = ORIENTED_EDGE ( 'NONE', *, *, #67, .F. ) ;
#56 = VERTEX_POINT ( 'NONE', #5 ) ;
#57 = DATE_TIME_ROLE ( 'creation_date' ) ;
#58 = EDGE_CURVE ( 'NONE', #146, #247, #14, .T. ) ;
#59 = AXIS2_PLACEMENT_3D ( 'NONE', #161, #87, #198 ) ;
#60 = PERSON_AND_ORGANIZATION ( #199, #138 ) ;
#61 = PRODUCT_DEFINITION_FORMATION_WITH_SPECIFIED_SOURCE ( 'ANY', '', #239, .NOT_KNOWN. ) ;
#62 = APPROVAL_DATE_TIME ( #115, #200 ) ;
#63 = EDGE_LOOP ( 'NONE', ( #213, #222 ) ) ;
#64 = ORIENTED_EDGE ( 'NONE', *, *, #51, .F. ) ;
#65 = DESIGN_CONTEXT ( 'detailed design', #12, 'design' ) ;
#66 = COORDINATED_UNIVERSAL_TIME_OFFSET ( 1, 0, .AHEAD. ) ;
#67 = EDGE_CURVE ( 'NONE', #56, #19, #116, .T. ) ;
#68 = APPROVAL_PERSON_ORGANIZATION ( #152, #200, #99 ) ;
#69 = CIRCLE ( 'NONE', #125, 250.0000000000000000 ) ;
#70 = DIRECTION ( 'NONE',  ( 1.000000000000000000, 0.0000000000000000000, 0.0000000000000000000 ) ) ;
#71 = ADVANCED_FACE ( 'NONE', ( #34, #45 ), #240, .F. ) ;
#72 = EDGE_CURVE ( 'NONE', #20, #202, #194, .T. ) ;
#73 = CARTESIAN_POINT ( 'NONE',  ( 600.0000000000000000, 850.0000000000000000, 0.0000000000000000000 ) ) ;
#74 = FACE_OUTER_BOUND ( 'NONE', #96, .T. ) ;
#75 = AXIS2_PLACEMENT_3D ( 'NONE', #44, #189, #76 ) ;
#76 = DIRECTION ( 'NONE',  ( 0.0000000000000000000, 0.0000000000000000000, 1.000000000000000000 ) ) ;
#77 = UNCERTAINTY_MEASURE_WITH_UNIT (LENGTH_MEASURE( 1.000000000000000100E-005 ), #230, 'distance_accuracy_value', 'NONE');
#78 = PERSON_AND_ORGANIZATION ( #199, #138 ) ;
#79 = ORIENTED_EDGE ( 'NONE', *, *, #58, .T. ) ;
#80 = CC_DESIGN_SECURITY_CLASSIFICATION ( #178, ( #61 ) ) ;
#81 = PERSON_AND_ORGANIZATION_ROLE ( 'design_supplier' ) ;
#82 = DIRECTION ( 'NONE',  ( 0.0000000000000000000, 0.0000000000000000000, 1.000000000000000000 ) ) ;
#83 = ORIENTED_EDGE ( 'NONE', *, *, #4, .T. ) ;
#84 = EDGE_CURVE ( 'NONE', #19, #56, #39, .T. ) ;
#85 = AXIS2_PLACEMENT_3D ( 'NONE', #27, #131, #208 ) ;
#86 = ORIENTED_EDGE ( 'NONE', *, *, #72, .T. ) ;
#87 = DIRECTION ( 'NONE',  ( 1.000000000000000000, 6.123233995736766000E-017, 0.0000000000000000000 ) ) ;
#88 = ORIENTED_EDGE ( 'NONE', *, *, #67, .T. ) ;
#89 = CARTESIAN_POINT ( 'NONE',  ( 600.0000000000000000, 0.0000000000000000000, 0.0000000000000000000 ) ) ;
#90 = ADVANCED_FACE ( 'NONE', ( #40 ), #124, .F. ) ;
#91 = TOROIDAL_SURFACE ( 'NONE', #155, 600.0000000000000000, 253.0000000000000000 ) ;
#92 = DIRECTION ( 'NONE',  ( 0.0000000000000000000, 1.000000000000000000, 0.0000000000000000000 ) ) ;
#93 = CARTESIAN_POINT ( 'NONE',  ( 600.0000000000000000, 0.0000000000000000000, 0.0000000000000000000 ) ) ;
#94 = CARTESIAN_POINT ( 'NONE',  ( 0.0000000000000000000, 0.0000000000000000000, 0.0000000000000000000 ) ) ;
#95 = PERSON_AND_ORGANIZATION ( #199, #138 ) ;
#96 = EDGE_LOOP ( 'NONE', ( #8, #160, #156, #36 ) ) ;
#97 = AXIS2_PLACEMENT_3D ( 'NONE', #25, #43, #126 ) ;
#98 = APPROVAL_STATUS ( 'not_yet_approved' ) ;
#99 = APPROVAL_ROLE ( '' ) ;
#100 = ORIENTED_EDGE ( 'NONE', *, *, #143, .F. ) ;
#101 = AXIS2_PLACEMENT_3D ( 'NONE', #148, #29, #134 ) ;
#102 = EDGE_CURVE ( 'NONE', #202, #20, #235, .T. ) ;
#103 = DATE_AND_TIME ( #54, #251 ) ;
#104 = EDGE_LOOP ( 'NONE', ( #179, #118, #197, #88 ) ) ;
#105 = DIRECTION ( 'NONE',  ( 1.000000000000000000, 0.0000000000000000000, 0.0000000000000000000 ) ) ;
#106 = PERSON_AND_ORGANIZATION ( #199, #138 ) ;
#107 = AXIS2_PLACEMENT_3D ( 'NONE', #224, #246, #248 ) ;
#108 = DIRECTION ( 'NONE',  ( 0.0000000000000000000, 0.0000000000000000000, 1.000000000000000000 ) ) ;
#109 = CALENDAR_DATE ( 2021, 10, 2 ) ;
#110 = CARTESIAN_POINT ( 'NONE',  ( 0.0000000000000000000, 0.0000000000000000000, 0.0000000000000000000 ) ) ;
#111 = VERTEX_POINT ( 'NONE', #26 ) ;
#112 = CARTESIAN_POINT ( 'NONE',  ( 0.0000000000000000000, 0.0000000000000000000, 0.0000000000000000000 ) ) ;
#113 = EDGE_CURVE ( 'NONE', #146, #111, #176, .T. ) ;
#114 = SECURITY_CLASSIFICATION_LEVEL ( 'unclassified' ) ;
#115 = DATE_AND_TIME ( #166, #137 ) ;
#116 = CIRCLE ( 'NONE', #85, 253.0000000000000000 ) ;
#117 = AXIS2_PLACEMENT_3D ( 'NONE', #242, #82, #119 ) ;
#118 = ORIENTED_EDGE ( 'NONE', *, *, #102, .F. ) ;
#119 = DIRECTION ( 'NONE',  ( 1.000000000000000000, 0.0000000000000000000, 0.0000000000000000000 ) ) ;
#120 = CIRCLE ( 'NONE', #150, 250.0000000000000000 ) ;
#121 = AXIS2_PLACEMENT_3D ( 'NONE', #169, #147, #145 ) ;
#122 = COORDINATED_UNIVERSAL_TIME_OFFSET ( 1, 0, .AHEAD. ) ;
#123 = FACE_OUTER_BOUND ( 'NONE', #104, .T. ) ;
#124 = TOROIDAL_SURFACE ( 'NONE', #107, 600.0000000000000000, 250.0000000000000000 ) ;
#125 = AXIS2_PLACEMENT_3D ( 'NONE', #110, #21, #164 ) ;
#126 = DIRECTION ( 'NONE',  ( 0.0000000000000000000, 0.0000000000000000000, 1.000000000000000000 ) ) ;
#127 = PLANE ( 'NONE',  #97 ) ;
#128 = CARTESIAN_POINT ( 'NONE',  ( -253.0000000000000000, 0.0000000000000000000, 0.0000000000000000000 ) ) ;
#129 = PERSON_AND_ORGANIZATION ( #199, #138 ) ;
#130 = ORIENTED_EDGE ( 'NONE', *, *, #84, .F. ) ;
#131 = DIRECTION ( 'NONE',  ( 0.0000000000000000000, 1.000000000000000000, 0.0000000000000000000 ) ) ;
#132 = DIRECTION ( 'NONE',  ( 0.0000000000000000000, -0.0000000000000000000, 1.000000000000000000 ) ) ;
#133 = EDGE_LOOP ( 'NONE', ( #100, #83, #225, #218 ) ) ;
#134 = DIRECTION ( 'NONE',  ( 1.000000000000000000, 0.0000000000000000000, 0.0000000000000000000 ) ) ;
#135 = DIRECTION ( 'NONE',  ( 0.0000000000000000000, 0.0000000000000000000, 1.000000000000000000 ) ) ;
#136 = AXIS2_PLACEMENT_3D ( 'NONE', #168, #244, #70 ) ;
#137 = LOCAL_TIME ( 14, 1, 10.00000000000000000, #13 ) ;
#138 = ORGANIZATION ( 'UNSPECIFIED', 'UNSPECIFIED', '' ) ;
#139 = FACE_BOUND ( 'NONE', #184, .T. ) ;
#140 = APPROVAL ( #98, 'UNSPECIFIED' ) ;
#141 = LOCAL_TIME ( 14, 1, 10.00000000000000000, #122 ) ;
#142 = SHAPE_DEFINITION_REPRESENTATION ( #223, #165 ) ;
#143 = EDGE_CURVE ( 'NONE', #247, #28, #17, .T. ) ;
#144 = APPROVAL ( #154, 'UNSPECIFIED' ) ;
#145 = DIRECTION ( 'NONE',  ( 0.0000000000000000000, 0.0000000000000000000, 1.000000000000000000 ) ) ;
#146 = VERTEX_POINT ( 'NONE', #227 ) ;
#147 = DIRECTION ( 'NONE',  ( 1.000000000000000000, 6.123233995736766000E-017, 0.0000000000000000000 ) ) ;
#148 = CARTESIAN_POINT ( 'NONE',  ( 600.0000000000000000, 0.0000000000000000000, 0.0000000000000000000 ) ) ;
#149 = DIRECTION ( 'NONE',  ( 0.0000000000000000000, 1.000000000000000000, 0.0000000000000000000 ) ) ;
#150 = AXIS2_PLACEMENT_3D ( 'NONE', #112, #149, #171 ) ;
#151 = DIRECTION ( 'NONE',  ( 1.000000000000000000, 6.123233995736766000E-017, 0.0000000000000000000 ) ) ;
#152 = PERSON_AND_ORGANIZATION ( #199, #138 ) ;
#153 = APPROVAL_ROLE ( '' ) ;
#154 = APPROVAL_STATUS ( 'not_yet_approved' ) ;
#155 = AXIS2_PLACEMENT_3D ( 'NONE', #89, #221, #105 ) ;
#156 = ORIENTED_EDGE ( 'NONE', *, *, #84, .T. ) ;
#157 = APPLICATION_PROTOCOL_DEFINITION ( 'international standard', 'config_control_design', 1994, #249 ) ;
#158 = CC_DESIGN_APPROVAL ( #144, ( #250 ) ) ;
#159 = DATE_AND_TIME ( #196, #201 ) ;
#160 = ORIENTED_EDGE ( 'NONE', *, *, #209, .T. ) ;
#161 = CARTESIAN_POINT ( 'NONE',  ( 600.0000000000000000, 600.0000000000000000, 0.0000000000000000000 ) ) ;
#162 = APPROVAL_DATE_TIME ( #159, #140 ) ;
#163 = CC_DESIGN_APPROVAL ( #140, ( #61 ) ) ;
#164 = DIRECTION ( 'NONE',  ( 0.0000000000000000000, 0.0000000000000000000, 1.000000000000000000 ) ) ;
#165 = ADVANCED_BREP_SHAPE_REPRESENTATION ( 'OT214-500-506x3_OSTP', ( #37, #117 ), #16 ) ;
#166 = CALENDAR_DATE ( 2021, 10, 2 ) ;
#167 = AXIS2_PLACEMENT_3D ( 'NONE', #94, #50, #132 ) ;
#168 = CARTESIAN_POINT ( 'NONE',  ( 600.0000000000000000, 0.0000000000000000000, 0.0000000000000000000 ) ) ;
#169 = CARTESIAN_POINT ( 'NONE',  ( 599.9999999999998900, 600.0000000000000000, 0.0000000000000000000 ) ) ;
#170 = CIRCLE ( 'NONE', #35, 852.9999999999998900 ) ;
#171 = DIRECTION ( 'NONE',  ( 0.0000000000000000000, 0.0000000000000000000, 1.000000000000000000 ) ) ;
#172 = CC_DESIGN_PERSON_AND_ORGANIZATION_ASSIGNMENT ( #2, #81, ( #61 ) ) ;
#173 =( NAMED_UNIT ( * ) SI_UNIT ( $, .STERADIAN. ) SOLID_ANGLE_UNIT ( ) );
#174 = FACE_OUTER_BOUND ( 'NONE', #237, .T. ) ;
#175 = PERSON_AND_ORGANIZATION_ROLE ( 'classification_officer' ) ;
#176 = CIRCLE ( 'NONE', #38, 350.0000000000000000 ) ;
#177 = CLOSED_SHELL ( 'NONE', ( #245, #204, #49, #46, #71, #90 ) ) ;
#178 = SECURITY_CLASSIFICATION ( '', '', #114 ) ;
#179 = ORIENTED_EDGE ( 'NONE', *, *, #209, .F. ) ;
#180 = CC_DESIGN_PERSON_AND_ORGANIZATION_ASSIGNMENT ( #129, #192, ( #250 ) ) ;
#181 = EDGE_LOOP ( 'NONE', ( #55, #130 ) ) ;
#182 = DIRECTION ( 'NONE',  ( 1.000000000000000000, 0.0000000000000000000, 0.0000000000000000000 ) ) ;
#183 = CARTESIAN_POINT ( 'NONE',  ( 599.9999999999998900, 853.0000000000000000, 0.0000000000000000000 ) ) ;
#184 = EDGE_LOOP ( 'NONE', ( #3, #211 ) ) ;
#185 = CARTESIAN_POINT ( 'NONE',  ( 599.9999999999998900, 600.0000000000000000, 0.0000000000000000000 ) ) ;
#186 = EDGE_LOOP ( 'NONE', ( #79, #229, #64, #24 ) ) ;
#187 = DIRECTION ( 'NONE',  ( 0.0000000000000000000, 0.0000000000000000000, 1.000000000000000000 ) ) ;
#188 = CC_DESIGN_DATE_AND_TIME_ASSIGNMENT ( #241, #52, ( #178 ) ) ;
#189 = DIRECTION ( 'NONE',  ( 0.0000000000000000000, 1.000000000000000000, 0.0000000000000000000 ) ) ;
#190 = APPROVAL_DATE_TIME ( #103, #144 ) ;
#191 = TOROIDAL_SURFACE ( 'NONE', #42, 600.0000000000000000, 250.0000000000000000 ) ;
#192 = PERSON_AND_ORGANIZATION_ROLE ( 'creator' ) ;
#193 = CC_DESIGN_PERSON_AND_ORGANIZATION_ASSIGNMENT ( #78, #253, ( #61 ) ) ;
#194 = CIRCLE ( 'NONE', #121, 253.0000000000000000 ) ;
#195 = AXIS2_PLACEMENT_3D ( 'NONE', #41, #108, #182 ) ;
#196 = CALENDAR_DATE ( 2021, 10, 2 ) ;
#197 = ORIENTED_EDGE ( 'NONE', *, *, #1, .T. ) ;
#198 = DIRECTION ( 'NONE',  ( 0.0000000000000000000, 1.000000000000000000, 0.0000000000000000000 ) ) ;
#199 = PERSON ( 'UNSPECIFIED', 'UNSPECIFIED', 'UNSPECIFIED', ('UNSPECIFIED'), ('UNSPECIFIED'), ('UNSPECIFIED') ) ;
#200 = APPROVAL ( #212, 'UNSPECIFIED' ) ;
#201 = LOCAL_TIME ( 14, 1, 10.00000000000000000, #66 ) ;
#202 = VERTEX_POINT ( 'NONE', #11 ) ;
#203 = AXIS2_PLACEMENT_3D ( 'NONE', #205, #151, #92 ) ;
#204 = ADVANCED_FACE ( 'NONE', ( #74 ), #233, .T. ) ;
#205 = CARTESIAN_POINT ( 'NONE',  ( 600.0000000000000000, 600.0000000000000000, 0.0000000000000000000 ) ) ;
#206 = CARTESIAN_POINT ( 'NONE',  ( 600.0000000000000000, 0.0000000000000000000, 0.0000000000000000000 ) ) ;
#207 = DIRECTION ( 'NONE',  ( 1.000000000000000000, 0.0000000000000000000, 0.0000000000000000000 ) ) ;
#208 = DIRECTION ( 'NONE',  ( 0.0000000000000000000, 0.0000000000000000000, 1.000000000000000000 ) ) ;
#209 = EDGE_CURVE ( 'NONE', #20, #19, #170, .T. ) ;
#210 = APPROVAL_PERSON_ORGANIZATION ( #216, #140, #32 ) ;
#211 = ORIENTED_EDGE ( 'NONE', *, *, #4, .F. ) ;
#212 = APPROVAL_STATUS ( 'not_yet_approved' ) ;
#213 = ORIENTED_EDGE ( 'NONE', *, *, #51, .T. ) ;
#214 = DATE_AND_TIME ( #48, #141 ) ;
#215 = PRODUCT_RELATED_PRODUCT_CATEGORY ( 'detail', '', ( #239 ) ) ;
#216 = PERSON_AND_ORGANIZATION ( #199, #138 ) ;
#217 = ORIENTED_EDGE ( 'NONE', *, *, #102, .T. ) ;
#218 = ORIENTED_EDGE ( 'NONE', *, *, #238, .F. ) ;
#219 = CC_DESIGN_DATE_AND_TIME_ASSIGNMENT ( #214, #57, ( #250 ) ) ;
#220 = FACE_OUTER_BOUND ( 'NONE', #186, .T. ) ;
#221 = DIRECTION ( 'NONE',  ( 0.0000000000000000000, 0.0000000000000000000, 1.000000000000000000 ) ) ;
#222 = ORIENTED_EDGE ( 'NONE', *, *, #238, .T. ) ;
#223 = PRODUCT_DEFINITION_SHAPE ( 'NONE', 'NONE',  #250 ) ;
#224 = CARTESIAN_POINT ( 'NONE',  ( 600.0000000000000000, 0.0000000000000000000, 0.0000000000000000000 ) ) ;
#225 = ORIENTED_EDGE ( 'NONE', *, *, #113, .T. ) ;
#226 = CARTESIAN_POINT ( 'NONE',  ( 600.0000000000000000, 0.0000000000000000000, -3.061616997868383100E-014 ) ) ;
#227 = CARTESIAN_POINT ( 'NONE',  ( 600.0000000000000000, 350.0000000000000000, -3.061616997868383100E-014 ) ) ;
#228 = APPROVAL_PERSON_ORGANIZATION ( #95, #144, #153 ) ;
#229 = ORIENTED_EDGE ( 'NONE', *, *, #143, .T. ) ;
#230 =( LENGTH_UNIT ( ) NAMED_UNIT ( * ) SI_UNIT ( .MILLI., .METRE. ) );
#231 = CC_DESIGN_PERSON_AND_ORGANIZATION_ASSIGNMENT ( #60, #175, ( #178 ) ) ;
#232 =( NAMED_UNIT ( * ) PLANE_ANGLE_UNIT ( ) SI_UNIT ( $, .RADIAN. ) );
#233 = TOROIDAL_SURFACE ( 'NONE', #101, 600.0000000000000000, 253.0000000000000000 ) ;
#234 = MECHANICAL_CONTEXT ( 'NONE', #249, 'mechanical' ) ;
#235 = CIRCLE ( 'NONE', #22, 253.0000000000000000 ) ;
#236 = CC_DESIGN_PERSON_AND_ORGANIZATION_ASSIGNMENT ( #106, #15, ( #239 ) ) ;
#237 = EDGE_LOOP ( 'NONE', ( #217, #86 ) ) ;
#238 = EDGE_CURVE ( 'NONE', #28, #111, #120, .T. ) ;
#239 = PRODUCT ( 'OT214-500-506x3_OSTP', 'OT214-500-506x3_OSTP', '', ( #234 ) ) ;
#240 = PLANE ( 'NONE',  #167 ) ;
#241 = DATE_AND_TIME ( #109, #18 ) ;
#242 = CARTESIAN_POINT ( 'NONE',  ( 0.0000000000000000000, 0.0000000000000000000, 0.0000000000000000000 ) ) ;
#243 = CIRCLE ( 'NONE', #59, 250.0000000000000000 ) ;
#244 = DIRECTION ( 'NONE',  ( 0.0000000000000000000, 0.0000000000000000000, 1.000000000000000000 ) ) ;
#245 = ADVANCED_FACE ( 'NONE', ( #220 ), #191, .F. ) ;
#246 = DIRECTION ( 'NONE',  ( 0.0000000000000000000, 0.0000000000000000000, 1.000000000000000000 ) ) ;
#247 = VERTEX_POINT ( 'NONE', #73 ) ;
#248 = DIRECTION ( 'NONE',  ( 1.000000000000000000, 0.0000000000000000000, 0.0000000000000000000 ) ) ;
#249 = APPLICATION_CONTEXT ( 'configuration controlled 3d designs of mechanical parts and assemblies' ) ;
#250 = PRODUCT_DEFINITION ( 'UNKNOWN', '', #61, #65 ) ;
#251 = LOCAL_TIME ( 14, 1, 10.00000000000000000, #7 ) ;
#252 = CIRCLE ( 'NONE', #195, 347.0000000000000000 ) ;
#253 = PERSON_AND_ORGANIZATION_ROLE ( 'creator' ) ;
ENDSEC;
END-ISO-10303-21;
