ISO-10303-21;
HEADER;
/* Generated by software containing ST-Developer
 * from STEP Tools, Inc. (www.steptools.com) 
 */

FILE_DESCRIPTION(
/* description */ (''),
/* implementation_level */ '2;1');

FILE_NAME(
/* name */ 
'C:\\Users\\cad\\Desktop\\Zeichnungen neu von Ralph\\3D_Kupplung_R666-
UG\\3D_R666-UG-DN10-DN20_17113615.stp',
/* time_stamp */ '2021-06-22T07:32:25+02:00',
/* author */ ('cad'),
/* organization */ (''),
/* preprocessor_version */ 'ST-DEVELOPER v18.1',
/* originating_system */ 'Autodesk Inventor 2022',
/* authorisation */ '');

FILE_SCHEMA (('AUTOMOTIVE_DESIGN { 1 0 10303 214 3 1 1 }'));
ENDSEC;

DATA;
#10=MECHANICAL_DESIGN_GEOMETRIC_PRESENTATION_REPRESENTATION('',(#13),#570);
#11=SHAPE_REPRESENTATION_RELATIONSHIP('SRR','None',#577,#12);
#12=ADVANCED_BREP_SHAPE_REPRESENTATION('',(#14),#569);
#13=STYLED_ITEM('',(#586),#14);
#14=MANIFOLD_SOLID_BREP('Volumenk\X\F6rper1',#310);
#15=FACE_BOUND('',#60,.T.);
#16=FACE_BOUND('',#63,.T.);
#17=FACE_BOUND('',#66,.T.);
#18=CONICAL_SURFACE('',#341,9.6,0.785398163397452);
#19=CONICAL_SURFACE('',#343,5.15,0.785398163397451);
#20=CONICAL_SURFACE('',#352,9.6,0.785398163397452);
#21=CONICAL_SURFACE('',#356,5.15,0.785398163397448);
#22=CONICAL_SURFACE('',#360,7.61727591749297,0.801106126665398);
#23=CONICAL_SURFACE('',#363,8.36998386230346,0.0314159265358981);
#24=CONICAL_SURFACE('',#364,12.55,0.785398163397447);
#25=CONICAL_SURFACE('',#369,11.475,0.78539816339745);
#26=CYLINDRICAL_SURFACE('',#336,9.75);
#27=CYLINDRICAL_SURFACE('',#347,5.);
#28=CYLINDRICAL_SURFACE('',#367,13.2);
#29=(
BOUNDED_CURVE()
B_SPLINE_CURVE(2,(#479,#480,#481),.UNSPECIFIED.,.F.,.F.)
B_SPLINE_CURVE_WITH_KNOTS((3,3),(0.,0.0919088421556808),.UNSPECIFIED.)
CURVE()
GEOMETRIC_REPRESENTATION_ITEM()
RATIONAL_B_SPLINE_CURVE((1.,1.00102486941766,1.))
REPRESENTATION_ITEM('')
);
#30=(
BOUNDED_CURVE()
B_SPLINE_CURVE(2,(#485,#486,#487),.UNSPECIFIED.,.F.,.F.)
B_SPLINE_CURVE_WITH_KNOTS((3,3),(0.,0.0919088421556808),.UNSPECIFIED.)
CURVE()
GEOMETRIC_REPRESENTATION_ITEM()
RATIONAL_B_SPLINE_CURVE((1.,1.00102486941771,1.))
REPRESENTATION_ITEM('')
);
#31=(
BOUNDED_CURVE()
B_SPLINE_CURVE(2,(#498,#499,#500),.UNSPECIFIED.,.F.,.F.)
B_SPLINE_CURVE_WITH_KNOTS((3,3),(0.,0.0919088421556811),.UNSPECIFIED.)
CURVE()
GEOMETRIC_REPRESENTATION_ITEM()
RATIONAL_B_SPLINE_CURVE((1.,1.00102486941762,1.))
REPRESENTATION_ITEM('')
);
#32=(
BOUNDED_CURVE()
B_SPLINE_CURVE(2,(#504,#505,#506),.UNSPECIFIED.,.F.,.F.)
B_SPLINE_CURVE_WITH_KNOTS((3,3),(0.,0.0919088421556811),.UNSPECIFIED.)
CURVE()
GEOMETRIC_REPRESENTATION_ITEM()
RATIONAL_B_SPLINE_CURVE((1.,1.00102486941762,1.))
REPRESENTATION_ITEM('')
);
#33=FACE_OUTER_BOUND('',#51,.T.);
#34=FACE_OUTER_BOUND('',#52,.T.);
#35=FACE_OUTER_BOUND('',#53,.T.);
#36=FACE_OUTER_BOUND('',#54,.T.);
#37=FACE_OUTER_BOUND('',#55,.T.);
#38=FACE_OUTER_BOUND('',#56,.T.);
#39=FACE_OUTER_BOUND('',#57,.T.);
#40=FACE_OUTER_BOUND('',#58,.T.);
#41=FACE_OUTER_BOUND('',#59,.T.);
#42=FACE_OUTER_BOUND('',#61,.T.);
#43=FACE_OUTER_BOUND('',#62,.T.);
#44=FACE_OUTER_BOUND('',#64,.T.);
#45=FACE_OUTER_BOUND('',#65,.T.);
#46=FACE_OUTER_BOUND('',#67,.T.);
#47=FACE_OUTER_BOUND('',#68,.T.);
#48=FACE_OUTER_BOUND('',#69,.T.);
#49=FACE_OUTER_BOUND('',#70,.T.);
#50=FACE_OUTER_BOUND('',#71,.T.);
#51=EDGE_LOOP('',(#199,#200));
#52=EDGE_LOOP('',(#201,#202,#203,#204,#205,#206));
#53=EDGE_LOOP('',(#207,#208));
#54=EDGE_LOOP('',(#209,#210,#211,#212,#213,#214));
#55=EDGE_LOOP('',(#215,#216,#217,#218,#219,#220,#221,#222,#223,#224,#225,
#226));
#56=EDGE_LOOP('',(#227,#228,#229,#230,#231));
#57=EDGE_LOOP('',(#232,#233,#234,#235,#236));
#58=EDGE_LOOP('',(#237,#238,#239,#240,#241,#242));
#59=EDGE_LOOP('',(#243));
#60=EDGE_LOOP('',(#244));
#61=EDGE_LOOP('',(#245,#246,#247,#248));
#62=EDGE_LOOP('',(#249,#250,#251,#252));
#63=EDGE_LOOP('',(#253));
#64=EDGE_LOOP('',(#254,#255,#256,#257,#258));
#65=EDGE_LOOP('',(#259));
#66=EDGE_LOOP('',(#260));
#67=EDGE_LOOP('',(#261,#262,#263,#264,#265));
#68=EDGE_LOOP('',(#266,#267,#268,#269,#270));
#69=EDGE_LOOP('',(#271,#272,#273,#274,#275));
#70=EDGE_LOOP('',(#276,#277,#278,#279,#280));
#71=EDGE_LOOP('',(#281,#282,#283,#284));
#72=LINE('',#474,#89);
#73=LINE('',#477,#90);
#74=LINE('',#483,#91);
#75=LINE('',#488,#92);
#76=LINE('',#493,#93);
#77=LINE('',#496,#94);
#78=LINE('',#502,#95);
#79=LINE('',#507,#96);
#80=LINE('',#512,#97);
#81=LINE('',#524,#98);
#82=LINE('',#528,#99);
#83=LINE('',#543,#100);
#84=LINE('',#552,#101);
#85=LINE('',#554,#102);
#86=LINE('',#557,#103);
#87=LINE('',#563,#104);
#88=LINE('',#566,#105);
#89=VECTOR('',#376,10.);
#90=VECTOR('',#379,10.);
#91=VECTOR('',#380,10.);
#92=VECTOR('',#381,10.);
#93=VECTOR('',#386,10.);
#94=VECTOR('',#389,10.);
#95=VECTOR('',#390,10.);
#96=VECTOR('',#391,10.);
#97=VECTOR('',#396,9.75);
#98=VECTOR('',#413,5.15);
#99=VECTOR('',#418,5.);
#100=VECTOR('',#439,5.15);
#101=VECTOR('',#450,7.61727591749297);
#102=VECTOR('',#453,8.36998386230346);
#103=VECTOR('',#456,12.55);
#104=VECTOR('',#463,13.2);
#105=VECTOR('',#468,11.475);
#106=CIRCLE('',#331,9.75);
#107=CIRCLE('',#334,9.75);
#108=CIRCLE('',#337,9.75);
#109=CIRCLE('',#338,9.75);
#110=CIRCLE('',#339,9.75);
#111=CIRCLE('',#340,9.75);
#112=CIRCLE('',#342,9.45);
#113=CIRCLE('',#344,5.);
#114=CIRCLE('',#345,5.);
#115=CIRCLE('',#346,5.3);
#116=CIRCLE('',#348,5.);
#117=CIRCLE('',#349,5.);
#118=CIRCLE('',#351,11.9);
#119=CIRCLE('',#353,9.45);
#120=CIRCLE('',#355,8.58996772460691);
#121=CIRCLE('',#357,5.3);
#122=CIRCLE('',#359,7.05);
#123=CIRCLE('',#361,8.18455183498594);
#124=CIRCLE('',#362,8.18455183498594);
#125=CIRCLE('',#365,13.2);
#126=CIRCLE('',#366,13.2);
#127=CIRCLE('',#368,13.2);
#128=VERTEX_POINT('',#471);
#129=VERTEX_POINT('',#472);
#130=VERTEX_POINT('',#476);
#131=VERTEX_POINT('',#478);
#132=VERTEX_POINT('',#482);
#133=VERTEX_POINT('',#484);
#134=VERTEX_POINT('',#490);
#135=VERTEX_POINT('',#491);
#136=VERTEX_POINT('',#495);
#137=VERTEX_POINT('',#497);
#138=VERTEX_POINT('',#501);
#139=VERTEX_POINT('',#503);
#140=VERTEX_POINT('',#509);
#141=VERTEX_POINT('',#511);
#142=VERTEX_POINT('',#519);
#143=VERTEX_POINT('',#520);
#144=VERTEX_POINT('',#523);
#145=VERTEX_POINT('',#527);
#146=VERTEX_POINT('',#529);
#147=VERTEX_POINT('',#533);
#148=VERTEX_POINT('',#538);
#149=VERTEX_POINT('',#541);
#150=VERTEX_POINT('',#545);
#151=VERTEX_POINT('',#548);
#152=VERTEX_POINT('',#549);
#153=VERTEX_POINT('',#556);
#154=VERTEX_POINT('',#558);
#155=VERTEX_POINT('',#562);
#156=EDGE_CURVE('',#128,#129,#106,.T.);
#157=EDGE_CURVE('',#129,#128,#72,.T.);
#158=EDGE_CURVE('',#130,#128,#73,.T.);
#159=EDGE_CURVE('',#131,#130,#29,.T.);
#160=EDGE_CURVE('',#132,#131,#74,.T.);
#161=EDGE_CURVE('',#133,#132,#30,.T.);
#162=EDGE_CURVE('',#129,#133,#75,.T.);
#163=EDGE_CURVE('',#134,#135,#107,.T.);
#164=EDGE_CURVE('',#135,#134,#76,.T.);
#165=EDGE_CURVE('',#136,#134,#77,.T.);
#166=EDGE_CURVE('',#137,#136,#31,.T.);
#167=EDGE_CURVE('',#138,#137,#78,.T.);
#168=EDGE_CURVE('',#139,#138,#32,.T.);
#169=EDGE_CURVE('',#135,#139,#79,.T.);
#170=EDGE_CURVE('',#140,#140,#108,.T.);
#171=EDGE_CURVE('',#140,#141,#80,.T.);
#172=EDGE_CURVE('',#136,#141,#109,.T.);
#173=EDGE_CURVE('',#130,#139,#110,.T.);
#174=EDGE_CURVE('',#141,#133,#111,.T.);
#175=EDGE_CURVE('',#132,#137,#112,.T.);
#176=EDGE_CURVE('',#142,#143,#113,.T.);
#177=EDGE_CURVE('',#143,#142,#114,.T.);
#178=EDGE_CURVE('',#142,#144,#81,.T.);
#179=EDGE_CURVE('',#144,#144,#115,.T.);
#180=EDGE_CURVE('',#143,#145,#82,.T.);
#181=EDGE_CURVE('',#146,#145,#116,.T.);
#182=EDGE_CURVE('',#145,#146,#117,.T.);
#183=EDGE_CURVE('',#147,#147,#118,.T.);
#184=EDGE_CURVE('',#138,#131,#119,.T.);
#185=EDGE_CURVE('',#148,#148,#120,.T.);
#186=EDGE_CURVE('',#149,#149,#121,.T.);
#187=EDGE_CURVE('',#149,#146,#83,.T.);
#188=EDGE_CURVE('',#150,#150,#122,.T.);
#189=EDGE_CURVE('',#151,#152,#123,.T.);
#190=EDGE_CURVE('',#152,#151,#124,.T.);
#191=EDGE_CURVE('',#151,#150,#84,.T.);
#192=EDGE_CURVE('',#148,#152,#85,.T.);
#193=EDGE_CURVE('',#147,#153,#86,.T.);
#194=EDGE_CURVE('',#153,#154,#125,.T.);
#195=EDGE_CURVE('',#154,#153,#126,.T.);
#196=EDGE_CURVE('',#154,#155,#87,.T.);
#197=EDGE_CURVE('',#155,#155,#127,.T.);
#198=EDGE_CURVE('',#155,#140,#88,.T.);
#199=ORIENTED_EDGE('',*,*,#156,.F.);
#200=ORIENTED_EDGE('',*,*,#157,.F.);
#201=ORIENTED_EDGE('',*,*,#158,.F.);
#202=ORIENTED_EDGE('',*,*,#159,.F.);
#203=ORIENTED_EDGE('',*,*,#160,.F.);
#204=ORIENTED_EDGE('',*,*,#161,.F.);
#205=ORIENTED_EDGE('',*,*,#162,.F.);
#206=ORIENTED_EDGE('',*,*,#157,.T.);
#207=ORIENTED_EDGE('',*,*,#163,.F.);
#208=ORIENTED_EDGE('',*,*,#164,.F.);
#209=ORIENTED_EDGE('',*,*,#165,.F.);
#210=ORIENTED_EDGE('',*,*,#166,.F.);
#211=ORIENTED_EDGE('',*,*,#167,.F.);
#212=ORIENTED_EDGE('',*,*,#168,.F.);
#213=ORIENTED_EDGE('',*,*,#169,.F.);
#214=ORIENTED_EDGE('',*,*,#164,.T.);
#215=ORIENTED_EDGE('',*,*,#170,.F.);
#216=ORIENTED_EDGE('',*,*,#171,.T.);
#217=ORIENTED_EDGE('',*,*,#172,.F.);
#218=ORIENTED_EDGE('',*,*,#165,.T.);
#219=ORIENTED_EDGE('',*,*,#163,.T.);
#220=ORIENTED_EDGE('',*,*,#169,.T.);
#221=ORIENTED_EDGE('',*,*,#173,.F.);
#222=ORIENTED_EDGE('',*,*,#158,.T.);
#223=ORIENTED_EDGE('',*,*,#156,.T.);
#224=ORIENTED_EDGE('',*,*,#162,.T.);
#225=ORIENTED_EDGE('',*,*,#174,.F.);
#226=ORIENTED_EDGE('',*,*,#171,.F.);
#227=ORIENTED_EDGE('',*,*,#161,.T.);
#228=ORIENTED_EDGE('',*,*,#175,.T.);
#229=ORIENTED_EDGE('',*,*,#166,.T.);
#230=ORIENTED_EDGE('',*,*,#172,.T.);
#231=ORIENTED_EDGE('',*,*,#174,.T.);
#232=ORIENTED_EDGE('',*,*,#176,.T.);
#233=ORIENTED_EDGE('',*,*,#177,.T.);
#234=ORIENTED_EDGE('',*,*,#178,.T.);
#235=ORIENTED_EDGE('',*,*,#179,.T.);
#236=ORIENTED_EDGE('',*,*,#178,.F.);
#237=ORIENTED_EDGE('',*,*,#176,.F.);
#238=ORIENTED_EDGE('',*,*,#177,.F.);
#239=ORIENTED_EDGE('',*,*,#180,.T.);
#240=ORIENTED_EDGE('',*,*,#181,.F.);
#241=ORIENTED_EDGE('',*,*,#182,.F.);
#242=ORIENTED_EDGE('',*,*,#180,.F.);
#243=ORIENTED_EDGE('',*,*,#183,.F.);
#244=ORIENTED_EDGE('',*,*,#179,.F.);
#245=ORIENTED_EDGE('',*,*,#159,.T.);
#246=ORIENTED_EDGE('',*,*,#173,.T.);
#247=ORIENTED_EDGE('',*,*,#168,.T.);
#248=ORIENTED_EDGE('',*,*,#184,.T.);
#249=ORIENTED_EDGE('',*,*,#160,.T.);
#250=ORIENTED_EDGE('',*,*,#184,.F.);
#251=ORIENTED_EDGE('',*,*,#167,.T.);
#252=ORIENTED_EDGE('',*,*,#175,.F.);
#253=ORIENTED_EDGE('',*,*,#185,.T.);
#254=ORIENTED_EDGE('',*,*,#186,.T.);
#255=ORIENTED_EDGE('',*,*,#187,.T.);
#256=ORIENTED_EDGE('',*,*,#181,.T.);
#257=ORIENTED_EDGE('',*,*,#182,.T.);
#258=ORIENTED_EDGE('',*,*,#187,.F.);
#259=ORIENTED_EDGE('',*,*,#188,.F.);
#260=ORIENTED_EDGE('',*,*,#186,.F.);
#261=ORIENTED_EDGE('',*,*,#189,.T.);
#262=ORIENTED_EDGE('',*,*,#190,.T.);
#263=ORIENTED_EDGE('',*,*,#191,.T.);
#264=ORIENTED_EDGE('',*,*,#188,.T.);
#265=ORIENTED_EDGE('',*,*,#191,.F.);
#266=ORIENTED_EDGE('',*,*,#185,.F.);
#267=ORIENTED_EDGE('',*,*,#192,.T.);
#268=ORIENTED_EDGE('',*,*,#189,.F.);
#269=ORIENTED_EDGE('',*,*,#190,.F.);
#270=ORIENTED_EDGE('',*,*,#192,.F.);
#271=ORIENTED_EDGE('',*,*,#183,.T.);
#272=ORIENTED_EDGE('',*,*,#193,.T.);
#273=ORIENTED_EDGE('',*,*,#194,.T.);
#274=ORIENTED_EDGE('',*,*,#195,.T.);
#275=ORIENTED_EDGE('',*,*,#193,.F.);
#276=ORIENTED_EDGE('',*,*,#194,.F.);
#277=ORIENTED_EDGE('',*,*,#195,.F.);
#278=ORIENTED_EDGE('',*,*,#196,.T.);
#279=ORIENTED_EDGE('',*,*,#197,.T.);
#280=ORIENTED_EDGE('',*,*,#196,.F.);
#281=ORIENTED_EDGE('',*,*,#197,.F.);
#282=ORIENTED_EDGE('',*,*,#198,.T.);
#283=ORIENTED_EDGE('',*,*,#170,.T.);
#284=ORIENTED_EDGE('',*,*,#198,.F.);
#285=PLANE('',#330);
#286=PLANE('',#332);
#287=PLANE('',#333);
#288=PLANE('',#335);
#289=PLANE('',#350);
#290=PLANE('',#354);
#291=PLANE('',#358);
#292=ADVANCED_FACE('',(#33),#285,.F.);
#293=ADVANCED_FACE('',(#34),#286,.F.);
#294=ADVANCED_FACE('',(#35),#287,.F.);
#295=ADVANCED_FACE('',(#36),#288,.F.);
#296=ADVANCED_FACE('',(#37),#26,.T.);
#297=ADVANCED_FACE('',(#38),#18,.T.);
#298=ADVANCED_FACE('',(#39),#19,.F.);
#299=ADVANCED_FACE('',(#40),#27,.F.);
#300=ADVANCED_FACE('',(#41,#15),#289,.T.);
#301=ADVANCED_FACE('',(#42),#20,.T.);
#302=ADVANCED_FACE('',(#43,#16),#290,.T.);
#303=ADVANCED_FACE('',(#44),#21,.F.);
#304=ADVANCED_FACE('',(#45,#17),#291,.T.);
#305=ADVANCED_FACE('',(#46),#22,.T.);
#306=ADVANCED_FACE('',(#47),#23,.T.);
#307=ADVANCED_FACE('',(#48),#24,.T.);
#308=ADVANCED_FACE('',(#49),#28,.T.);
#309=ADVANCED_FACE('',(#50),#25,.T.);
#310=CLOSED_SHELL('',(#292,#293,#294,#295,#296,#297,#298,#299,#300,#301,
#302,#303,#304,#305,#306,#307,#308,#309));
#311=DERIVED_UNIT_ELEMENT(#313,1.);
#312=DERIVED_UNIT_ELEMENT(#572,-3.);
#313=(
MASS_UNIT()
NAMED_UNIT(*)
SI_UNIT($,.GRAM.)
);
#314=DERIVED_UNIT((#311,#312));
#315=MEASURE_REPRESENTATION_ITEM('density measure',
POSITIVE_RATIO_MEASURE(1.),#314);
#316=PROPERTY_DEFINITION_REPRESENTATION(#321,#318);
#317=PROPERTY_DEFINITION_REPRESENTATION(#322,#319);
#318=REPRESENTATION('material name',(#320),#569);
#319=REPRESENTATION('density',(#315),#569);
#320=DESCRIPTIVE_REPRESENTATION_ITEM('Generisch','Generisch');
#321=PROPERTY_DEFINITION('material property','material name',#579);
#322=PROPERTY_DEFINITION('material property','density of part',#579);
#323=DATE_TIME_ROLE('creation_date');
#324=APPLIED_DATE_AND_TIME_ASSIGNMENT(#325,#323,(#579));
#325=DATE_AND_TIME(#326,#327);
#326=CALENDAR_DATE(2021,22,6);
#327=LOCAL_TIME(0,0,0.,#328);
#328=COORDINATED_UNIVERSAL_TIME_OFFSET(0,0,.BEHIND.);
#329=AXIS2_PLACEMENT_3D('placement',#469,#370,#371);
#330=AXIS2_PLACEMENT_3D('',#470,#372,#373);
#331=AXIS2_PLACEMENT_3D('',#473,#374,#375);
#332=AXIS2_PLACEMENT_3D('',#475,#377,#378);
#333=AXIS2_PLACEMENT_3D('',#489,#382,#383);
#334=AXIS2_PLACEMENT_3D('',#492,#384,#385);
#335=AXIS2_PLACEMENT_3D('',#494,#387,#388);
#336=AXIS2_PLACEMENT_3D('',#508,#392,#393);
#337=AXIS2_PLACEMENT_3D('',#510,#394,#395);
#338=AXIS2_PLACEMENT_3D('',#513,#397,#398);
#339=AXIS2_PLACEMENT_3D('',#514,#399,#400);
#340=AXIS2_PLACEMENT_3D('',#515,#401,#402);
#341=AXIS2_PLACEMENT_3D('',#516,#403,#404);
#342=AXIS2_PLACEMENT_3D('',#517,#405,#406);
#343=AXIS2_PLACEMENT_3D('',#518,#407,#408);
#344=AXIS2_PLACEMENT_3D('',#521,#409,#410);
#345=AXIS2_PLACEMENT_3D('',#522,#411,#412);
#346=AXIS2_PLACEMENT_3D('',#525,#414,#415);
#347=AXIS2_PLACEMENT_3D('',#526,#416,#417);
#348=AXIS2_PLACEMENT_3D('',#530,#419,#420);
#349=AXIS2_PLACEMENT_3D('',#531,#421,#422);
#350=AXIS2_PLACEMENT_3D('',#532,#423,#424);
#351=AXIS2_PLACEMENT_3D('',#534,#425,#426);
#352=AXIS2_PLACEMENT_3D('',#535,#427,#428);
#353=AXIS2_PLACEMENT_3D('',#536,#429,#430);
#354=AXIS2_PLACEMENT_3D('',#537,#431,#432);
#355=AXIS2_PLACEMENT_3D('',#539,#433,#434);
#356=AXIS2_PLACEMENT_3D('',#540,#435,#436);
#357=AXIS2_PLACEMENT_3D('',#542,#437,#438);
#358=AXIS2_PLACEMENT_3D('',#544,#440,#441);
#359=AXIS2_PLACEMENT_3D('',#546,#442,#443);
#360=AXIS2_PLACEMENT_3D('',#547,#444,#445);
#361=AXIS2_PLACEMENT_3D('',#550,#446,#447);
#362=AXIS2_PLACEMENT_3D('',#551,#448,#449);
#363=AXIS2_PLACEMENT_3D('',#553,#451,#452);
#364=AXIS2_PLACEMENT_3D('',#555,#454,#455);
#365=AXIS2_PLACEMENT_3D('',#559,#457,#458);
#366=AXIS2_PLACEMENT_3D('',#560,#459,#460);
#367=AXIS2_PLACEMENT_3D('',#561,#461,#462);
#368=AXIS2_PLACEMENT_3D('',#564,#464,#465);
#369=AXIS2_PLACEMENT_3D('',#565,#466,#467);
#370=DIRECTION('axis',(0.,0.,1.));
#371=DIRECTION('refdir',(1.,0.,0.));
#372=DIRECTION('center_axis',(1.,0.,0.));
#373=DIRECTION('ref_axis',(0.,0.,-1.));
#374=DIRECTION('center_axis',(1.,0.,0.));
#375=DIRECTION('ref_axis',(0.,1.,0.));
#376=DIRECTION('',(0.,1.,6.33488757020772E-17));
#377=DIRECTION('center_axis',(0.,6.33488757020772E-17,-1.));
#378=DIRECTION('ref_axis',(0.,1.,6.33488757020772E-17));
#379=DIRECTION('',(1.,0.,0.));
#380=DIRECTION('',(0.,1.,6.33488757020772E-17));
#381=DIRECTION('',(-1.,0.,0.));
#382=DIRECTION('center_axis',(1.,0.,0.));
#383=DIRECTION('ref_axis',(0.,0.,-1.));
#384=DIRECTION('center_axis',(1.,0.,0.));
#385=DIRECTION('ref_axis',(0.,1.,0.));
#386=DIRECTION('',(0.,-1.,0.));
#387=DIRECTION('center_axis',(0.,0.,1.));
#388=DIRECTION('ref_axis',(0.,-1.,0.));
#389=DIRECTION('',(1.,0.,0.));
#390=DIRECTION('',(0.,-1.,0.));
#391=DIRECTION('',(-1.,0.,0.));
#392=DIRECTION('center_axis',(1.,0.,0.));
#393=DIRECTION('ref_axis',(0.,1.,0.));
#394=DIRECTION('center_axis',(1.,0.,0.));
#395=DIRECTION('ref_axis',(0.,0.,-1.));
#396=DIRECTION('',(-1.,0.,0.));
#397=DIRECTION('center_axis',(-1.,0.,0.));
#398=DIRECTION('ref_axis',(0.,-1.,0.));
#399=DIRECTION('center_axis',(-1.,0.,0.));
#400=DIRECTION('ref_axis',(0.,-1.,0.));
#401=DIRECTION('center_axis',(-1.,0.,0.));
#402=DIRECTION('ref_axis',(0.,-1.,0.));
#403=DIRECTION('center_axis',(1.,0.,0.));
#404=DIRECTION('ref_axis',(0.,-1.,0.));
#405=DIRECTION('center_axis',(1.,0.,0.));
#406=DIRECTION('ref_axis',(0.,-1.,0.));
#407=DIRECTION('center_axis',(1.,0.,0.));
#408=DIRECTION('ref_axis',(0.,-1.,0.));
#409=DIRECTION('center_axis',(-1.,0.,0.));
#410=DIRECTION('ref_axis',(0.,-1.,0.));
#411=DIRECTION('center_axis',(-1.,0.,0.));
#412=DIRECTION('ref_axis',(0.,-1.,0.));
#413=DIRECTION('',(0.707106781186546,0.707106781186549,-8.65956056235496E-17));
#414=DIRECTION('center_axis',(1.,0.,0.));
#415=DIRECTION('ref_axis',(0.,-1.,0.));
#416=DIRECTION('center_axis',(1.,0.,0.));
#417=DIRECTION('ref_axis',(0.,1.,0.));
#418=DIRECTION('',(-1.,0.,0.));
#419=DIRECTION('center_axis',(1.,0.,0.));
#420=DIRECTION('ref_axis',(0.,-1.,0.));
#421=DIRECTION('center_axis',(1.,0.,0.));
#422=DIRECTION('ref_axis',(0.,-1.,0.));
#423=DIRECTION('center_axis',(1.,0.,0.));
#424=DIRECTION('ref_axis',(0.,0.,-1.));
#425=DIRECTION('center_axis',(-1.,0.,0.));
#426=DIRECTION('ref_axis',(0.,-1.,0.));
#427=DIRECTION('center_axis',(1.,0.,0.));
#428=DIRECTION('ref_axis',(0.,1.,1.22464679914735E-16));
#429=DIRECTION('center_axis',(1.,0.,0.));
#430=DIRECTION('ref_axis',(0.,-1.,0.));
#431=DIRECTION('center_axis',(-1.,0.,0.));
#432=DIRECTION('ref_axis',(0.,0.,1.));
#433=DIRECTION('center_axis',(1.,0.,0.));
#434=DIRECTION('ref_axis',(0.,0.,-1.));
#435=DIRECTION('center_axis',(-1.,0.,0.));
#436=DIRECTION('ref_axis',(0.,-1.,0.));
#437=DIRECTION('center_axis',(-1.,0.,0.));
#438=DIRECTION('ref_axis',(0.,-1.,0.));
#439=DIRECTION('',(0.707106781186548,-0.707106781186548,8.65956056235493E-17));
#440=DIRECTION('center_axis',(-1.,0.,0.));
#441=DIRECTION('ref_axis',(0.,0.,1.));
#442=DIRECTION('center_axis',(1.,0.,0.));
#443=DIRECTION('ref_axis',(0.,-1.,0.));
#444=DIRECTION('center_axis',(1.,0.,-4.55824249349577E-16));
#445=DIRECTION('ref_axis',(0.,-1.,-3.28962260122186E-17));
#446=DIRECTION('center_axis',(-1.,0.,0.));
#447=DIRECTION('ref_axis',(0.,-1.,-6.12323399573677E-17));
#448=DIRECTION('center_axis',(-1.,0.,0.));
#449=DIRECTION('ref_axis',(0.,-1.,-6.12323399573677E-17));
#450=DIRECTION('',(-0.695912796592314,-0.718126297763189,2.05645175928998E-16));
#451=DIRECTION('center_axis',(1.,0.,0.));
#452=DIRECTION('ref_axis',(0.,1.,0.));
#453=DIRECTION('',(-0.999506560365731,0.0314107590781285,3.84670855638187E-18));
#454=DIRECTION('center_axis',(-1.,0.,0.));
#455=DIRECTION('ref_axis',(0.,-1.,0.));
#456=DIRECTION('',(-0.707106781186548,0.707106781186546,8.65956056235492E-17));
#457=DIRECTION('center_axis',(1.,0.,0.));
#458=DIRECTION('ref_axis',(0.,-1.,0.));
#459=DIRECTION('center_axis',(1.,0.,0.));
#460=DIRECTION('ref_axis',(0.,-1.,0.));
#461=DIRECTION('center_axis',(1.,0.,0.));
#462=DIRECTION('ref_axis',(0.,1.,0.));
#463=DIRECTION('',(-1.,0.,0.));
#464=DIRECTION('center_axis',(1.,0.,0.));
#465=DIRECTION('ref_axis',(0.,0.,-1.));
#466=DIRECTION('center_axis',(1.,0.,0.));
#467=DIRECTION('ref_axis',(0.,1.,0.));
#468=DIRECTION('',(-0.707106781186547,0.707106781186548,8.65956056235495E-17));
#469=CARTESIAN_POINT('',(0.,0.,0.));
#470=CARTESIAN_POINT('Origin',(-13.,-1.33443170271029,12.2471169686985));
#471=CARTESIAN_POINT('',(-13.,3.74999999999999,9.));
#472=CARTESIAN_POINT('',(-13.,-3.75,9.));
#473=CARTESIAN_POINT('Origin',(-13.,0.,0.));
#474=CARTESIAN_POINT('',(-13.,16.1911046595515,9.));
#475=CARTESIAN_POINT('Origin',(-22.,-18.8599680649721,9.));
#476=CARTESIAN_POINT('',(-21.7,3.74999999999999,9.));
#477=CARTESIAN_POINT('',(-16.,3.74999999999999,9.));
#478=CARTESIAN_POINT('',(-22.,2.88140590684478,9.));
#479=CARTESIAN_POINT('Ctrl Pts',(-22.,2.88140590684478,9.));
#480=CARTESIAN_POINT('Ctrl Pts',(-21.8696472838194,3.30891706206961,9.));
#481=CARTESIAN_POINT('Ctrl Pts',(-21.7,3.75,9.));
#482=CARTESIAN_POINT('',(-22.,-2.88140590684478,9.));
#483=CARTESIAN_POINT('',(-22.,-4.55498403248604,9.));
#484=CARTESIAN_POINT('',(-21.7,-3.74999999999999,9.));
#485=CARTESIAN_POINT('Ctrl Pts',(-21.7,-3.75,9.));
#486=CARTESIAN_POINT('Ctrl Pts',(-21.8696472838194,-3.30891706206961,9.));
#487=CARTESIAN_POINT('Ctrl Pts',(-22.,-2.88140590684478,9.));
#488=CARTESIAN_POINT('',(-16.,-3.74999999999999,9.));
#489=CARTESIAN_POINT('Origin',(-13.,-1.33443170271029,-14.7232289950577));
#490=CARTESIAN_POINT('',(-13.,-3.75,-9.));
#491=CARTESIAN_POINT('',(-13.,3.75,-9.));
#492=CARTESIAN_POINT('Origin',(-13.,0.,0.));
#493=CARTESIAN_POINT('',(-13.,-18.8599680649721,-9.));
#494=CARTESIAN_POINT('Origin',(-22.,16.1911046595515,-9.));
#495=CARTESIAN_POINT('',(-21.7,-3.75,-9.));
#496=CARTESIAN_POINT('',(-16.,-3.75,-9.));
#497=CARTESIAN_POINT('',(-22.,-2.88140590684479,-9.));
#498=CARTESIAN_POINT('Ctrl Pts',(-22.,-2.88140590684479,-9.));
#499=CARTESIAN_POINT('Ctrl Pts',(-21.8696472838194,-3.30891706206967,-9.));
#500=CARTESIAN_POINT('Ctrl Pts',(-21.7,-3.75000000000001,-9.));
#501=CARTESIAN_POINT('',(-22.,2.88140590684479,-9.));
#502=CARTESIAN_POINT('',(-22.,12.9705523297758,-9.));
#503=CARTESIAN_POINT('',(-21.7,3.75,-9.));
#504=CARTESIAN_POINT('Ctrl Pts',(-21.7,3.75000000000001,-9.));
#505=CARTESIAN_POINT('Ctrl Pts',(-21.8696472838194,3.30891706206967,-9.));
#506=CARTESIAN_POINT('Ctrl Pts',(-22.,2.88140590684479,-9.));
#507=CARTESIAN_POINT('',(-16.,3.75,-9.));
#508=CARTESIAN_POINT('Origin',(-16.,0.,0.));
#509=CARTESIAN_POINT('',(-10.,-9.75,-1.19403062916867E-15));
#510=CARTESIAN_POINT('Origin',(-10.,0.,0.));
#511=CARTESIAN_POINT('',(-21.7,-9.75,-1.19403062916867E-15));
#512=CARTESIAN_POINT('',(-16.,-9.75,-1.19403062916867E-15));
#513=CARTESIAN_POINT('Origin',(-21.7,0.,0.));
#514=CARTESIAN_POINT('Origin',(-21.7,0.,0.));
#515=CARTESIAN_POINT('Origin',(-21.7,0.,0.));
#516=CARTESIAN_POINT('Origin',(-21.85,0.,0.));
#517=CARTESIAN_POINT('Origin',(-22.,0.,0.));
#518=CARTESIAN_POINT('Origin',(-0.150000000000002,0.,0.));
#519=CARTESIAN_POINT('',(-0.300000000000002,5.,-6.12323399573676E-16));
#520=CARTESIAN_POINT('',(-0.300000000000002,-5.,-6.12323399573676E-16));
#521=CARTESIAN_POINT('Origin',(-0.300000000000002,0.,0.));
#522=CARTESIAN_POINT('Origin',(-0.300000000000002,0.,0.));
#523=CARTESIAN_POINT('',(-1.52655665885959E-15,5.3,6.49062803548097E-16));
#524=CARTESIAN_POINT('',(-0.150000000000002,5.15,-6.30693101560887E-16));
#525=CARTESIAN_POINT('Origin',(-1.52655665885959E-15,0.,0.));
#526=CARTESIAN_POINT('Origin',(-18.,0.,0.));
#527=CARTESIAN_POINT('',(-35.7,-5.,-6.12323399573676E-16));
#528=CARTESIAN_POINT('',(-18.,-5.,-6.12323399573676E-16));
#529=CARTESIAN_POINT('',(-35.7,5.,6.12323399573676E-16));
#530=CARTESIAN_POINT('Origin',(-35.7,0.,0.));
#531=CARTESIAN_POINT('Origin',(-35.7,0.,0.));
#532=CARTESIAN_POINT('Origin',(-1.53080849893419E-15,5.,0.));
#533=CARTESIAN_POINT('',(-1.66533453693773E-15,11.9,-1.45732969098535E-15));
#534=CARTESIAN_POINT('Origin',(-1.66533453693773E-15,0.,0.));
#535=CARTESIAN_POINT('Origin',(-21.85,0.,0.));
#536=CARTESIAN_POINT('Origin',(-22.,0.,0.));
#537=CARTESIAN_POINT('Origin',(-22.,9.75,0.));
#538=CARTESIAN_POINT('',(-22.,-8.58996772460691,-1.05196764787189E-15));
#539=CARTESIAN_POINT('Origin',(-22.,0.,0.));
#540=CARTESIAN_POINT('Origin',(-35.85,0.,0.));
#541=CARTESIAN_POINT('',(-36.,5.3,-6.49062803548097E-16));
#542=CARTESIAN_POINT('Origin',(-36.,0.,0.));
#543=CARTESIAN_POINT('',(-35.85,5.15,-6.30693101560886E-16));
#544=CARTESIAN_POINT('Origin',(-36.,8.15,0.));
#545=CARTESIAN_POINT('',(-36.,7.05,8.63375993398884E-16));
#546=CARTESIAN_POINT('Origin',(-36.,0.,0.));
#547=CARTESIAN_POINT('Origin',(-35.4502713917989,0.,-2.50579630179278E-16));
#548=CARTESIAN_POINT('',(-34.9005427835977,8.18455183498594,-1.00231852071711E-15));
#549=CARTESIAN_POINT('',(-34.9005427835977,-8.18455183498594,-1.00231852071711E-15));
#550=CARTESIAN_POINT('Origin',(-34.9005427835977,0.,-5.01159260358556E-16));
#551=CARTESIAN_POINT('Origin',(-34.9005427835977,0.,-5.01159260358556E-16));
#552=CARTESIAN_POINT('',(-35.4502713917989,7.61727591749297,9.32847257057998E-16));
#553=CARTESIAN_POINT('Origin',(-29.,0.,0.));
#554=CARTESIAN_POINT('',(-29.,-8.36998386230346,-1.02502739458849E-15));
#555=CARTESIAN_POINT('Origin',(-0.650000000000003,0.,0.));
#556=CARTESIAN_POINT('',(-1.3,13.2,1.61653377487451E-15));
#557=CARTESIAN_POINT('',(-0.650000000000003,12.55,1.53693173292993E-15));
#558=CARTESIAN_POINT('',(-1.3,-13.2,-1.61653377487451E-15));
#559=CARTESIAN_POINT('Origin',(-1.3,0.,0.));
#560=CARTESIAN_POINT('Origin',(-1.3,0.,0.));
#561=CARTESIAN_POINT('Origin',(-3.27500000000001,0.,0.));
#562=CARTESIAN_POINT('',(-6.55000000000001,-13.2,-1.61653377487451E-15));
#563=CARTESIAN_POINT('',(-3.27500000000001,-13.2,-1.61653377487451E-15));
#564=CARTESIAN_POINT('Origin',(-6.55000000000001,0.,0.));
#565=CARTESIAN_POINT('Origin',(-8.275,0.,0.));
#566=CARTESIAN_POINT('',(-8.275,-11.475,-1.40528220202159E-15));
#567=UNCERTAINTY_MEASURE_WITH_UNIT(LENGTH_MEASURE(0.01),#571,
'DISTANCE_ACCURACY_VALUE',
'Maximum model space distance between geometric entities at asserted c
onnectivities');
#568=UNCERTAINTY_MEASURE_WITH_UNIT(LENGTH_MEASURE(0.01),#571,
'DISTANCE_ACCURACY_VALUE',
'Maximum model space distance between geometric entities at asserted c
onnectivities');
#569=(
GEOMETRIC_REPRESENTATION_CONTEXT(3)
GLOBAL_UNCERTAINTY_ASSIGNED_CONTEXT((#567))
GLOBAL_UNIT_ASSIGNED_CONTEXT((#571,#573,#574))
REPRESENTATION_CONTEXT('','3D')
);
#570=(
GEOMETRIC_REPRESENTATION_CONTEXT(3)
GLOBAL_UNCERTAINTY_ASSIGNED_CONTEXT((#568))
GLOBAL_UNIT_ASSIGNED_CONTEXT((#571,#573,#574))
REPRESENTATION_CONTEXT('','3D')
);
#571=(
LENGTH_UNIT()
NAMED_UNIT(*)
SI_UNIT(.MILLI.,.METRE.)
);
#572=(
LENGTH_UNIT()
NAMED_UNIT(*)
SI_UNIT(.CENTI.,.METRE.)
);
#573=(
NAMED_UNIT(*)
PLANE_ANGLE_UNIT()
SI_UNIT($,.RADIAN.)
);
#574=(
NAMED_UNIT(*)
SI_UNIT($,.STERADIAN.)
SOLID_ANGLE_UNIT()
);
#575=SHAPE_DEFINITION_REPRESENTATION(#576,#577);
#576=PRODUCT_DEFINITION_SHAPE('',$,#579);
#577=SHAPE_REPRESENTATION('',(#329),#569);
#578=PRODUCT_DEFINITION_CONTEXT('part definition',#583,'design');
#579=PRODUCT_DEFINITION('3D_R666-UG-DN10-DN20_17113615',
'3D_R666-UG-DN10-DN20_17113615',#580,#578);
#580=PRODUCT_DEFINITION_FORMATION('',$,#585);
#581=PRODUCT_RELATED_PRODUCT_CATEGORY('3D_R666-UG-DN10-DN20_17113615',
'3D_R666-UG-DN10-DN20_17113615',(#585));
#582=APPLICATION_PROTOCOL_DEFINITION('international standard',
'automotive_design',2009,#583);
#583=APPLICATION_CONTEXT(
'Core Data for Automotive Mechanical Design Process');
#584=PRODUCT_CONTEXT('part definition',#583,'mechanical');
#585=PRODUCT('3D_R666-UG-DN10-DN20_17113615',
'3D_R666-UG-DN10-DN20_17113615',$,(#584));
#586=PRESENTATION_STYLE_ASSIGNMENT((#587));
#587=SURFACE_STYLE_USAGE(.BOTH.,#590);
#588=SURFACE_STYLE_RENDERING_WITH_PROPERTIES($,#594,(#589));
#589=SURFACE_STYLE_TRANSPARENT(0.);
#590=SURFACE_SIDE_STYLE('',(#591,#588));
#591=SURFACE_STYLE_FILL_AREA(#592);
#592=FILL_AREA_STYLE('',(#593));
#593=FILL_AREA_STYLE_COLOUR('',#594);
#594=COLOUR_RGB('',0.749019607843137,0.749019607843137,0.749019607843137);
ENDSEC;
END-ISO-10303-21;
