ISO-10303-21;
HEADER;
FILE_DESCRIPTION (( 'STEP AP203' ),
    '1' );
FILE_NAME ('3D-LR-131-SE_42.4-36_17106590.STEP',
    '2024-09-02T20:29:21',
    ( '' ),
    ( '' ),
    'SwSTEP 2.0',
    'SolidWorks 2024',
    '' );
FILE_SCHEMA (( 'CONFIG_CONTROL_DESIGN' ));
ENDSEC;

DATA;
#1 = DIRECTION ( 'NONE',  ( -1.000000000000000000, -0.000000000000000000, -0.000000000000000000 ) ) ;
#2 = CARTESIAN_POINT ( 'NONE',  ( 11.24999999999999645, 2.204364238465235428E-15, -18.00000000000000000 ) ) ;
#3 =( LENGTH_UNIT ( ) NAMED_UNIT ( * ) SI_UNIT ( .MILLI., .METRE. ) );
#4 = CARTESIAN_POINT ( 'NONE',  ( -9.829591274114424237, 2.954460402942990182E-15, -23.50000000000000000 ) ) ;
#5 = ORIENTED_EDGE ( 'NONE', *, *, #294, .F. ) ;
#6 = LINE ( 'NONE', #173, #292 ) ;
#7 = EDGE_LOOP ( 'NONE', ( #310, #267 ) ) ;
#8 = ADVANCED_FACE ( 'NONE', ( #21 ), #230, .T. ) ;
#9 = DIRECTION ( 'NONE',  ( -1.000000000000000000, -0.000000000000000000, -0.000000000000000000 ) ) ;
#10 = ORIENTED_EDGE ( 'NONE', *, *, #62, .F. ) ;
#11 = AXIS2_PLACEMENT_3D ( 'NONE', #268, #171, #392 ) ;
#12 = CONICAL_SURFACE ( 'NONE', #177, 24.75000000000000000, 1.396263401595465359 ) ;
#13 = COORDINATED_UNIVERSAL_TIME_OFFSET ( 1, 0, .AHEAD. ) ;
#14 = VERTEX_POINT ( 'NONE', #352 ) ;
#15 = COORDINATED_UNIVERSAL_TIME_OFFSET ( 1, 0, .AHEAD. ) ;
#16 = EDGE_LOOP ( 'NONE', ( #339, #277 ) ) ;
#17 = DIRECTION ( 'NONE',  ( 1.000000000000000000, 0.000000000000000000, 0.000000000000000000 ) ) ;
#18 = SECURITY_CLASSIFICATION ( '', '', #123 ) ;
#19 = DIRECTION ( 'NONE',  ( 0.000000000000000000, 0.000000000000000000, 1.000000000000000000 ) ) ;
#20 = PERSON_AND_ORGANIZATION ( #98, #359 ) ;
#21 = FACE_OUTER_BOUND ( 'NONE', #262, .T. ) ;
#22 = ADVANCED_FACE ( 'NONE', ( #423, #228 ), #293, .T. ) ;
#23 = DIRECTION ( 'NONE',  ( 0.000000000000000000, 0.000000000000000000, 1.000000000000000000 ) ) ;
#24 = VECTOR ( 'NONE', #170, 1000.000000000000000 ) ;
#25 = FACE_OUTER_BOUND ( 'NONE', #44, .T. ) ;
#26 = CARTESIAN_POINT ( 'NONE',  ( -10.05000000000000426, 3.031000827889699256E-15, -24.75000000000000000 ) ) ;
#27 = ADVANCED_FACE ( 'NONE', ( #324 ), #197, .T. ) ;
#28 = DIRECTION ( 'NONE',  ( 0.000000000000000000, 0.000000000000000000, 1.000000000000000000 ) ) ;
#29 = EDGE_CURVE ( 'NONE', #256, #71, #189, .T. ) ;
#30 = DIRECTION ( 'NONE',  ( -1.000000000000000000, -0.000000000000000000, -0.000000000000000000 ) ) ;
#31 = DIRECTION ( 'NONE',  ( -1.000000000000000000, -0.000000000000000000, -0.000000000000000000 ) ) ;
#32 = CLOSED_SHELL ( 'NONE', ( #27, #250, #74, #8, #382, #22, #331, #175, #361, #412, #59, #153, #102 ) ) ;
#33 = CARTESIAN_POINT ( 'NONE',  ( -10.05000000000000426, 0.000000000000000000, 0.000000000000000000 ) ) ;
#34 = DIRECTION ( 'NONE',  ( 0.000000000000000000, 0.000000000000000000, 1.000000000000000000 ) ) ;
#35 = ORIENTED_EDGE ( 'NONE', *, *, #322, .F. ) ;
#36 = DIRECTION ( 'NONE',  ( 0.000000000000000000, 0.000000000000000000, 1.000000000000000000 ) ) ;
#37 = VERTEX_POINT ( 'NONE', #86 ) ;
#38 = EDGE_CURVE ( 'NONE', #263, #14, #160, .T. ) ;
#39 = CARTESIAN_POINT ( 'NONE',  ( -36.70332301863295754, 0.000000000000000000, 0.000000000000000000 ) ) ;
#40 = VERTEX_POINT ( 'NONE', #133 ) ;
#41 = CARTESIAN_POINT ( 'NONE',  ( 1.249999999999994227, 0.000000000000000000, 0.000000000000000000 ) ) ;
#42 = ORIENTED_EDGE ( 'NONE', *, *, #406, .T. ) ;
#43 = VECTOR ( 'NONE', #384, 1000.000000000000000 ) ;
#44 = EDGE_LOOP ( 'NONE', ( #261, #391, #35, #221 ) ) ;
#45 = APPLICATION_CONTEXT ( 'configuration controlled 3d designs of mechanical parts and assemblies' ) ;
#46 = PERSON_AND_ORGANIZATION ( #98, #359 ) ;
#47 = CARTESIAN_POINT ( 'NONE',  ( 11.24999999999999645, 21.19999999999999929, 0.000000000000000000 ) ) ;
#48 = APPROVAL_STATUS ( 'not_yet_approved' ) ;
#49 = CARTESIAN_POINT ( 'NONE',  ( 11.24999999999999645, 0.000000000000000000, 0.000000000000000000 ) ) ;
#50 = VECTOR ( 'NONE', #166, 1000.000000000000000 ) ;
#51 = APPROVAL_ROLE ( '' ) ;
#52 = ADVANCED_BREP_SHAPE_REPRESENTATION ( '3D-LR-131-SE_42.4-36_17106590', ( #72, #132 ), #415 ) ;
#53 = DIRECTION ( 'NONE',  ( 0.000000000000000000, 0.000000000000000000, -1.000000000000000000 ) ) ;
#54 = EDGE_CURVE ( 'NONE', #79, #341, #421, .T. ) ;
#55 = PERSON_AND_ORGANIZATION ( #98, #359 ) ;
#56 = DIRECTION ( 'NONE',  ( 0.000000000000000000, 0.000000000000000000, 1.000000000000000000 ) ) ;
#57 = DIRECTION ( 'NONE',  ( -1.000000000000000000, -0.000000000000000000, -0.000000000000000000 ) ) ;
#58 = ORIENTED_EDGE ( 'NONE', *, *, #139, .F. ) ;
#59 = ADVANCED_FACE ( 'NONE', ( #199 ), #297, .T. ) ;
#60 = CIRCLE ( 'NONE', #330, 21.19999999999999929 ) ;
#61 = CARTESIAN_POINT ( 'NONE',  ( -11.25000000000000355, 0.000000000000000000, 0.000000000000000000 ) ) ;
#62 = EDGE_CURVE ( 'NONE', #87, #78, #112, .T. ) ;
#63 = DIRECTION ( 'NONE',  ( 0.000000000000000000, 0.000000000000000000, 1.000000000000000000 ) ) ;
#64 = DIRECTION ( 'NONE',  ( 0.000000000000000000, 0.000000000000000000, 1.000000000000000000 ) ) ;
#65 = LINE ( 'NONE', #204, #24 ) ;
#66 = DIRECTION ( 'NONE',  ( -1.000000000000000000, -0.000000000000000000, -0.000000000000000000 ) ) ;
#67 = CARTESIAN_POINT ( 'NONE',  ( 1.249999999999994227, 2.596251214192388770E-15, -21.19999999999999929 ) ) ;
#68 = CIRCLE ( 'NONE', #76, 24.75000000000000000 ) ;
#69 = DIRECTION ( 'NONE',  ( -0.1736481776669286659, 1.206041662501898114E-16, -0.9848077530122083534 ) ) ;
#70 =( NAMED_UNIT ( * ) PLANE_ANGLE_UNIT ( ) SI_UNIT ( $, .RADIAN. ) );
#71 = VERTEX_POINT ( 'NONE', #163 ) ;
#72 = MANIFOLD_SOLID_BREP ( 'Rotation1', #32 ) ;
#73 = CARTESIAN_POINT ( 'NONE',  ( -9.829591274114424237, 0.000000000000000000, 0.000000000000000000 ) ) ;
#74 = ADVANCED_FACE ( 'NONE', ( #419 ), #88, .T. ) ;
#75 = VERTEX_POINT ( 'NONE', #67 ) ;
#76 = AXIS2_PLACEMENT_3D ( 'NONE', #150, #372, #334 ) ;
#77 = FACE_OUTER_BOUND ( 'NONE', #313, .T. ) ;
#78 = VERTEX_POINT ( 'NONE', #100 ) ;
#79 = VERTEX_POINT ( 'NONE', #141 ) ;
#80 = DATE_AND_TIME ( #85, #239 ) ;
#81 = ORIENTED_EDGE ( 'NONE', *, *, #159, .F. ) ;
#82 = CIRCLE ( 'NONE', #379, 17.99999999999999645 ) ;
#83 = DIRECTION ( 'NONE',  ( 0.000000000000000000, 0.000000000000000000, 1.000000000000000000 ) ) ;
#84 = ORIENTED_EDGE ( 'NONE', *, *, #139, .T. ) ;
#85 = CALENDAR_DATE ( 2024, 2, 9 ) ;
#86 = CARTESIAN_POINT ( 'NONE',  ( -11.25000000000000355, 3.031000827889699256E-15, -24.75000000000000000 ) ) ;
#87 = VERTEX_POINT ( 'NONE', #2 ) ;
#88 = CONICAL_SURFACE ( 'NONE', #194, 24.75000000000000000, 1.396263401595465359 ) ;
#89 = PERSON_AND_ORGANIZATION ( #98, #359 ) ;
#90 = DIRECTION ( 'NONE',  ( -1.000000000000000000, -0.000000000000000000, -0.000000000000000000 ) ) ;
#91 = PRODUCT ( '3D-LR-131-SE_42.4-36_17106590', '3D-LR-131-SE_42.4-36_17106590', '', ( #225 ) ) ;
#92 = DIRECTION ( 'NONE',  ( 0.000000000000000000, 0.000000000000000000, -1.000000000000000000 ) ) ;
#93 = VERTEX_POINT ( 'NONE', #172 ) ;
#94 = CARTESIAN_POINT ( 'NONE',  ( -36.70332301863295754, 2.204364238465235033E-15, -17.99999999999999645 ) ) ;
#95 = CC_DESIGN_PERSON_AND_ORGANIZATION_ASSIGNMENT ( #55, #318, ( #91 ) ) ;
#96 = VECTOR ( 'NONE', #30, 1000.000000000000000 ) ;
#97 = CARTESIAN_POINT ( 'NONE',  ( 1.249999999999994227, 0.000000000000000000, 0.000000000000000000 ) ) ;
#98 = PERSON ( 'UNSPECIFIED', 'UNSPECIFIED', 'UNSPECIFIED', ('UNSPECIFIED'), ('UNSPECIFIED'), ('UNSPECIFIED') ) ;
#99 = PLANE ( 'NONE',  #11 ) ;
#100 = CARTESIAN_POINT ( 'NONE',  ( 11.24999999999999645, 0.000000000000000000, 18.00000000000000000 ) ) ;
#101 = DIRECTION ( 'NONE',  ( 0.000000000000000000, 0.000000000000000000, 1.000000000000000000 ) ) ;
#102 = ADVANCED_FACE ( 'NONE', ( #209 ), #211, .T. ) ;
#103 = CARTESIAN_POINT ( 'NONE',  ( -11.25000000000000355, 0.000000000000000000, 17.99999999999999645 ) ) ;
#104 = CIRCLE ( 'NONE', #206, 24.75000000000000000 ) ;
#105 = DIRECTION ( 'NONE',  ( -1.000000000000000000, -0.000000000000000000, -0.000000000000000000 ) ) ;
#106 = ORIENTED_EDGE ( 'NONE', *, *, #335, .T. ) ;
#107 = EDGE_CURVE ( 'NONE', #341, #14, #273, .T. ) ;
#108 = CYLINDRICAL_SURFACE ( 'NONE', #238, 24.75000000000000000 ) ;
#109 = EDGE_LOOP ( 'NONE', ( #258, #411 ) ) ;
#110 = DIRECTION ( 'NONE',  ( 0.000000000000000000, 0.000000000000000000, 1.000000000000000000 ) ) ;
#111 = EDGE_LOOP ( 'NONE', ( #381, #321, #218, #180 ) ) ;
#112 = CIRCLE ( 'NONE', #388, 18.00000000000000000 ) ;
#113 = APPROVAL_PERSON_ORGANIZATION ( #349, #192, #51 ) ;
#114 = CARTESIAN_POINT ( 'NONE',  ( -36.70332301863295754, 0.000000000000000000, 0.000000000000000000 ) ) ;
#115 = ORIENTED_EDGE ( 'NONE', *, *, #322, .T. ) ;
#116 = PERSON_AND_ORGANIZATION_ROLE ( 'creator' ) ;
#117 = PRODUCT_DEFINITION ( 'UNKNOWN', '', #251, #374 ) ;
#118 = ORIENTED_EDGE ( 'NONE', *, *, #125, .T. ) ;
#119 = CALENDAR_DATE ( 2024, 2, 9 ) ;
#120 = CARTESIAN_POINT ( 'NONE',  ( -36.70332301863295754, 0.000000000000000000, 0.000000000000000000 ) ) ;
#121 = AXIS2_PLACEMENT_3D ( 'NONE', #269, #241, #200 ) ;
#122 = AXIS2_PLACEMENT_3D ( 'NONE', #217, #105, #366 ) ;
#123 = SECURITY_CLASSIFICATION_LEVEL ( 'unclassified' ) ;
#124 = DIRECTION ( 'NONE',  ( 0.000000000000000000, 0.000000000000000000, 1.000000000000000000 ) ) ;
#125 = EDGE_CURVE ( 'NONE', #78, #87, #302, .T. ) ;
#126 = APPROVAL_ROLE ( '' ) ;
#127 = CARTESIAN_POINT ( 'NONE',  ( -10.05000000000000426, 0.000000000000000000, 0.000000000000000000 ) ) ;
#128 = APPROVAL ( #232, 'UNSPECIFIED' ) ;
#129 = APPLICATION_PROTOCOL_DEFINITION ( 'international standard', 'config_control_design', 1994, #45 ) ;
#130 = ORIENTED_EDGE ( 'NONE', *, *, #224, .F. ) ;
#131 = AXIS2_PLACEMENT_3D ( 'NONE', #33, #66, #28 ) ;
#132 = AXIS2_PLACEMENT_3D ( 'NONE', #157, #83, #418 ) ;
#133 = CARTESIAN_POINT ( 'NONE',  ( -11.25000000000000355, 2.204364238465235033E-15, -17.99999999999999645 ) ) ;
#134 = UNCERTAINTY_MEASURE_WITH_UNIT (LENGTH_MEASURE( 1.000000000000000082E-05 ), #3, 'distance_accuracy_value', 'NONE');
#135 = CARTESIAN_POINT ( 'NONE',  ( 11.24999999999999645, 0.000000000000000000, 21.19999999999999929 ) ) ;
#136 = AXIS2_PLACEMENT_3D ( 'NONE', #47, #17, #53 ) ;
#137 = CARTESIAN_POINT ( 'NONE',  ( 11.24999999999999645, 0.000000000000000000, 0.000000000000000000 ) ) ;
#138 = AXIS2_PLACEMENT_3D ( 'NONE', #73, #316, #110 ) ;
#139 = EDGE_CURVE ( 'NONE', #317, #75, #329, .T. ) ;
#140 = DIRECTION ( 'NONE',  ( -1.000000000000000000, -0.000000000000000000, -0.000000000000000000 ) ) ;
#141 = CARTESIAN_POINT ( 'NONE',  ( 1.249999999999994227, 0.000000000000000000, 23.50000000000000000 ) ) ;
#142 = DIRECTION ( 'NONE',  ( -1.000000000000000000, -0.000000000000000000, -0.000000000000000000 ) ) ;
#143 = DIRECTION ( 'NONE',  ( 0.000000000000000000, 0.000000000000000000, 1.000000000000000000 ) ) ;
#144 = DIRECTION ( 'NONE',  ( -1.000000000000000000, -0.000000000000000000, -0.000000000000000000 ) ) ;
#145 = CARTESIAN_POINT ( 'NONE',  ( -36.70332301863295754, 0.000000000000000000, 0.000000000000000000 ) ) ;
#146 = ORIENTED_EDGE ( 'NONE', *, *, #219, .F. ) ;
#147 = APPROVAL ( #255, 'UNSPECIFIED' ) ;
#148 = DIRECTION ( 'NONE',  ( -1.000000000000000000, -0.000000000000000000, -0.000000000000000000 ) ) ;
#149 = ORIENTED_EDGE ( 'NONE', *, *, #311, .F. ) ;
#150 = CARTESIAN_POINT ( 'NONE',  ( -11.25000000000000355, 0.000000000000000000, 0.000000000000000000 ) ) ;
#151 = CC_DESIGN_PERSON_AND_ORGANIZATION_ASSIGNMENT ( #377, #187, ( #251 ) ) ;
#152 = CALENDAR_DATE ( 2024, 2, 9 ) ;
#153 = ADVANCED_FACE ( 'NONE', ( #357, #362 ), #306, .T. ) ;
#154 = ORIENTED_EDGE ( 'NONE', *, *, #107, .F. ) ;
#155 = COORDINATED_UNIVERSAL_TIME_OFFSET ( 1, 0, .AHEAD. ) ;
#156 = ORIENTED_EDGE ( 'NONE', *, *, #234, .T. ) ;
#157 = CARTESIAN_POINT ( 'NONE',  ( 0.000000000000000000, 0.000000000000000000, 0.000000000000000000 ) ) ;
#158 = CARTESIAN_POINT ( 'NONE',  ( -36.70332301863295754, 0.000000000000000000, 21.19999999999999929 ) ) ;
#159 = EDGE_CURVE ( 'NONE', #14, #263, #223, .T. ) ;
#160 = CIRCLE ( 'NONE', #283, 24.75000000000000000 ) ;
#161 = VECTOR ( 'NONE', #69, 1000.000000000000000 ) ;
#162 = PERSON_AND_ORGANIZATION ( #98, #359 ) ;
#163 = CARTESIAN_POINT ( 'NONE',  ( 1.249999999999994227, 0.000000000000000000, 21.19999999999999929 ) ) ;
#164 = APPROVAL_DATE_TIME ( #196, #192 ) ;
#165 = ORIENTED_EDGE ( 'NONE', *, *, #344, .F. ) ;
#166 = DIRECTION ( 'NONE',  ( -1.000000000000000000, -0.000000000000000000, -0.000000000000000000 ) ) ;
#167 = CYLINDRICAL_SURFACE ( 'NONE', #270, 23.50000000000000000 ) ;
#168 = DIRECTION ( 'NONE',  ( -1.000000000000000000, -0.000000000000000000, -0.000000000000000000 ) ) ;
#169 = EDGE_CURVE ( 'NONE', #37, #182, #104, .T. ) ;
#170 = DIRECTION ( 'NONE',  ( -1.000000000000000000, -0.000000000000000000, -0.000000000000000000 ) ) ;
#171 = DIRECTION ( 'NONE',  ( -1.000000000000000000, 0.000000000000000000, -0.000000000000000000 ) ) ;
#172 = CARTESIAN_POINT ( 'NONE',  ( 1.249999999999994227, 2.877919977996280320E-15, -23.50000000000000000 ) ) ;
#173 = CARTESIAN_POINT ( 'NONE',  ( -36.70332301863295754, 2.877919977996280320E-15, -23.50000000000000000 ) ) ;
#174 = CARTESIAN_POINT ( 'NONE',  ( -9.829591274114424237, 0.000000000000000000, 23.50000000000000000 ) ) ;
#175 = ADVANCED_FACE ( 'NONE', ( #424, #208 ), #99, .T. ) ;
#176 = AXIS2_PLACEMENT_3D ( 'NONE', #137, #393, #63 ) ;
#177 = AXIS2_PLACEMENT_3D ( 'NONE', #338, #405, #36 ) ;
#178 = ORIENTED_EDGE ( 'NONE', *, *, #183, .T. ) ;
#179 = CYLINDRICAL_SURFACE ( 'NONE', #326, 17.99999999999999645 ) ;
#180 = ORIENTED_EDGE ( 'NONE', *, *, #38, .F. ) ;
#181 = CARTESIAN_POINT ( 'NONE',  ( 1.249999999999994227, 0.000000000000000000, 0.000000000000000000 ) ) ;
#182 = VERTEX_POINT ( 'NONE', #266 ) ;
#183 = EDGE_CURVE ( 'NONE', #40, #378, #363, .T. ) ;
#184 = CARTESIAN_POINT ( 'NONE',  ( 11.24999999999999645, 2.596251214192388770E-15, -21.19999999999999929 ) ) ;
#185 = EDGE_LOOP ( 'NONE', ( #403, #407, #252, #319 ) ) ;
#186 = AXIS2_PLACEMENT_3D ( 'NONE', #97, #400, #312 ) ;
#187 = PERSON_AND_ORGANIZATION_ROLE ( 'design_supplier' ) ;
#188 = EDGE_LOOP ( 'NONE', ( #289, #84, #146, #282 ) ) ;
#189 = LINE ( 'NONE', #158, #43 ) ;
#190 = EDGE_CURVE ( 'NONE', #87, #40, #390, .T. ) ;
#191 = APPROVAL_ROLE ( '' ) ;
#192 = APPROVAL ( #48, 'UNSPECIFIED' ) ;
#193 = DIRECTION ( 'NONE',  ( -1.000000000000000000, -0.000000000000000000, -0.000000000000000000 ) ) ;
#194 = AXIS2_PLACEMENT_3D ( 'NONE', #127, #31, #64 ) ;
#195 = CC_DESIGN_SECURITY_CLASSIFICATION ( #18, ( #251 ) ) ;
#196 = DATE_AND_TIME ( #380, #298 ) ;
#197 = CYLINDRICAL_SURFACE ( 'NONE', #315, 21.19999999999999929 ) ;
#198 = PERSON_AND_ORGANIZATION_ROLE ( 'creator' ) ;
#199 = FACE_OUTER_BOUND ( 'NONE', #386, .T. ) ;
#200 = DIRECTION ( 'NONE',  ( 0.000000000000000000, 0.000000000000000000, 1.000000000000000000 ) ) ;
#201 = EDGE_LOOP ( 'NONE', ( #115, #346, #81, #154 ) ) ;
#202 = AXIS2_PLACEMENT_3D ( 'NONE', #181, #245, #253 ) ;
#203 = DIRECTION ( 'NONE',  ( 0.000000000000000000, 0.000000000000000000, 1.000000000000000000 ) ) ;
#204 = CARTESIAN_POINT ( 'NONE',  ( -36.70332301863295754, 0.000000000000000000, 17.99999999999999645 ) ) ;
#205 = APPLICATION_CONTEXT ( 'configuration controlled 3d designs of mechanical parts and assemblies' ) ;
#206 = AXIS2_PLACEMENT_3D ( 'NONE', #61, #1, #397 ) ;
#207 = VECTOR ( 'NONE', #144, 1000.000000000000000 ) ;
#208 = FACE_BOUND ( 'NONE', #248, .T. ) ;
#209 = FACE_OUTER_BOUND ( 'NONE', #254, .T. ) ;
#210 = LINE ( 'NONE', #333, #207 ) ;
#211 = CYLINDRICAL_SURFACE ( 'NONE', #345, 21.19999999999999929 ) ;
#212 = ORIENTED_EDGE ( 'NONE', *, *, #376, .F. ) ;
#213 = DIRECTION ( 'NONE',  ( -1.000000000000000000, -0.000000000000000000, -0.000000000000000000 ) ) ;
#214 = AXIS2_PLACEMENT_3D ( 'NONE', #332, #360, #235 ) ;
#215 = CC_DESIGN_APPROVAL ( #147, ( #251 ) ) ;
#216 = ORIENTED_EDGE ( 'NONE', *, *, #183, .F. ) ;
#217 = CARTESIAN_POINT ( 'NONE',  ( -36.70332301863295754, 0.000000000000000000, 0.000000000000000000 ) ) ;
#218 = ORIENTED_EDGE ( 'NONE', *, *, #107, .T. ) ;
#219 = EDGE_CURVE ( 'NONE', #71, #75, #351, .T. ) ;
#220 = LINE ( 'NONE', #249, #231 ) ;
#221 = ORIENTED_EDGE ( 'NONE', *, *, #54, .F. ) ;
#222 = COORDINATED_UNIVERSAL_TIME_OFFSET ( 1, 0, .AHEAD. ) ;
#223 = CIRCLE ( 'NONE', #131, 24.75000000000000000 ) ;
#224 = EDGE_CURVE ( 'NONE', #78, #378, #65, .T. ) ;
#225 = MECHANICAL_CONTEXT ( 'NONE', #45, 'mechanical' ) ;
#226 = ORIENTED_EDGE ( 'NONE', *, *, #159, .T. ) ;
#227 = PERSON_AND_ORGANIZATION ( #98, #359 ) ;
#228 = FACE_OUTER_BOUND ( 'NONE', #404, .T. ) ;
#229 = PRODUCT_DEFINITION_SHAPE ( 'NONE', 'NONE',  #117 ) ;
#230 = CYLINDRICAL_SURFACE ( 'NONE', #291, 24.75000000000000000 ) ;
#231 = VECTOR ( 'NONE', #9, 1000.000000000000000 ) ;
#232 = APPROVAL_STATUS ( 'not_yet_approved' ) ;
#233 = ORIENTED_EDGE ( 'NONE', *, *, #305, .T. ) ;
#234 = EDGE_CURVE ( 'NONE', #317, #256, #60, .T. ) ;
#235 = DIRECTION ( 'NONE',  ( 0.000000000000000000, 0.000000000000000000, 1.000000000000000000 ) ) ;
#236 = CARTESIAN_POINT ( 'NONE',  ( -36.70332301863295754, 0.000000000000000000, 0.000000000000000000 ) ) ;
#237 = DIRECTION ( 'NONE',  ( -1.000000000000000000, -0.000000000000000000, -0.000000000000000000 ) ) ;
#238 = AXIS2_PLACEMENT_3D ( 'NONE', #114, #213, #143 ) ;
#239 = LOCAL_TIME ( 22, 29, 21.00000000000000000, #15 ) ;
#240 = EDGE_CURVE ( 'NONE', #256, #317, #265, .T. ) ;
#241 = DIRECTION ( 'NONE',  ( -1.000000000000000000, -0.000000000000000000, -0.000000000000000000 ) ) ;
#242 = AXIS2_PLACEMENT_3D ( 'NONE', #41, #148, #247 ) ;
#243 = APPROVAL_PERSON_ORGANIZATION ( #89, #128, #191 ) ;
#244 = CARTESIAN_POINT ( 'NONE',  ( -10.05000000000000426, 3.031000827889699256E-15, -24.75000000000000000 ) ) ;
#245 = DIRECTION ( 'NONE',  ( -1.000000000000000000, -0.000000000000000000, -0.000000000000000000 ) ) ;
#246 = ORIENTED_EDGE ( 'NONE', *, *, #29, .T. ) ;
#247 = DIRECTION ( 'NONE',  ( 0.000000000000000000, 0.000000000000000000, 1.000000000000000000 ) ) ;
#248 = EDGE_LOOP ( 'NONE', ( #286, #216 ) ) ;
#249 = CARTESIAN_POINT ( 'NONE',  ( -36.70332301863295754, 0.000000000000000000, 24.75000000000000000 ) ) ;
#250 = ADVANCED_FACE ( 'NONE', ( #25 ), #167, .T. ) ;
#251 = PRODUCT_DEFINITION_FORMATION_WITH_SPECIFIED_SOURCE ( 'ANY', '', #91, .NOT_KNOWN. ) ;
#252 = ORIENTED_EDGE ( 'NONE', *, *, #294, .T. ) ;
#253 = DIRECTION ( 'NONE',  ( 0.000000000000000000, 0.000000000000000000, 1.000000000000000000 ) ) ;
#254 = EDGE_LOOP ( 'NONE', ( #58, #156, #246, #165 ) ) ;
#255 = APPROVAL_STATUS ( 'not_yet_approved' ) ;
#256 = VERTEX_POINT ( 'NONE', #135 ) ;
#257 = PERSON_AND_ORGANIZATION_ROLE ( 'classification_officer' ) ;
#258 = ORIENTED_EDGE ( 'NONE', *, *, #311, .T. ) ;
#259 = AXIS2_PLACEMENT_3D ( 'NONE', #427, #328, #92 ) ;
#260 = CALENDAR_DATE ( 2024, 2, 9 ) ;
#261 = ORIENTED_EDGE ( 'NONE', *, *, #264, .T. ) ;
#262 = EDGE_LOOP ( 'NONE', ( #226, #42, #149, #5 ) ) ;
#263 = VERTEX_POINT ( 'NONE', #26 ) ;
#264 = EDGE_CURVE ( 'NONE', #79, #93, #276, .T. ) ;
#265 = CIRCLE ( 'NONE', #121, 21.19999999999999929 ) ;
#266 = CARTESIAN_POINT ( 'NONE',  ( -11.25000000000000355, 0.000000000000000000, 24.75000000000000000 ) ) ;
#267 = ORIENTED_EDGE ( 'NONE', *, *, #305, .F. ) ;
#268 = CARTESIAN_POINT ( 'NONE',  ( -11.25000000000000355, 17.99999999999999645, 0.000000000000000000 ) ) ;
#269 = CARTESIAN_POINT ( 'NONE',  ( 11.24999999999999645, 0.000000000000000000, 0.000000000000000000 ) ) ;
#270 = AXIS2_PLACEMENT_3D ( 'NONE', #299, #237, #203 ) ;
#271 = CC_DESIGN_APPROVAL ( #192, ( #18 ) ) ;
#272 = DIRECTION ( 'NONE',  ( 0.000000000000000000, 0.000000000000000000, 1.000000000000000000 ) ) ;
#273 = LINE ( 'NONE', #300, #394 ) ;
#274 = DIRECTION ( 'NONE',  ( 0.000000000000000000, 0.000000000000000000, 1.000000000000000000 ) ) ;
#275 = PRODUCT_RELATED_PRODUCT_CATEGORY ( 'detail', '', ( #91 ) ) ;
#276 = CIRCLE ( 'NONE', #186, 23.50000000000000000 ) ;
#277 = ORIENTED_EDGE ( 'NONE', *, *, #344, .T. ) ;
#278 =( NAMED_UNIT ( * ) SI_UNIT ( $, .STERADIAN. ) SOLID_ANGLE_UNIT ( ) );
#279 = DIRECTION ( 'NONE',  ( -1.000000000000000000, -0.000000000000000000, -0.000000000000000000 ) ) ;
#280 = ORIENTED_EDGE ( 'NONE', *, *, #426, .F. ) ;
#281 = CARTESIAN_POINT ( 'NONE',  ( -11.25000000000000355, 0.000000000000000000, 0.000000000000000000 ) ) ;
#282 = ORIENTED_EDGE ( 'NONE', *, *, #29, .F. ) ;
#283 = AXIS2_PLACEMENT_3D ( 'NONE', #323, #296, #56 ) ;
#284 = LINE ( 'NONE', #244, #161 ) ;
#285 = LOCAL_TIME ( 22, 29, 21.00000000000000000, #155 ) ;
#286 = ORIENTED_EDGE ( 'NONE', *, *, #335, .F. ) ;
#287 = DATE_AND_TIME ( #152, #337 ) ;
#288 = ORIENTED_EDGE ( 'NONE', *, *, #190, .T. ) ;
#289 = ORIENTED_EDGE ( 'NONE', *, *, #240, .T. ) ;
#290 = CARTESIAN_POINT ( 'NONE',  ( -36.70332301863295754, 0.000000000000000000, 23.50000000000000000 ) ) ;
#291 = AXIS2_PLACEMENT_3D ( 'NONE', #236, #90, #23 ) ;
#292 = VECTOR ( 'NONE', #307, 1000.000000000000000 ) ;
#293 = PLANE ( 'NONE',  #136 ) ;
#294 = EDGE_CURVE ( 'NONE', #14, #182, #220, .T. ) ;
#295 = APPROVAL_DATE_TIME ( #80, #128 ) ;
#296 = DIRECTION ( 'NONE',  ( -1.000000000000000000, -0.000000000000000000, -0.000000000000000000 ) ) ;
#297 = CYLINDRICAL_SURFACE ( 'NONE', #303, 23.50000000000000000 ) ;
#298 = LOCAL_TIME ( 22, 29, 21.00000000000000000, #222 ) ;
#299 = CARTESIAN_POINT ( 'NONE',  ( -36.70332301863295754, 0.000000000000000000, 0.000000000000000000 ) ) ;
#300 = CARTESIAN_POINT ( 'NONE',  ( -10.05000000000000426, 0.000000000000000000, 24.75000000000000000 ) ) ;
#301 = CARTESIAN_POINT ( 'NONE',  ( -36.70332301863295754, 2.596251214192388770E-15, -21.19999999999999929 ) ) ;
#302 = CIRCLE ( 'NONE', #176, 18.00000000000000000 ) ;
#303 = AXIS2_PLACEMENT_3D ( 'NONE', #355, #350, #124 ) ;
#304 = CARTESIAN_POINT ( 'NONE',  ( 11.24999999999999645, 0.000000000000000000, 0.000000000000000000 ) ) ;
#305 = EDGE_CURVE ( 'NONE', #93, #79, #422, .T. ) ;
#306 = PLANE ( 'NONE',  #259 ) ;
#307 = DIRECTION ( 'NONE',  ( -1.000000000000000000, -0.000000000000000000, -0.000000000000000000 ) ) ;
#308 = VECTOR ( 'NONE', #57, 1000.000000000000000 ) ;
#309 = FACE_OUTER_BOUND ( 'NONE', #325, .T. ) ;
#310 = ORIENTED_EDGE ( 'NONE', *, *, #264, .F. ) ;
#311 = EDGE_CURVE ( 'NONE', #182, #37, #68, .T. ) ;
#312 = DIRECTION ( 'NONE',  ( 0.000000000000000000, 0.000000000000000000, 1.000000000000000000 ) ) ;
#313 = EDGE_LOOP ( 'NONE', ( #10, #288, #178, #130 ) ) ;
#314 = ORIENTED_EDGE ( 'NONE', *, *, #224, .T. ) ;
#315 = AXIS2_PLACEMENT_3D ( 'NONE', #120, #416, #353 ) ;
#316 = DIRECTION ( 'NONE',  ( -1.000000000000000000, -0.000000000000000000, -0.000000000000000000 ) ) ;
#317 = VERTEX_POINT ( 'NONE', #184 ) ;
#318 = PERSON_AND_ORGANIZATION_ROLE ( 'design_owner' ) ;
#319 = ORIENTED_EDGE ( 'NONE', *, *, #169, .F. ) ;
#320 = SHAPE_DEFINITION_REPRESENTATION ( #229, #52 ) ;
#321 = ORIENTED_EDGE ( 'NONE', *, *, #376, .T. ) ;
#322 = EDGE_CURVE ( 'NONE', #341, #389, #428, .T. ) ;
#323 = CARTESIAN_POINT ( 'NONE',  ( -10.05000000000000426, 0.000000000000000000, 0.000000000000000000 ) ) ;
#324 = FACE_OUTER_BOUND ( 'NONE', #188, .T. ) ;
#325 = EDGE_LOOP ( 'NONE', ( #375, #409, #314, #106 ) ) ;
#326 = AXIS2_PLACEMENT_3D ( 'NONE', #39, #342, #274 ) ;
#327 = CC_DESIGN_PERSON_AND_ORGANIZATION_ASSIGNMENT ( #46, #257, ( #18 ) ) ;
#328 = DIRECTION ( 'NONE',  ( 1.000000000000000000, 0.000000000000000000, 0.000000000000000000 ) ) ;
#329 = LINE ( 'NONE', #301, #308 ) ;
#330 = AXIS2_PLACEMENT_3D ( 'NONE', #304, #140, #101 ) ;
#331 = ADVANCED_FACE ( 'NONE', ( #309 ), #179, .F. ) ;
#332 = CARTESIAN_POINT ( 'NONE',  ( 1.249999999999994227, 0.000000000000000000, 0.000000000000000000 ) ) ;
#333 = CARTESIAN_POINT ( 'NONE',  ( -36.70332301863295754, 3.031000827889699256E-15, -24.75000000000000000 ) ) ;
#334 = DIRECTION ( 'NONE',  ( 0.000000000000000000, 0.000000000000000000, 1.000000000000000000 ) ) ;
#335 = EDGE_CURVE ( 'NONE', #378, #40, #82, .T. ) ;
#336 = AXIS2_PLACEMENT_3D ( 'NONE', #429, #168, #425 ) ;
#337 = LOCAL_TIME ( 22, 29, 21.00000000000000000, #13 ) ;
#338 = CARTESIAN_POINT ( 'NONE',  ( -10.05000000000000426, 0.000000000000000000, 0.000000000000000000 ) ) ;
#339 = ORIENTED_EDGE ( 'NONE', *, *, #219, .T. ) ;
#340 = FACE_OUTER_BOUND ( 'NONE', #111, .T. ) ;
#341 = VERTEX_POINT ( 'NONE', #174 ) ;
#342 = DIRECTION ( 'NONE',  ( -1.000000000000000000, -0.000000000000000000, -0.000000000000000000 ) ) ;
#343 = ORIENTED_EDGE ( 'NONE', *, *, #62, .T. ) ;
#344 = EDGE_CURVE ( 'NONE', #75, #71, #358, .T. ) ;
#345 = AXIS2_PLACEMENT_3D ( 'NONE', #145, #279, #272 ) ;
#346 = ORIENTED_EDGE ( 'NONE', *, *, #396, .T. ) ;
#347 = DATE_AND_TIME ( #119, #399 ) ;
#348 = ORIENTED_EDGE ( 'NONE', *, *, #54, .T. ) ;
#349 = PERSON_AND_ORGANIZATION ( #98, #359 ) ;
#350 = DIRECTION ( 'NONE',  ( -1.000000000000000000, -0.000000000000000000, -0.000000000000000000 ) ) ;
#351 = CIRCLE ( 'NONE', #214, 21.19999999999999929 ) ;
#352 = CARTESIAN_POINT ( 'NONE',  ( -10.05000000000000426, 0.000000000000000000, 24.75000000000000000 ) ) ;
#353 = DIRECTION ( 'NONE',  ( 0.000000000000000000, 0.000000000000000000, 1.000000000000000000 ) ) ;
#354 = DIRECTION ( 'NONE',  ( -0.1736481776669286659, 0.000000000000000000, 0.9848077530122083534 ) ) ;
#355 = CARTESIAN_POINT ( 'NONE',  ( -36.70332301863295754, 0.000000000000000000, 0.000000000000000000 ) ) ;
#356 = CC_DESIGN_PERSON_AND_ORGANIZATION_ASSIGNMENT ( #20, #198, ( #117 ) ) ;
#357 = FACE_BOUND ( 'NONE', #16, .T. ) ;
#358 = CIRCLE ( 'NONE', #202, 21.19999999999999929 ) ;
#359 = ORGANIZATION ( 'UNSPECIFIED', 'UNSPECIFIED', '' ) ;
#360 = DIRECTION ( 'NONE',  ( -1.000000000000000000, -0.000000000000000000, -0.000000000000000000 ) ) ;
#361 = ADVANCED_FACE ( 'NONE', ( #398 ), #108, .T. ) ;
#362 = FACE_OUTER_BOUND ( 'NONE', #7, .T. ) ;
#363 = CIRCLE ( 'NONE', #336, 17.99999999999999645 ) ;
#364 = CC_DESIGN_APPROVAL ( #128, ( #117 ) ) ;
#365 = CYLINDRICAL_SURFACE ( 'NONE', #122, 17.99999999999999645 ) ;
#366 = DIRECTION ( 'NONE',  ( 0.000000000000000000, 0.000000000000000000, 1.000000000000000000 ) ) ;
#367 = ORIENTED_EDGE ( 'NONE', *, *, #240, .F. ) ;
#368 = CC_DESIGN_PERSON_AND_ORGANIZATION_ASSIGNMENT ( #227, #116, ( #251 ) ) ;
#369 = DIRECTION ( 'NONE',  ( -1.000000000000000000, -0.000000000000000000, -0.000000000000000000 ) ) ;
#370 = EDGE_LOOP ( 'NONE', ( #118, #343 ) ) ;
#371 = AXIS2_PLACEMENT_3D ( 'NONE', #373, #369, #402 ) ;
#372 = DIRECTION ( 'NONE',  ( -1.000000000000000000, -0.000000000000000000, -0.000000000000000000 ) ) ;
#373 = CARTESIAN_POINT ( 'NONE',  ( -9.829591274114424237, 0.000000000000000000, 0.000000000000000000 ) ) ;
#374 = DESIGN_CONTEXT ( 'detailed design', #205, 'design' ) ;
#375 = ORIENTED_EDGE ( 'NONE', *, *, #190, .F. ) ;
#376 = EDGE_CURVE ( 'NONE', #389, #341, #413, .T. ) ;
#377 = PERSON_AND_ORGANIZATION ( #98, #359 ) ;
#378 = VERTEX_POINT ( 'NONE', #103 ) ;
#379 = AXIS2_PLACEMENT_3D ( 'NONE', #281, #142, #34 ) ;
#380 = CALENDAR_DATE ( 2024, 2, 9 ) ;
#381 = ORIENTED_EDGE ( 'NONE', *, *, #396, .F. ) ;
#382 = ADVANCED_FACE ( 'NONE', ( #77 ), #365, .F. ) ;
#383 = DATE_AND_TIME ( #260, #285 ) ;
#384 = DIRECTION ( 'NONE',  ( -1.000000000000000000, -0.000000000000000000, -0.000000000000000000 ) ) ;
#385 = CC_DESIGN_DATE_AND_TIME_ASSIGNMENT ( #287, #420, ( #117 ) ) ;
#386 = EDGE_LOOP ( 'NONE', ( #280, #233, #348, #212 ) ) ;
#387 = APPLICATION_PROTOCOL_DEFINITION ( 'international standard', 'config_control_design', 1994, #205 ) ;
#388 = AXIS2_PLACEMENT_3D ( 'NONE', #49, #193, #19 ) ;
#389 = VERTEX_POINT ( 'NONE', #4 ) ;
#390 = LINE ( 'NONE', #94, #96 ) ;
#391 = ORIENTED_EDGE ( 'NONE', *, *, #426, .T. ) ;
#392 = DIRECTION ( 'NONE',  ( -0.000000000000000000, 0.000000000000000000, 1.000000000000000000 ) ) ;
#393 = DIRECTION ( 'NONE',  ( -1.000000000000000000, -0.000000000000000000, -0.000000000000000000 ) ) ;
#394 = VECTOR ( 'NONE', #354, 1000.000000000000000 ) ;
#395 = APPROVAL_PERSON_ORGANIZATION ( #162, #147, #126 ) ;
#396 = EDGE_CURVE ( 'NONE', #389, #263, #284, .T. ) ;
#397 = DIRECTION ( 'NONE',  ( 0.000000000000000000, 0.000000000000000000, 1.000000000000000000 ) ) ;
#398 = FACE_OUTER_BOUND ( 'NONE', #185, .T. ) ;
#399 = LOCAL_TIME ( 22, 29, 21.00000000000000000, #410 ) ;
#400 = DIRECTION ( 'NONE',  ( -1.000000000000000000, -0.000000000000000000, -0.000000000000000000 ) ) ;
#401 = ORIENTED_EDGE ( 'NONE', *, *, #234, .F. ) ;
#402 = DIRECTION ( 'NONE',  ( 0.000000000000000000, 0.000000000000000000, 1.000000000000000000 ) ) ;
#403 = ORIENTED_EDGE ( 'NONE', *, *, #406, .F. ) ;
#404 = EDGE_LOOP ( 'NONE', ( #367, #401 ) ) ;
#405 = DIRECTION ( 'NONE',  ( -1.000000000000000000, -0.000000000000000000, -0.000000000000000000 ) ) ;
#406 = EDGE_CURVE ( 'NONE', #263, #37, #210, .T. ) ;
#407 = ORIENTED_EDGE ( 'NONE', *, *, #38, .T. ) ;
#408 = APPROVAL_DATE_TIME ( #347, #147 ) ;
#409 = ORIENTED_EDGE ( 'NONE', *, *, #125, .F. ) ;
#410 = COORDINATED_UNIVERSAL_TIME_OFFSET ( 1, 0, .AHEAD. ) ;
#411 = ORIENTED_EDGE ( 'NONE', *, *, #169, .T. ) ;
#412 = ADVANCED_FACE ( 'NONE', ( #340 ), #12, .T. ) ;
#413 = CIRCLE ( 'NONE', #138, 23.50000000000000000 ) ;
#414 = DATE_TIME_ROLE ( 'classification_date' ) ;
#415 =( GEOMETRIC_REPRESENTATION_CONTEXT ( 3 ) GLOBAL_UNCERTAINTY_ASSIGNED_CONTEXT ( ( #134 ) ) GLOBAL_UNIT_ASSIGNED_CONTEXT ( ( #3, #70, #278 ) ) REPRESENTATION_CONTEXT ( 'NONE', 'WORKASPACE' ) );
#416 = DIRECTION ( 'NONE',  ( -1.000000000000000000, -0.000000000000000000, -0.000000000000000000 ) ) ;
#417 = CC_DESIGN_DATE_AND_TIME_ASSIGNMENT ( #383, #414, ( #18 ) ) ;
#418 = DIRECTION ( 'NONE',  ( 1.000000000000000000, 0.000000000000000000, 0.000000000000000000 ) ) ;
#419 = FACE_OUTER_BOUND ( 'NONE', #201, .T. ) ;
#420 = DATE_TIME_ROLE ( 'creation_date' ) ;
#421 = LINE ( 'NONE', #290, #50 ) ;
#422 = CIRCLE ( 'NONE', #242, 23.50000000000000000 ) ;
#423 = FACE_BOUND ( 'NONE', #370, .T. ) ;
#424 = FACE_OUTER_BOUND ( 'NONE', #109, .T. ) ;
#425 = DIRECTION ( 'NONE',  ( 0.000000000000000000, 0.000000000000000000, 1.000000000000000000 ) ) ;
#426 = EDGE_CURVE ( 'NONE', #93, #389, #6, .T. ) ;
#427 = CARTESIAN_POINT ( 'NONE',  ( 1.249999999999995559, 23.50000000000000000, 0.000000000000000000 ) ) ;
#428 = CIRCLE ( 'NONE', #371, 23.50000000000000000 ) ;
#429 = CARTESIAN_POINT ( 'NONE',  ( -11.25000000000000355, 0.000000000000000000, 0.000000000000000000 ) ) ;
ENDSEC;
END-ISO-10303-21;
