ISO-10303-21;
HEADER;
FILE_DESCRIPTION (( 'STEP AP203' ),
    '1' );
FILE_NAME ('19-0402-54_outokumpu.step',
    '2015-08-11T09:25:17',
    ( '' ),
    ( '' ),
    'SwSTEP 2.0',
    'SolidWorks 2008',
    '' );
FILE_SCHEMA (( 'CONFIG_CONTROL_DESIGN' ));
ENDSEC;

DATA;
#1 = DESIGN_CONTEXT ( 'detailed design', #12, 'design' ) ;
#2 = PERSON_AND_ORGANIZATION ( #256, #19 ) ;
#3 = APPROVAL_STATUS ( 'not_yet_approved' ) ;
#4 = PERSON_AND_ORGANIZATION ( #256, #19 ) ;
#5 = DATE_AND_TIME ( #6, #7 ) ;
#6 = CALENDAR_DATE ( 2015, 11, 8 ) ;
#7 = LOCAL_TIME ( 11, 25, 17.00000000000000000, #8 ) ;
#8 = COORDINATED_UNIVERSAL_TIME_OFFSET ( 1, 0, .AHEAD. ) ;
#9 = APPROVAL_PERSON_ORGANIZATION ( #4, #16, #15 ) ;
#10 = PERSON_AND_ORGANIZATION ( #256, #19 ) ;
#11 = CC_DESIGN_APPROVAL ( #16, ( #18 ) ) ;
#12 = APPLICATION_CONTEXT ( 'configuration controlled 3d designs of mechanical parts and assemblies' ) ;
#13 = APPLICATION_PROTOCOL_DEFINITION ( 'international standard', 'config_control_design', 1994, #12 ) ;
#14 = APPROVAL_DATE_TIME ( #5, #16 ) ;
#15 = APPROVAL_ROLE ( '' ) ;
#16 = APPROVAL ( #3, 'UNSPECIFIED' ) ;
#17 = CC_DESIGN_PERSON_AND_ORGANIZATION_ASSIGNMENT ( #2, #20, ( #257 ) ) ;
#18 = PRODUCT_DEFINITION ( 'UNKNOWN', '', #24, #1 ) ;
#19 = ORGANIZATION ( 'UNSPECIFIED', 'UNSPECIFIED', '' ) ;
#20 = PERSON_AND_ORGANIZATION_ROLE ( 'design_owner' ) ;
#21 = CC_DESIGN_PERSON_AND_ORGANIZATION_ASSIGNMENT ( #10, #22, ( #18 ) ) ;
#22 = PERSON_AND_ORGANIZATION_ROLE ( 'creator' ) ;
#23 = COORDINATED_UNIVERSAL_TIME_OFFSET ( 1, 0, .AHEAD. ) ;
#24 = PRODUCT_DEFINITION_FORMATION_WITH_SPECIFIED_SOURCE ( 'ANY', '', #257, .NOT_KNOWN. ) ;
#25 = CC_DESIGN_DATE_AND_TIME_ASSIGNMENT ( #28, #26, ( #18 ) ) ;
#26 = DATE_TIME_ROLE ( 'creation_date' ) ;
#27 = LOCAL_TIME ( 11, 25, 17.00000000000000000, #23 ) ;
#28 = DATE_AND_TIME ( #29, #27 ) ;
#29 = CALENDAR_DATE ( 2015, 11, 8 ) ;
#30 = APPROVAL_STATUS ( 'not_yet_approved' ) ;
#31 = PERSON_AND_ORGANIZATION ( #256, #19 ) ;
#32 = CALENDAR_DATE ( 2015, 11, 8 ) ;
#33 = LOCAL_TIME ( 11, 25, 17.00000000000000000, #39 ) ;
#34 = APPROVAL_DATE_TIME ( #69, #38 ) ;
#35 = PERSON_AND_ORGANIZATION_ROLE ( 'design_supplier' ) ;
#36 = PERSON_AND_ORGANIZATION ( #256, #19 ) ;
#37 = CC_DESIGN_PERSON_AND_ORGANIZATION_ASSIGNMENT ( #68, #62, ( #24 ) ) ;
#38 = APPROVAL ( #30, 'UNSPECIFIED' ) ;
#39 = COORDINATED_UNIVERSAL_TIME_OFFSET ( 1, 0, .AHEAD. ) ;
#40 = CC_DESIGN_APPROVAL ( #38, ( #24 ) ) ;
#41 = CC_DESIGN_DATE_AND_TIME_ASSIGNMENT ( #63, #42, ( #47 ) ) ;
#42 = DATE_TIME_ROLE ( 'classification_date' ) ;
#43 = COORDINATED_UNIVERSAL_TIME_OFFSET ( 1, 0, .AHEAD. ) ;
#44 = CC_DESIGN_PERSON_AND_ORGANIZATION_ASSIGNMENT ( #46, #45, ( #47 ) ) ;
#45 = PERSON_AND_ORGANIZATION_ROLE ( 'classification_officer' ) ;
#46 = PERSON_AND_ORGANIZATION ( #256, #19 ) ;
#47 = SECURITY_CLASSIFICATION ( '', '', #60 ) ;
#48 = CC_DESIGN_SECURITY_CLASSIFICATION ( #47, ( #24 ) ) ;
#49 = CC_DESIGN_APPROVAL ( #57, ( #47 ) ) ;
#50 = APPROVAL_DATE_TIME ( #51, #57 ) ;
#51 = DATE_AND_TIME ( #52, #53 ) ;
#52 = CALENDAR_DATE ( 2015, 11, 8 ) ;
#53 = LOCAL_TIME ( 11, 25, 17.00000000000000000, #54 ) ;
#54 = COORDINATED_UNIVERSAL_TIME_OFFSET ( 1, 0, .AHEAD. ) ;
#55 = APPROVAL_PERSON_ORGANIZATION ( #59, #57, #56 ) ;
#56 = APPROVAL_ROLE ( '' ) ;
#57 = APPROVAL ( #58, 'UNSPECIFIED' ) ;
#58 = APPROVAL_STATUS ( 'not_yet_approved' ) ;
#59 = PERSON_AND_ORGANIZATION ( #256, #19 ) ;
#60 = SECURITY_CLASSIFICATION_LEVEL ( 'unclassified' ) ;
#61 = CC_DESIGN_PERSON_AND_ORGANIZATION_ASSIGNMENT ( #36, #35, ( #24 ) ) ;
#62 = PERSON_AND_ORGANIZATION_ROLE ( 'creator' ) ;
#63 = DATE_AND_TIME ( #64, #65 ) ;
#64 = CALENDAR_DATE ( 2015, 11, 8 ) ;
#65 = LOCAL_TIME ( 11, 25, 17.00000000000000000, #43 ) ;
#66 = APPROVAL_PERSON_ORGANIZATION ( #31, #38, #67 ) ;
#67 = APPROVAL_ROLE ( '' ) ;
#68 = PERSON_AND_ORGANIZATION ( #256, #19 ) ;
#69 = DATE_AND_TIME ( #32, #33 ) ;
#70 = PRODUCT_DEFINITION_SHAPE ( 'NONE', 'NONE',  #18 ) ;
#71 = SHAPE_DEFINITION_REPRESENTATION ( #70, #316 ) ;
#72 = PRODUCT_RELATED_PRODUCT_CATEGORY ( 'detail', '', ( #257 ) ) ;
#73 = EDGE_CURVE ( 'NONE', #144, #145, #180, .T. ) ;
#74 = ORIENTED_EDGE ( 'NONE', *, *, #73, .F. ) ;
#75 = EDGE_LOOP ( 'NONE', ( #77, #136, #139, #142 ) ) ;
#76 = VERTEX_POINT ( 'NONE', #181 ) ;
#77 = ORIENTED_EDGE ( 'NONE', *, *, #78, .T. ) ;
#78 = EDGE_CURVE ( 'NONE', #76, #79, #188, .T. ) ;
#79 = VERTEX_POINT ( 'NONE', #192 ) ;
#80 = ADVANCED_FACE ( 'NONE', ( #191 ), #190, .T. ) ;
#81 = ORIENTED_EDGE ( 'NONE', *, *, #86, .F. ) ;
#82 = EDGE_CURVE ( 'NONE', #83, #87, #249, .T. ) ;
#83 = VERTEX_POINT ( 'NONE', #297 ) ;
#84 = ORIENTED_EDGE ( 'NONE', *, *, #82, .F. ) ;
#85 = ORIENTED_EDGE ( 'NONE', *, *, #88, .T. ) ;
#86 = EDGE_CURVE ( 'NONE', #145, #83, #313, .T. ) ;
#87 = VERTEX_POINT ( 'NONE', #298 ) ;
#88 = EDGE_CURVE ( 'NONE', #147, #87, #334, .T. ) ;
#89 = EDGE_LOOP ( 'NONE', ( #99, #100 ) ) ;
#90 = ADVANCED_FACE ( 'NONE', ( #204, #203 ), #356, .F. ) ;
#91 = EDGE_CURVE ( 'NONE', #144, #147, #253, .T. ) ;
#92 = EDGE_LOOP ( 'NONE', ( #74, #146, #85, #84, #81 ) ) ;
#93 = EDGE_CURVE ( 'NONE', #158, #153, #246, .T. ) ;
#94 = EDGE_LOOP ( 'NONE', ( #97, #96 ) ) ;
#95 = EDGE_LOOP ( 'NONE', ( #200, #101 ) ) ;
#96 = ORIENTED_EDGE ( 'NONE', *, *, #172, .T. ) ;
#97 = ORIENTED_EDGE ( 'NONE', *, *, #140, .T. ) ;
#98 = EDGE_CURVE ( 'NONE', #79, #76, #332, .T. ) ;
#99 = ORIENTED_EDGE ( 'NONE', *, *, #156, .T. ) ;
#100 = ORIENTED_EDGE ( 'NONE', *, *, #93, .T. ) ;
#101 = ORIENTED_EDGE ( 'NONE', *, *, #98, .F. ) ;
#102 = ADVANCED_FACE ( 'NONE', ( #328 ), #327, .T. ) ;
#103 = EDGE_LOOP ( 'NONE', ( #199, #165, #194, #171 ) ) ;
#104 = ORIENTED_EDGE ( 'NONE', *, *, #88, .F. ) ;
#105 = ORIENTED_EDGE ( 'NONE', *, *, #106, .F. ) ;
#106 = EDGE_CURVE ( 'NONE', #87, #147, #337, .T. ) ;
#107 = EDGE_LOOP ( 'NONE', ( #105, #104 ) ) ;
#108 = ADVANCED_FACE ( 'NONE', ( #352 ), #351, .F. ) ;
#109 = ORIENTED_EDGE ( 'NONE', *, *, #116, .T. ) ;
#110 = ORIENTED_EDGE ( 'NONE', *, *, #111, .F. ) ;
#111 = EDGE_CURVE ( 'NONE', #160, #114, #346, .T. ) ;
#112 = ORIENTED_EDGE ( 'NONE', *, *, #113, .F. ) ;
#113 = EDGE_CURVE ( 'NONE', #114, #148, #310, .T. ) ;
#114 = VERTEX_POINT ( 'NONE', #305 ) ;
#115 = ORIENTED_EDGE ( 'NONE', *, *, #116, .F. ) ;
#116 = EDGE_CURVE ( 'NONE', #127, #114, #304, .T. ) ;
#117 = ADVANCED_FACE ( 'NONE', ( #224 ), #223, .F. ) ;
#118 = EDGE_LOOP ( 'NONE', ( #119, #120, #121, #109, #110, #182 ) ) ;
#119 = ORIENTED_EDGE ( 'NONE', *, *, #130, .F. ) ;
#120 = ORIENTED_EDGE ( 'NONE', *, *, #86, .T. ) ;
#121 = ORIENTED_EDGE ( 'NONE', *, *, #122, .T. ) ;
#122 = EDGE_CURVE ( 'NONE', #83, #127, #222, .T. ) ;
#123 = ADVANCED_FACE ( 'NONE', ( #213 ), #212, .F. ) ;
#124 = EDGE_LOOP ( 'NONE', ( #125, #128, #129, #135, #112, #115 ) ) ;
#125 = ORIENTED_EDGE ( 'NONE', *, *, #126, .T. ) ;
#126 = EDGE_CURVE ( 'NONE', #127, #144, #292, .T. ) ;
#127 = VERTEX_POINT ( 'NONE', #287 ) ;
#128 = ORIENTED_EDGE ( 'NONE', *, *, #73, .T. ) ;
#129 = ORIENTED_EDGE ( 'NONE', *, *, #130, .T. ) ;
#130 = EDGE_CURVE ( 'NONE', #145, #161, #286, .T. ) ;
#131 = EDGE_CURVE ( 'NONE', #161, #160, #282, .T. ) ;
#132 = EDGE_LOOP ( 'NONE', ( #159, #154, #152, #157, #150 ) ) ;
#133 = ADVANCED_FACE ( 'NONE', ( #277 ), #276, .F. ) ;
#134 = MANIFOLD_SOLID_BREP ( 'NONE', #167 ) ;
#135 = ORIENTED_EDGE ( 'NONE', *, *, #149, .F. ) ;
#136 = ORIENTED_EDGE ( 'NONE', *, *, #137, .T. ) ;
#137 = EDGE_CURVE ( 'NONE', #79, #138, #271, .T. ) ;
#138 = VERTEX_POINT ( 'NONE', #267 ) ;
#139 = ORIENTED_EDGE ( 'NONE', *, *, #140, .F. ) ;
#140 = EDGE_CURVE ( 'NONE', #141, #138, #266, .T. ) ;
#141 = VERTEX_POINT ( 'NONE', #261 ) ;
#142 = ORIENTED_EDGE ( 'NONE', *, *, #143, .F. ) ;
#143 = EDGE_CURVE ( 'NONE', #76, #141, #389, .T. ) ;
#144 = VERTEX_POINT ( 'NONE', #385 ) ;
#145 = VERTEX_POINT ( 'NONE', #384 ) ;
#146 = ORIENTED_EDGE ( 'NONE', *, *, #91, .T. ) ;
#147 = VERTEX_POINT ( 'NONE', #383 ) ;
#148 = VERTEX_POINT ( 'NONE', #382 ) ;
#149 = EDGE_CURVE ( 'NONE', #148, #161, #381, .T. ) ;
#150 = ORIENTED_EDGE ( 'NONE', *, *, #149, .T. ) ;
#151 = EDGE_CURVE ( 'NONE', #148, #153, #376, .T. ) ;
#152 = ORIENTED_EDGE ( 'NONE', *, *, #156, .F. ) ;
#153 = VERTEX_POINT ( 'NONE', #372 ) ;
#154 = ORIENTED_EDGE ( 'NONE', *, *, #155, .T. ) ;
#155 = EDGE_CURVE ( 'NONE', #160, #158, #371, .T. ) ;
#156 = EDGE_CURVE ( 'NONE', #153, #158, #367, .T. ) ;
#157 = ORIENTED_EDGE ( 'NONE', *, *, #151, .F. ) ;
#158 = VERTEX_POINT ( 'NONE', #362 ) ;
#159 = ORIENTED_EDGE ( 'NONE', *, *, #131, .T. ) ;
#160 = VERTEX_POINT ( 'NONE', #361 ) ;
#161 = VERTEX_POINT ( 'NONE', #360 ) ;
#162 = ORIENTED_EDGE ( 'NONE', *, *, #126, .F. ) ;
#163 = ADVANCED_FACE ( 'NONE', ( #359 ), #358, .F. ) ;
#164 = AXIS2_PLACEMENT_3D ( 'NONE', #170, #169, #168 ) ;
#165 = ORIENTED_EDGE ( 'NONE', *, *, #98, .T. ) ;
#166 = ORIENTED_EDGE ( 'NONE', *, *, #93, .F. ) ;
#167 = CLOSED_SHELL ( 'NONE', ( #133, #108, #80, #123, #117, #176, #90, #102, #175, #163 ) ) ;
#168 = DIRECTION ( 'NONE',  ( 1.000000000000000000, 0.0000000000000000000, 0.0000000000000000000 ) ) ;
#169 = DIRECTION ( 'NONE',  ( -0.0000000000000000000, -0.0000000000000000000, 1.000000000000000000 ) ) ;
#170 = CARTESIAN_POINT ( 'NONE',  ( 0.0000000000000000000, 0.0000000000000000000, -4.336808689942017700E-016 ) ) ;
#171 = ORIENTED_EDGE ( 'NONE', *, *, #172, .F. ) ;
#172 = EDGE_CURVE ( 'NONE', #138, #141, #237, .T. ) ;
#173 = EDGE_LOOP ( 'NONE', ( #177, #162, #174, #178, #189 ) ) ;
#174 = ORIENTED_EDGE ( 'NONE', *, *, #122, .F. ) ;
#175 = ADVANCED_FACE ( 'NONE', ( #232 ), #231, .F. ) ;
#176 = ADVANCED_FACE ( 'NONE', ( #230, #229 ), #326, .F. ) ;
#177 = ORIENTED_EDGE ( 'NONE', *, *, #91, .F. ) ;
#178 = ORIENTED_EDGE ( 'NONE', *, *, #82, .T. ) ;
#179 = CARTESIAN_POINT ( 'NONE',  ( 0.0000000000000000000, 0.0000000000000000000, -0.3658823623497114400 ) ) ;
#180 = CIRCLE ( 'NONE', #197, 10.47749999999999700 ) ;
#181 = CARTESIAN_POINT ( 'NONE',  ( 13.14999999999999900, 0.0000000000000000000, -60.00000000000000000 ) ) ;
#182 = ORIENTED_EDGE ( 'NONE', *, *, #131, .F. ) ;
#183 = ORIENTED_EDGE ( 'NONE', *, *, #113, .T. ) ;
#184 = ORIENTED_EDGE ( 'NONE', *, *, #151, .T. ) ;
#185 = DIRECTION ( 'NONE',  ( -0.0000000000000000000, -0.0000000000000000000, 1.000000000000000000 ) ) ;
#186 = CARTESIAN_POINT ( 'NONE',  ( 0.0000000000000000000, 0.0000000000000000000, -60.00000000000000000 ) ) ;
#187 = AXIS2_PLACEMENT_3D ( 'NONE', #186, #185, #193 ) ;
#188 = CIRCLE ( 'NONE', #187, 13.14999999999999900 ) ;
#189 = ORIENTED_EDGE ( 'NONE', *, *, #106, .T. ) ;
#190 = CYLINDRICAL_SURFACE ( 'NONE', #164, 13.14999999999999900 ) ;
#191 = FACE_OUTER_BOUND ( 'NONE', #75, .T. ) ;
#192 = CARTESIAN_POINT ( 'NONE',  ( -13.14999999999999900, 1.610357355276426000E-015, -60.00000000000000000 ) ) ;
#193 = DIRECTION ( 'NONE',  ( 1.000000000000000000, 0.0000000000000000000, 0.0000000000000000000 ) ) ;
#194 = ORIENTED_EDGE ( 'NONE', *, *, #143, .T. ) ;
#195 = DIRECTION ( 'NONE',  ( 1.000000000000000000, 0.0000000000000000000, 0.0000000000000000000 ) ) ;
#196 = DIRECTION ( 'NONE',  ( -0.0000000000000000000, -0.0000000000000000000, 1.000000000000000000 ) ) ;
#197 = AXIS2_PLACEMENT_3D ( 'NONE', #179, #196, #195 ) ;
#198 = EDGE_LOOP ( 'NONE', ( #201, #202, #183, #184, #166 ) ) ;
#199 = ORIENTED_EDGE ( 'NONE', *, *, #137, .F. ) ;
#200 = ORIENTED_EDGE ( 'NONE', *, *, #78, .F. ) ;
#201 = ORIENTED_EDGE ( 'NONE', *, *, #155, .F. ) ;
#202 = ORIENTED_EDGE ( 'NONE', *, *, #111, .T. ) ;
#203 = FACE_BOUND ( 'NONE', #107, .T. ) ;
#204 = FACE_OUTER_BOUND ( 'NONE', #94, .T. ) ;
#205 = DIRECTION ( 'NONE',  ( 1.000000000000000000, 0.0000000000000000000, 0.0000000000000000000 ) ) ;
#206 = DIRECTION ( 'NONE',  ( -0.0000000000000000000, -0.0000000000000000000, 1.000000000000000000 ) ) ;
#207 = AXIS2_PLACEMENT_3D ( 'NONE', #333, #206, #205 ) ;
#208 = DIRECTION ( 'NONE',  ( 0.0000000000000000000, 1.000000000000000000, 0.0000000000000000000 ) ) ;
#209 = DIRECTION ( 'NONE',  ( -0.0000000000000000000, 1.108921438289453800E-016, -1.000000000000000000 ) ) ;
#210 = CARTESIAN_POINT ( 'NONE',  ( 0.0000000000000000000, 3.184081677783111500E-015, -60.00000000000004300 ) ) ;
#211 = AXIS2_PLACEMENT_3D ( 'NONE', #210, #209, #208 ) ;
#212 = CYLINDRICAL_SURFACE ( 'NONE', #211, 10.47750000000000400 ) ;
#213 = FACE_OUTER_BOUND ( 'NONE', #124, .T. ) ;
#214 = DIRECTION ( 'NONE',  ( 1.000000000000000000, 0.0000000000000000000, 0.0000000000000000000 ) ) ;
#215 = DIRECTION ( 'NONE',  ( -0.0000000000000000000, -0.0000000000000000000, 1.000000000000000000 ) ) ;
#216 = CARTESIAN_POINT ( 'NONE',  ( 0.0000000000000000000, 0.0000000000000000000, -0.3658823623497114400 ) ) ;
#217 = AXIS2_PLACEMENT_3D ( 'NONE', #216, #215, #214 ) ;
#218 = DIRECTION ( 'NONE',  ( 0.0000000000000000000, 1.000000000000000000, 0.0000000000000000000 ) ) ;
#219 = DIRECTION ( 'NONE',  ( -0.0000000000000000000, 1.108921438289453800E-016, -1.000000000000000000 ) ) ;
#220 = CARTESIAN_POINT ( 'NONE',  ( 0.0000000000000000000, 3.184081677783111500E-015, -60.00000000000004300 ) ) ;
#221 = AXIS2_PLACEMENT_3D ( 'NONE', #220, #219, #218 ) ;
#222 = CIRCLE ( 'NONE', #217, 10.47749999999999700 ) ;
#223 = CYLINDRICAL_SURFACE ( 'NONE', #221, 10.47750000000000400 ) ;
#224 = FACE_OUTER_BOUND ( 'NONE', #118, .T. ) ;
#225 = DIRECTION ( 'NONE',  ( 1.000000000000000000, 0.0000000000000000000, 0.0000000000000000000 ) ) ;
#226 = DIRECTION ( 'NONE',  ( -0.0000000000000000000, -0.0000000000000000000, 1.000000000000000000 ) ) ;
#227 = CARTESIAN_POINT ( 'NONE',  ( 0.0000000000000000000, 0.0000000000000000000, -0.3658823623497114400 ) ) ;
#228 = AXIS2_PLACEMENT_3D ( 'NONE', #227, #226, #225 ) ;
#229 = FACE_BOUND ( 'NONE', #89, .T. ) ;
#230 = FACE_OUTER_BOUND ( 'NONE', #95, .T. ) ;
#231 = CONICAL_SURFACE ( 'NONE', #228, 10.47749999999999700, 0.7853981633974545000 ) ;
#232 = FACE_OUTER_BOUND ( 'NONE', #173, .T. ) ;
#233 = DIRECTION ( 'NONE',  ( 1.000000000000000000, 0.0000000000000000000, 0.0000000000000000000 ) ) ;
#234 = DIRECTION ( 'NONE',  ( -0.0000000000000000000, -0.0000000000000000000, 1.000000000000000000 ) ) ;
#235 = CARTESIAN_POINT ( 'NONE',  ( 0.0000000000000000000, 0.0000000000000000000, 0.0000000000000000000 ) ) ;
#236 = AXIS2_PLACEMENT_3D ( 'NONE', #235, #234, #233 ) ;
#237 = CIRCLE ( 'NONE', #236, 13.15000000000000000 ) ;
#238 = DIRECTION ( 'NONE',  ( -1.000000000000000000, 0.0000000000000000000, 0.0000000000000000000 ) ) ;
#239 = DIRECTION ( 'NONE',  ( 0.0000000000000000000, 0.0000000000000000000, -1.000000000000000000 ) ) ;
#240 = CARTESIAN_POINT ( 'NONE',  ( 0.0000000000000000000, 0.0000000000000000000, -60.00000000000000000 ) ) ;
#241 = AXIS2_PLACEMENT_3D ( 'NONE', #240, #239, #238 ) ;
#242 = DIRECTION ( 'NONE',  ( 1.000000000000000000, 0.0000000000000000000, 0.0000000000000000000 ) ) ;
#243 = DIRECTION ( 'NONE',  ( -0.0000000000000000000, -0.0000000000000000000, 1.000000000000000000 ) ) ;
#244 = CARTESIAN_POINT ( 'NONE',  ( 0.0000000000000000000, 0.0000000000000000000, -60.00000000000000000 ) ) ;
#245 = AXIS2_PLACEMENT_3D ( 'NONE', #244, #243, #242 ) ;
#246 = CIRCLE ( 'NONE', #245, 10.84338236234979500 ) ;
#247 = CARTESIAN_POINT ( 'NONE',  ( 0.0000000000000000000, 0.0000000000000000000, -60.00000000000000000 ) ) ;
#248 = CARTESIAN_POINT ( 'NONE',  ( 10.47749999999999700, 0.0000000000000000000, -0.3658823623497114400 ) ) ;
#249 = LINE ( 'NONE', #248, #315 ) ;
#250 = DIRECTION ( 'NONE',  ( -0.7071067811865519000, 8.659274570719408400E-017, 0.7071067811865431300 ) ) ;
#251 = VECTOR ( 'NONE', #250, 1000.000000000000000 ) ;
#252 = CARTESIAN_POINT ( 'NONE',  ( -10.47749999999999700, 1.283081307217395400E-015, -0.3658823623497114400 ) ) ;
#253 = LINE ( 'NONE', #252, #251 ) ;
#254 = DIRECTION ( 'NONE',  ( -1.000000000000000000, 0.0000000000000000000, -0.0000000000000000000 ) ) ;
#255 = DIRECTION ( 'NONE',  ( 0.0000000000000000000, 0.0000000000000000000, -1.000000000000000000 ) ) ;
#256 = PERSON ( 'UNSPECIFIED', 'UNSPECIFIED', 'UNSPECIFIED', ('UNSPECIFIED'), ('UNSPECIFIED'), ('UNSPECIFIED') ) ;
#257 = PRODUCT ( '19-0402-54_outokumpu', '19-0402-54_outokumpu', '', ( #258 ) ) ;
#258 = MECHANICAL_CONTEXT ( 'NONE', #260, 'mechanical' ) ;
#259 = APPLICATION_PROTOCOL_DEFINITION ( 'international standard', 'config_control_design', 1994, #260 ) ;
#260 = APPLICATION_CONTEXT ( 'configuration controlled 3d designs of mechanical parts and assemblies' ) ;
#261 = CARTESIAN_POINT ( 'NONE',  ( 13.15000000000000000, 0.0000000000000000000, 0.0000000000000000000 ) ) ;
#262 = DIRECTION ( 'NONE',  ( 1.000000000000000000, 0.0000000000000000000, 0.0000000000000000000 ) ) ;
#263 = DIRECTION ( 'NONE',  ( -0.0000000000000000000, -0.0000000000000000000, 1.000000000000000000 ) ) ;
#264 = CARTESIAN_POINT ( 'NONE',  ( 0.0000000000000000000, 0.0000000000000000000, 0.0000000000000000000 ) ) ;
#265 = AXIS2_PLACEMENT_3D ( 'NONE', #264, #263, #262 ) ;
#266 = CIRCLE ( 'NONE', #265, 13.15000000000000000 ) ;
#267 = CARTESIAN_POINT ( 'NONE',  ( -13.15000000000000200, 1.610357355276426400E-015, 0.0000000000000000000 ) ) ;
#268 = DIRECTION ( 'NONE',  ( -0.0000000000000000000, -0.0000000000000000000, 1.000000000000000000 ) ) ;
#269 = VECTOR ( 'NONE', #268, 1000.000000000000000 ) ;
#270 = CARTESIAN_POINT ( 'NONE',  ( -13.14999999999999900, 1.610357355276426000E-015, -4.336808689942017700E-016 ) ) ;
#271 = LINE ( 'NONE', #270, #269 ) ;
#272 = DIRECTION ( 'NONE',  ( -1.000000000000000000, 0.0000000000000000000, 0.0000000000000000000 ) ) ;
#273 = DIRECTION ( 'NONE',  ( 0.0000000000000000000, 0.0000000000000000000, -1.000000000000000000 ) ) ;
#274 = CARTESIAN_POINT ( 'NONE',  ( 0.0000000000000000000, 0.0000000000000000000, -60.00000000000000000 ) ) ;
#275 = AXIS2_PLACEMENT_3D ( 'NONE', #274, #273, #272 ) ;
#276 = CONICAL_SURFACE ( 'NONE', #275, 10.84338236234979500, 0.7853981633974530500 ) ;
#277 = FACE_OUTER_BOUND ( 'NONE', #132, .T. ) ;
#278 = DIRECTION ( 'NONE',  ( 1.000000000000000000, 0.0000000000000000000, 0.0000000000000000000 ) ) ;
#279 = DIRECTION ( 'NONE',  ( -0.0000000000000000000, -0.0000000000000000000, 1.000000000000000000 ) ) ;
#280 = CARTESIAN_POINT ( 'NONE',  ( 0.0000000000000000000, 0.0000000000000000000, -59.63411763765020600 ) ) ;
#281 = AXIS2_PLACEMENT_3D ( 'NONE', #280, #279, #278 ) ;
#282 = CIRCLE ( 'NONE', #281, 10.47749999999999700 ) ;
#283 = DIRECTION ( 'NONE',  ( -0.0000000000000000000, 1.108921438289453800E-016, -1.000000000000000000 ) ) ;
#284 = VECTOR ( 'NONE', #283, 1000.000000000000000 ) ;
#285 = CARTESIAN_POINT ( 'NONE',  ( 1.283081307217396400E-015, -10.47750000000000100, -60.00000000000004300 ) ) ;
#286 = LINE ( 'NONE', #285, #284 ) ;
#287 = CARTESIAN_POINT ( 'NONE',  ( 0.0000000000000000000, 10.47749999999999700, -0.3658823623497114400 ) ) ;
#288 = DIRECTION ( 'NONE',  ( 1.000000000000000000, 0.0000000000000000000, 0.0000000000000000000 ) ) ;
#289 = DIRECTION ( 'NONE',  ( -0.0000000000000000000, -0.0000000000000000000, 1.000000000000000000 ) ) ;
#290 = CARTESIAN_POINT ( 'NONE',  ( 0.0000000000000000000, 0.0000000000000000000, -0.3658823623497114400 ) ) ;
#291 = AXIS2_PLACEMENT_3D ( 'NONE', #290, #289, #288 ) ;
#292 = CIRCLE ( 'NONE', #291, 10.47749999999999700 ) ;
#293 = CARTESIAN_POINT ( 'NONE',  ( 0.0000000000000000000, 0.0000000000000000000, 0.0000000000000000000 ) ) ;
#294 = AXIS2_PLACEMENT_3D ( 'NONE', #293, #296, #295 ) ;
#295 = DIRECTION ( 'NONE',  ( 1.000000000000000000, 0.0000000000000000000, 0.0000000000000000000 ) ) ;
#296 = DIRECTION ( 'NONE',  ( 0.0000000000000000000, 0.0000000000000000000, 1.000000000000000000 ) ) ;
#297 = CARTESIAN_POINT ( 'NONE',  ( 10.47749999999999700, 0.0000000000000000000, -0.3658823623497114400 ) ) ;
#298 = CARTESIAN_POINT ( 'NONE',  ( 10.84338236234971300, 0.0000000000000000000, -5.454052677674197400E-017 ) ) ;
#299 = DIRECTION ( 'NONE',  ( 1.000000000000000000, 0.0000000000000000000, 0.0000000000000000000 ) ) ;
#300 = DIRECTION ( 'NONE',  ( -0.0000000000000000000, -0.0000000000000000000, 1.000000000000000000 ) ) ;
#301 = DIRECTION ( 'NONE',  ( -0.0000000000000000000, 1.108921438289453800E-016, -1.000000000000000000 ) ) ;
#302 = VECTOR ( 'NONE', #301, 1000.000000000000000 ) ;
#303 = CARTESIAN_POINT ( 'NONE',  ( 0.0000000000000000000, 10.47750000000000800, -60.00000000000004300 ) ) ;
#304 = LINE ( 'NONE', #303, #302 ) ;
#305 = CARTESIAN_POINT ( 'NONE',  ( 0.0000000000000000000, 10.47749999999999700, -59.63411763765020600 ) ) ;
#306 = DIRECTION ( 'NONE',  ( 1.000000000000000000, 0.0000000000000000000, 0.0000000000000000000 ) ) ;
#307 = DIRECTION ( 'NONE',  ( -0.0000000000000000000, -0.0000000000000000000, 1.000000000000000000 ) ) ;
#308 = CARTESIAN_POINT ( 'NONE',  ( 0.0000000000000000000, 0.0000000000000000000, -59.63411763765020600 ) ) ;
#309 = AXIS2_PLACEMENT_3D ( 'NONE', #308, #307, #306 ) ;
#310 = CIRCLE ( 'NONE', #309, 10.47749999999999700 ) ;
#311 = CARTESIAN_POINT ( 'NONE',  ( 0.0000000000000000000, 0.0000000000000000000, -0.3658823623497114400 ) ) ;
#312 = AXIS2_PLACEMENT_3D ( 'NONE', #311, #300, #299 ) ;
#313 = CIRCLE ( 'NONE', #312, 10.47749999999999700 ) ;
#314 = DIRECTION ( 'NONE',  ( 0.7071067811865519000, 0.0000000000000000000, 0.7071067811865431300 ) ) ;
#315 = VECTOR ( 'NONE', #314, 1000.000000000000000 ) ;
#316 = ADVANCED_BREP_SHAPE_REPRESENTATION ( '19-0402-54_outokumpu', ( #134, #294 ), #317 ) ;
#317 =( GEOMETRIC_REPRESENTATION_CONTEXT ( 3 ) GLOBAL_UNCERTAINTY_ASSIGNED_CONTEXT ( ( #318 ) ) GLOBAL_UNIT_ASSIGNED_CONTEXT ( ( #321, #320, #319 ) ) REPRESENTATION_CONTEXT ( 'NONE', 'WORKASPACE' ) );
#318 = UNCERTAINTY_MEASURE_WITH_UNIT (LENGTH_MEASURE( 1.000000000000000100E-005 ), #321, 'distance_accuracy_value', 'NONE');
#319 =( NAMED_UNIT ( * ) SI_UNIT ( $, .STERADIAN. ) SOLID_ANGLE_UNIT ( ) );
#320 =( NAMED_UNIT ( * ) PLANE_ANGLE_UNIT ( ) SI_UNIT ( $, .RADIAN. ) );
#321 =( LENGTH_UNIT ( ) NAMED_UNIT ( * ) SI_UNIT ( .MILLI., .METRE. ) );
#322 = DIRECTION ( 'NONE',  ( 1.000000000000000000, 0.0000000000000000000, 0.0000000000000000000 ) ) ;
#323 = DIRECTION ( 'NONE',  ( 0.0000000000000000000, -0.0000000000000000000, 1.000000000000000000 ) ) ;
#324 = CARTESIAN_POINT ( 'NONE',  ( 0.0000000000000000000, 13.14999999999999900, -60.00000000000000000 ) ) ;
#325 = AXIS2_PLACEMENT_3D ( 'NONE', #324, #323, #322 ) ;
#326 = PLANE ( 'NONE',  #325 ) ;
#327 = CYLINDRICAL_SURFACE ( 'NONE', #341, 13.14999999999999900 ) ;
#328 = FACE_OUTER_BOUND ( 'NONE', #103, .T. ) ;
#329 = DIRECTION ( 'NONE',  ( 1.000000000000000000, 0.0000000000000000000, 0.0000000000000000000 ) ) ;
#330 = DIRECTION ( 'NONE',  ( -0.0000000000000000000, -0.0000000000000000000, 1.000000000000000000 ) ) ;
#331 = AXIS2_PLACEMENT_3D ( 'NONE', #247, #330, #329 ) ;
#332 = CIRCLE ( 'NONE', #331, 13.14999999999999900 ) ;
#333 = CARTESIAN_POINT ( 'NONE',  ( 0.0000000000000000000, 0.0000000000000000000, -5.454052677674197400E-017 ) ) ;
#334 = CIRCLE ( 'NONE', #207, 10.84338236234971300 ) ;
#335 = CARTESIAN_POINT ( 'NONE',  ( 0.0000000000000000000, 0.0000000000000000000, -5.454052677674197400E-017 ) ) ;
#336 = AXIS2_PLACEMENT_3D ( 'NONE', #335, #354, #353 ) ;
#337 = CIRCLE ( 'NONE', #336, 10.84338236234971300 ) ;
#338 = DIRECTION ( 'NONE',  ( 1.000000000000000000, 0.0000000000000000000, 0.0000000000000000000 ) ) ;
#339 = DIRECTION ( 'NONE',  ( -0.0000000000000000000, -0.0000000000000000000, 1.000000000000000000 ) ) ;
#340 = CARTESIAN_POINT ( 'NONE',  ( 0.0000000000000000000, 0.0000000000000000000, -4.336808689942017700E-016 ) ) ;
#341 = AXIS2_PLACEMENT_3D ( 'NONE', #340, #339, #338 ) ;
#342 = DIRECTION ( 'NONE',  ( 1.000000000000000000, 0.0000000000000000000, 0.0000000000000000000 ) ) ;
#343 = DIRECTION ( 'NONE',  ( -0.0000000000000000000, -0.0000000000000000000, 1.000000000000000000 ) ) ;
#344 = CARTESIAN_POINT ( 'NONE',  ( 0.0000000000000000000, 0.0000000000000000000, -59.63411763765020600 ) ) ;
#345 = AXIS2_PLACEMENT_3D ( 'NONE', #344, #343, #342 ) ;
#346 = CIRCLE ( 'NONE', #345, 10.47749999999999700 ) ;
#347 = DIRECTION ( 'NONE',  ( 1.000000000000000000, 0.0000000000000000000, 0.0000000000000000000 ) ) ;
#348 = DIRECTION ( 'NONE',  ( -0.0000000000000000000, -0.0000000000000000000, 1.000000000000000000 ) ) ;
#349 = CARTESIAN_POINT ( 'NONE',  ( 0.0000000000000000000, 0.0000000000000000000, -0.3658823623497114400 ) ) ;
#350 = AXIS2_PLACEMENT_3D ( 'NONE', #349, #348, #347 ) ;
#351 = CONICAL_SURFACE ( 'NONE', #350, 10.47749999999999700, 0.7853981633974545000 ) ;
#352 = FACE_OUTER_BOUND ( 'NONE', #92, .T. ) ;
#353 = DIRECTION ( 'NONE',  ( 1.000000000000000000, 0.0000000000000000000, 0.0000000000000000000 ) ) ;
#354 = DIRECTION ( 'NONE',  ( -0.0000000000000000000, -0.0000000000000000000, 1.000000000000000000 ) ) ;
#355 = CARTESIAN_POINT ( 'NONE',  ( 0.0000000000000000000, 13.15000000000000000, -2.168404344971008900E-016 ) ) ;
#356 = PLANE ( 'NONE',  #357 ) ;
#357 = AXIS2_PLACEMENT_3D ( 'NONE', #355, #255, #254 ) ;
#358 = CONICAL_SURFACE ( 'NONE', #241, 10.84338236234979500, 0.7853981633974530500 ) ;
#359 = FACE_OUTER_BOUND ( 'NONE', #198, .T. ) ;
#360 = CARTESIAN_POINT ( 'NONE',  ( 1.283081307217396200E-015, -10.47749999999999700, -59.63411763765020600 ) ) ;
#361 = CARTESIAN_POINT ( 'NONE',  ( 10.47749999999999700, 1.305484400501650500E-015, -59.63411763765020600 ) ) ;
#362 = CARTESIAN_POINT ( 'NONE',  ( 10.84338236234979500, 1.327887493785905800E-015, -60.00000000000000000 ) ) ;
#363 = DIRECTION ( 'NONE',  ( 1.000000000000000000, 0.0000000000000000000, 0.0000000000000000000 ) ) ;
#364 = DIRECTION ( 'NONE',  ( -0.0000000000000000000, -0.0000000000000000000, 1.000000000000000000 ) ) ;
#365 = CARTESIAN_POINT ( 'NONE',  ( 0.0000000000000000000, 0.0000000000000000000, -60.00000000000000000 ) ) ;
#366 = AXIS2_PLACEMENT_3D ( 'NONE', #365, #364, #363 ) ;
#367 = CIRCLE ( 'NONE', #366, 10.84338236234979500 ) ;
#368 = DIRECTION ( 'NONE',  ( 0.7071067811865507900, 8.659274570719396100E-017, -0.7071067811865441300 ) ) ;
#369 = VECTOR ( 'NONE', #368, 1000.000000000000000 ) ;
#370 = CARTESIAN_POINT ( 'NONE',  ( 10.84338236234979500, 1.327887493785905800E-015, -60.00000000000000000 ) ) ;
#371 = LINE ( 'NONE', #370, #369 ) ;
#372 = CARTESIAN_POINT ( 'NONE',  ( -10.84338236234979500, 0.0000000000000000000, -60.00000000000000000 ) ) ;
#373 = DIRECTION ( 'NONE',  ( -0.7071067811865507900, 0.0000000000000000000, -0.7071067811865441300 ) ) ;
#374 = VECTOR ( 'NONE', #373, 1000.000000000000000 ) ;
#375 = CARTESIAN_POINT ( 'NONE',  ( -10.84338236234979500, 0.0000000000000000000, -60.00000000000000000 ) ) ;
#376 = LINE ( 'NONE', #375, #374 ) ;
#377 = DIRECTION ( 'NONE',  ( 1.000000000000000000, 0.0000000000000000000, 0.0000000000000000000 ) ) ;
#378 = DIRECTION ( 'NONE',  ( -0.0000000000000000000, -0.0000000000000000000, 1.000000000000000000 ) ) ;
#379 = CARTESIAN_POINT ( 'NONE',  ( 0.0000000000000000000, 0.0000000000000000000, -59.63411763765020600 ) ) ;
#380 = AXIS2_PLACEMENT_3D ( 'NONE', #379, #378, #377 ) ;
#381 = CIRCLE ( 'NONE', #380, 10.47749999999999700 ) ;
#382 = CARTESIAN_POINT ( 'NONE',  ( -10.47749999999999700, 0.0000000000000000000, -59.63411763765020600 ) ) ;
#383 = CARTESIAN_POINT ( 'NONE',  ( -10.84338236234971300, 1.327887493785895800E-015, -5.454052677674197400E-017 ) ) ;
#384 = CARTESIAN_POINT ( 'NONE',  ( 1.283081307217396200E-015, -10.47749999999999700, -0.3658823623497114400 ) ) ;
#385 = CARTESIAN_POINT ( 'NONE',  ( -10.47749999999999700, 1.305484400501645600E-015, -0.3658823623497114400 ) ) ;
#386 = DIRECTION ( 'NONE',  ( -0.0000000000000000000, -0.0000000000000000000, 1.000000000000000000 ) ) ;
#387 = VECTOR ( 'NONE', #386, 1000.000000000000000 ) ;
#388 = CARTESIAN_POINT ( 'NONE',  ( 13.14999999999999900, 0.0000000000000000000, -4.336808689942017700E-016 ) ) ;
#389 = LINE ( 'NONE', #388, #387 ) ;
ENDSEC;
END-ISO-10303-21;
