ISO-10303-21;
HEADER;
FILE_DESCRIPTION (( 'STEP AP203' ),
    '1' );
FILE_NAME ('11-0201-07_outokumpu.step',
    '2015-08-10T12:15:03',
    ( '' ),
    ( '' ),
    'SwSTEP 2.0',
    'SolidWorks 2008',
    '' );
FILE_SCHEMA (( 'CONFIG_CONTROL_DESIGN' ));
ENDSEC;

DATA;
#1 = VERTEX_POINT ( 'NONE', #54 ) ;
#2 = ADVANCED_FACE ( 'NONE', ( #53 ), #50, .F. ) ;
#3 = ORIENTED_EDGE ( 'NONE', *, *, #4, .F. ) ;
#4 = EDGE_CURVE ( 'NONE', #5, #312, #59, .T. ) ;
#5 = VERTEX_POINT ( 'NONE', #106 ) ;
#6 = EDGE_CURVE ( 'NONE', #1, #5, #104, .T. ) ;
#7 = EDGE_CURVE ( 'NONE', #330, #355, #96, .T. ) ;
#8 = ORIENTED_EDGE ( 'NONE', *, *, #354, .T. ) ;
#9 = EDGE_CURVE ( 'NONE', #1, #329, #70, .T. ) ;
#10 = ORIENTED_EDGE ( 'NONE', *, *, #6, .F. ) ;
#11 = ADVANCED_FACE ( 'NONE', ( #107 ), #78, .F. ) ;
#12 = EDGE_LOOP ( 'NONE', ( #13, #26, #21, #25, #17, #24 ) ) ;
#13 = ORIENTED_EDGE ( 'NONE', *, *, #7, .F. ) ;
#14 = ORIENTED_EDGE ( 'NONE', *, *, #331, .T. ) ;
#15 = ORIENTED_EDGE ( 'NONE', *, *, #7, .T. ) ;
#16 = ORIENTED_EDGE ( 'NONE', *, *, #32, .F. ) ;
#17 = ORIENTED_EDGE ( 'NONE', *, *, #23, .F. ) ;
#18 = EDGE_CURVE ( 'NONE', #368, #1, #63, .T. ) ;
#19 = ADVANCED_FACE ( 'NONE', ( #84, #88 ), #80, .F. ) ;
#20 = ORIENTED_EDGE ( 'NONE', *, *, #304, .F. ) ;
#21 = ORIENTED_EDGE ( 'NONE', *, *, #18, .T. ) ;
#22 = EDGE_LOOP ( 'NONE', ( #30, #38 ) ) ;
#23 = EDGE_CURVE ( 'NONE', #351, #5, #101, .T. ) ;
#24 = ORIENTED_EDGE ( 'NONE', *, *, #354, .F. ) ;
#25 = ORIENTED_EDGE ( 'NONE', *, *, #6, .T. ) ;
#26 = ORIENTED_EDGE ( 'NONE', *, *, #319, .T. ) ;
#27 = ORIENTED_EDGE ( 'NONE', *, *, #336, .F. ) ;
#28 = EDGE_LOOP ( 'NONE', ( #55, #40 ) ) ;
#29 = EDGE_CURVE ( 'NONE', #349, #347, #92, .T. ) ;
#30 = ORIENTED_EDGE ( 'NONE', *, *, #350, .T. ) ;
#31 = EDGE_LOOP ( 'NONE', ( #20, #16 ) ) ;
#32 = EDGE_CURVE ( 'NONE', #305, #303, #68, .T. ) ;
#33 = ADVANCED_FACE ( 'NONE', ( #69, #64 ), #116, .F. ) ;
#34 = EDGE_CURVE ( 'NONE', #317, #333, #114, .T. ) ;
#35 = ORIENTED_EDGE ( 'NONE', *, *, #318, .F. ) ;
#36 = ADVANCED_FACE ( 'NONE', ( #113 ), #160, .T. ) ;
#37 = ORIENTED_EDGE ( 'NONE', *, *, #316, .F. ) ;
#38 = ORIENTED_EDGE ( 'NONE', *, *, #29, .T. ) ;
#39 = ORIENTED_EDGE ( 'NONE', *, *, #32, .T. ) ;
#40 = ORIENTED_EDGE ( 'NONE', *, *, #41, .T. ) ;
#41 = EDGE_CURVE ( 'NONE', #302, #366, #117, .T. ) ;
#42 = DIRECTION ( 'NONE',  ( 1.000000000000000000, 0.0000000000000000000, 0.0000000000000000000 ) ) ;
#43 = DIRECTION ( 'NONE',  ( 0.0000000000000000000, 0.0000000000000000000, 1.000000000000000000 ) ) ;
#44 = CARTESIAN_POINT ( 'NONE',  ( 0.0000000000000000000, 0.0000000000000000000, 0.0000000000000000000 ) ) ;
#45 = AXIS2_PLACEMENT_3D ( 'NONE', #44, #43, #42 ) ;
#46 = DIRECTION ( 'NONE',  ( -1.000000000000000000, 0.0000000000000000000, 0.0000000000000000000 ) ) ;
#47 = DIRECTION ( 'NONE',  ( 0.0000000000000000000, 0.0000000000000000000, -1.000000000000000000 ) ) ;
#48 = CARTESIAN_POINT ( 'NONE',  ( 0.0000000000000000000, 0.0000000000000000000, -48.00000000000001400 ) ) ;
#49 = AXIS2_PLACEMENT_3D ( 'NONE', #48, #47, #46 ) ;
#50 = CONICAL_SURFACE ( 'NONE', #49, 21.68676472469945800, 0.7853981633974578300 ) ;
#51 = EDGE_LOOP ( 'NONE', ( #52, #35 ) ) ;
#52 = ORIENTED_EDGE ( 'NONE', *, *, #34, .F. ) ;
#53 = FACE_OUTER_BOUND ( 'NONE', #337, .T. ) ;
#54 = CARTESIAN_POINT ( 'NONE',  ( 0.0000000000000000000, 20.95499999999999500, -0.7317647246994228900 ) ) ;
#55 = ORIENTED_EDGE ( 'NONE', *, *, #365, .T. ) ;
#56 = EDGE_LOOP ( 'NONE', ( #37, #39, #358, #370 ) ) ;
#57 = CARTESIAN_POINT ( 'NONE',  ( 0.0000000000000000000, 0.0000000000000000000, -47.26823527530056900 ) ) ;
#58 = AXIS2_PLACEMENT_3D ( 'NONE', #57, #110, #109 ) ;
#59 = CIRCLE ( 'NONE', #58, 20.95499999999999500 ) ;
#60 = DIRECTION ( 'NONE',  ( -0.0000000000000000000, -0.0000000000000000000, 1.000000000000000000 ) ) ;
#61 = CARTESIAN_POINT ( 'NONE',  ( 0.0000000000000000000, 0.0000000000000000000, -0.7317647246994228900 ) ) ;
#62 = AXIS2_PLACEMENT_3D ( 'NONE', #61, #60, #89 ) ;
#63 = CIRCLE ( 'NONE', #62, 20.95499999999999500 ) ;
#64 = FACE_BOUND ( 'NONE', #22, .T. ) ;
#65 = DIRECTION ( 'NONE',  ( 1.000000000000000000, 0.0000000000000000000, 0.0000000000000000000 ) ) ;
#66 = DIRECTION ( 'NONE',  ( -0.0000000000000000000, -0.0000000000000000000, 1.000000000000000000 ) ) ;
#67 = AXIS2_PLACEMENT_3D ( 'NONE', #93, #66, #65 ) ;
#68 = CIRCLE ( 'NONE', #67, 24.14999999999999900 ) ;
#69 = FACE_OUTER_BOUND ( 'NONE', #31, .T. ) ;
#70 = CIRCLE ( 'NONE', #108, 20.95499999999999500 ) ;
#71 = DIRECTION ( 'NONE',  ( -0.0000000000000000000, -0.0000000000000000000, 1.000000000000000000 ) ) ;
#72 = CARTESIAN_POINT ( 'NONE',  ( 0.0000000000000000000, 0.0000000000000000000, -47.26823527530056900 ) ) ;
#73 = AXIS2_PLACEMENT_3D ( 'NONE', #72, #71, #94 ) ;
#74 = CARTESIAN_POINT ( 'NONE',  ( 0.0000000000000000000, 0.0000000000000000000, -48.00000000000001400 ) ) ;
#75 = CARTESIAN_POINT ( 'NONE',  ( 0.0000000000000000000, 24.14999999999999900, -2.168404344971008900E-016 ) ) ;
#76 = AXIS2_PLACEMENT_3D ( 'NONE', #75, #79, #100 ) ;
#77 = AXIS2_PLACEMENT_3D ( 'NONE', #83, #82, #81 ) ;
#78 = CYLINDRICAL_SURFACE ( 'NONE', #77, 20.95500000000000200 ) ;
#79 = DIRECTION ( 'NONE',  ( 0.0000000000000000000, 0.0000000000000000000, -1.000000000000000000 ) ) ;
#80 = PLANE ( 'NONE',  #76 ) ;
#81 = DIRECTION ( 'NONE',  ( 0.0000000000000000000, 1.000000000000000000, 0.0000000000000000000 ) ) ;
#82 = DIRECTION ( 'NONE',  ( -0.0000000000000000000, 1.513719172772997400E-016, -1.000000000000000000 ) ) ;
#83 = CARTESIAN_POINT ( 'NONE',  ( 0.0000000000000000000, 3.796405077356786400E-015, -48.00000000000008500 ) ) ;
#84 = FACE_OUTER_BOUND ( 'NONE', #28, .T. ) ;
#85 = DIRECTION ( 'NONE',  ( 1.000000000000000000, 0.0000000000000000000, 0.0000000000000000000 ) ) ;
#86 = DIRECTION ( 'NONE',  ( -0.0000000000000000000, -0.0000000000000000000, 1.000000000000000000 ) ) ;
#87 = AXIS2_PLACEMENT_3D ( 'NONE', #74, #86, #85 ) ;
#88 = FACE_BOUND ( 'NONE', #51, .T. ) ;
#89 = DIRECTION ( 'NONE',  ( 1.000000000000000000, 0.0000000000000000000, 0.0000000000000000000 ) ) ;
#90 = CARTESIAN_POINT ( 'NONE',  ( 2.566162614434792000E-015, -20.95499999999999800, -48.00000000000008500 ) ) ;
#91 = CARTESIAN_POINT ( 'NONE',  ( 0.0000000000000000000, 0.0000000000000000000, -0.7317647246994228900 ) ) ;
#92 = CIRCLE ( 'NONE', #87, 21.68676472469945800 ) ;
#93 = CARTESIAN_POINT ( 'NONE',  ( 0.0000000000000000000, 0.0000000000000000000, -48.00000000000001400 ) ) ;
#94 = DIRECTION ( 'NONE',  ( 1.000000000000000000, 0.0000000000000000000, 0.0000000000000000000 ) ) ;
#95 = DIRECTION ( 'NONE',  ( -0.0000000000000000000, 1.513719172772997400E-016, -1.000000000000000000 ) ) ;
#96 = LINE ( 'NONE', #90, #103 ) ;
#97 = DIRECTION ( 'NONE',  ( 1.000000000000000000, 0.0000000000000000000, 0.0000000000000000000 ) ) ;
#98 = DIRECTION ( 'NONE',  ( -0.0000000000000000000, -0.0000000000000000000, 1.000000000000000000 ) ) ;
#99 = DIRECTION ( 'NONE',  ( -0.0000000000000000000, 1.513719172772997400E-016, -1.000000000000000000 ) ) ;
#100 = DIRECTION ( 'NONE',  ( -1.000000000000000000, 0.0000000000000000000, -0.0000000000000000000 ) ) ;
#101 = CIRCLE ( 'NONE', #73, 20.95499999999999500 ) ;
#102 = CARTESIAN_POINT ( 'NONE',  ( 0.0000000000000000000, 20.95500000000000500, -48.00000000000008500 ) ) ;
#103 = VECTOR ( 'NONE', #95, 1000.000000000000000 ) ;
#104 = LINE ( 'NONE', #102, #105 ) ;
#105 = VECTOR ( 'NONE', #99, 1000.000000000000000 ) ;
#106 = CARTESIAN_POINT ( 'NONE',  ( 0.0000000000000000000, 20.95499999999999500, -47.26823527530056900 ) ) ;
#107 = FACE_OUTER_BOUND ( 'NONE', #12, .T. ) ;
#108 = AXIS2_PLACEMENT_3D ( 'NONE', #91, #98, #97 ) ;
#109 = DIRECTION ( 'NONE',  ( 1.000000000000000000, 0.0000000000000000000, 0.0000000000000000000 ) ) ;
#110 = DIRECTION ( 'NONE',  ( -0.0000000000000000000, -0.0000000000000000000, 1.000000000000000000 ) ) ;
#111 = DIRECTION ( 'NONE',  ( -0.0000000000000000000, -0.0000000000000000000, 1.000000000000000000 ) ) ;
#112 = AXIS2_PLACEMENT_3D ( 'NONE', #115, #126, #119 ) ;
#113 = FACE_OUTER_BOUND ( 'NONE', #56, .T. ) ;
#114 = CIRCLE ( 'NONE', #112, 21.68676472469942600 ) ;
#115 = CARTESIAN_POINT ( 'NONE',  ( 0.0000000000000000000, 0.0000000000000000000, 5.813330856004549000E-018 ) ) ;
#116 = PLANE ( 'NONE',  #134 ) ;
#117 = CIRCLE ( 'NONE', #139, 24.14999999999999900 ) ;
#118 = CARTESIAN_POINT ( 'NONE',  ( 24.14999999999999900, 0.0000000000000000000, -48.00000000000001400 ) ) ;
#119 = DIRECTION ( 'NONE',  ( 1.000000000000000000, 0.0000000000000000000, 0.0000000000000000000 ) ) ;
#120 = DIRECTION ( 'NONE',  ( -0.7071067811865541200, 0.0000000000000000000, -0.7071067811865408000 ) ) ;
#121 = VECTOR ( 'NONE', #120, 1000.000000000000100 ) ;
#122 = CARTESIAN_POINT ( 'NONE',  ( -21.68676472469945800, 0.0000000000000000000, -48.00000000000001400 ) ) ;
#123 = LINE ( 'NONE', #122, #121 ) ;
#124 = DIRECTION ( 'NONE',  ( 0.7071067811865517900, 0.0000000000000000000, 0.7071067811865432400 ) ) ;
#125 = VECTOR ( 'NONE', #124, 1000.000000000000000 ) ;
#126 = DIRECTION ( 'NONE',  ( -0.0000000000000000000, -0.0000000000000000000, 1.000000000000000000 ) ) ;
#127 = CARTESIAN_POINT ( 'NONE',  ( 0.0000000000000000000, 24.14999999999999900, -48.00000000000000700 ) ) ;
#128 = CARTESIAN_POINT ( 'NONE',  ( 0.0000000000000000000, 0.0000000000000000000, 5.813330856004549000E-018 ) ) ;
#129 = CARTESIAN_POINT ( 'NONE',  ( 21.68676472469942600, 0.0000000000000000000, 5.813330856004549000E-018 ) ) ;
#130 = DIRECTION ( 'NONE',  ( -0.0000000000000000000, -0.0000000000000000000, 1.000000000000000000 ) ) ;
#131 = VECTOR ( 'NONE', #130, 1000.000000000000000 ) ;
#132 = CARTESIAN_POINT ( 'NONE',  ( -24.14999999999999900, 2.957424344481040600E-015, -4.336808689942017700E-016 ) ) ;
#133 = LINE ( 'NONE', #132, #131 ) ;
#134 = AXIS2_PLACEMENT_3D ( 'NONE', #127, #143, #152 ) ;
#135 = CARTESIAN_POINT ( 'NONE',  ( -24.14999999999999900, 2.957424344481040600E-015, 0.0000000000000000000 ) ) ;
#136 = DIRECTION ( 'NONE',  ( 1.000000000000000000, 0.0000000000000000000, 0.0000000000000000000 ) ) ;
#137 = DIRECTION ( 'NONE',  ( -0.0000000000000000000, -0.0000000000000000000, 1.000000000000000000 ) ) ;
#138 = CARTESIAN_POINT ( 'NONE',  ( 0.0000000000000000000, 0.0000000000000000000, 0.0000000000000000000 ) ) ;
#139 = AXIS2_PLACEMENT_3D ( 'NONE', #138, #137, #136 ) ;
#140 = CIRCLE ( 'NONE', #151, 24.14999999999999900 ) ;
#141 = CARTESIAN_POINT ( 'NONE',  ( -24.14999999999999900, 2.957424344481040600E-015, -48.00000000000001400 ) ) ;
#142 = CARTESIAN_POINT ( 'NONE',  ( 0.0000000000000000000, 0.0000000000000000000, -4.336808689942017700E-016 ) ) ;
#143 = DIRECTION ( 'NONE',  ( 0.0000000000000000000, -0.0000000000000000000, 1.000000000000000000 ) ) ;
#144 = DIRECTION ( 'NONE',  ( 1.000000000000000000, 0.0000000000000000000, 0.0000000000000000000 ) ) ;
#145 = CARTESIAN_POINT ( 'NONE',  ( 20.95499999999999500, 0.0000000000000000000, -0.7317647246994228900 ) ) ;
#146 = LINE ( 'NONE', #145, #125 ) ;
#147 = CARTESIAN_POINT ( 'NONE',  ( -20.95499999999999500, 0.0000000000000000000, -47.26823527530056900 ) ) ;
#148 = DIRECTION ( 'NONE',  ( 1.000000000000000000, 0.0000000000000000000, 0.0000000000000000000 ) ) ;
#149 = DIRECTION ( 'NONE',  ( -0.0000000000000000000, -0.0000000000000000000, 1.000000000000000000 ) ) ;
#150 = CARTESIAN_POINT ( 'NONE',  ( 0.0000000000000000000, 0.0000000000000000000, -48.00000000000001400 ) ) ;
#151 = AXIS2_PLACEMENT_3D ( 'NONE', #150, #149, #148 ) ;
#152 = DIRECTION ( 'NONE',  ( 1.000000000000000000, 0.0000000000000000000, 0.0000000000000000000 ) ) ;
#153 = PERSON_AND_ORGANIZATION_ROLE ( 'classification_officer' ) ;
#154 = PERSON_AND_ORGANIZATION ( #288, #278 ) ;
#155 = DIRECTION ( 'NONE',  ( 1.000000000000000000, 0.0000000000000000000, 0.0000000000000000000 ) ) ;
#156 = DIRECTION ( 'NONE',  ( -0.0000000000000000000, -0.0000000000000000000, 1.000000000000000000 ) ) ;
#157 = AXIS2_PLACEMENT_3D ( 'NONE', #128, #156, #155 ) ;
#158 = CIRCLE ( 'NONE', #157, 21.68676472469942600 ) ;
#159 = SECURITY_CLASSIFICATION ( '', '', #289 ) ;
#160 = CYLINDRICAL_SURFACE ( 'NONE', #161, 24.14999999999999900 ) ;
#161 = AXIS2_PLACEMENT_3D ( 'NONE', #142, #111, #144 ) ;
#162 = CARTESIAN_POINT ( 'NONE',  ( 0.0000000000000000000, 0.0000000000000000000, -0.7317647246994228900 ) ) ;
#163 = DIRECTION ( 'NONE',  ( 1.000000000000000000, 0.0000000000000000000, 0.0000000000000000000 ) ) ;
#164 = CIRCLE ( 'NONE', #211, 21.68676472469945800 ) ;
#165 = CARTESIAN_POINT ( 'NONE',  ( 21.68676472469945800, 2.655774987571795500E-015, -48.00000000000001400 ) ) ;
#166 = CIRCLE ( 'NONE', #187, 20.95499999999999500 ) ;
#167 = CYLINDRICAL_SURFACE ( 'NONE', #200, 20.95500000000000200 ) ;
#168 = DIRECTION ( 'NONE',  ( 1.000000000000000000, 0.0000000000000000000, 0.0000000000000000000 ) ) ;
#169 = DIRECTION ( 'NONE',  ( -0.0000000000000000000, -0.0000000000000000000, 1.000000000000000000 ) ) ;
#170 = AXIS2_PLACEMENT_3D ( 'NONE', #162, #169, #168 ) ;
#171 = AXIS2_PLACEMENT_3D ( 'NONE', #195, #191, #174 ) ;
#172 = CARTESIAN_POINT ( 'NONE',  ( 2.566162614434792000E-015, -20.95499999999999500, -0.7317647246994228900 ) ) ;
#173 = DIRECTION ( 'NONE',  ( -0.7071067811865517900, 8.659274570719408400E-017, 0.7071067811865432400 ) ) ;
#174 = DIRECTION ( 'NONE',  ( -1.000000000000000000, 0.0000000000000000000, 0.0000000000000000000 ) ) ;
#175 = FACE_OUTER_BOUND ( 'NONE', #325, .T. ) ;
#176 = AXIS2_PLACEMENT_3D ( 'NONE', #189, #202, #194 ) ;
#177 = CYLINDRICAL_SURFACE ( 'NONE', #176, 24.14999999999999900 ) ;
#178 = FACE_OUTER_BOUND ( 'NONE', #362, .T. ) ;
#179 = DIRECTION ( 'NONE',  ( 1.000000000000000000, 0.0000000000000000000, 0.0000000000000000000 ) ) ;
#180 = DIRECTION ( 'NONE',  ( -0.0000000000000000000, -0.0000000000000000000, 1.000000000000000000 ) ) ;
#181 = CARTESIAN_POINT ( 'NONE',  ( 0.0000000000000000000, 0.0000000000000000000, -47.26823527530056900 ) ) ;
#182 = AXIS2_PLACEMENT_3D ( 'NONE', #181, #180, #179 ) ;
#183 = CIRCLE ( 'NONE', #182, 20.95499999999999500 ) ;
#184 = CARTESIAN_POINT ( 'NONE',  ( -20.95499999999999500, 2.610968801003291200E-015, -0.7317647246994228900 ) ) ;
#185 = DIRECTION ( 'NONE',  ( -0.0000000000000000000, -0.0000000000000000000, 1.000000000000000000 ) ) ;
#186 = CARTESIAN_POINT ( 'NONE',  ( 0.0000000000000000000, 0.0000000000000000000, -0.7317647246994228900 ) ) ;
#187 = AXIS2_PLACEMENT_3D ( 'NONE', #186, #185, #214 ) ;
#188 = CARTESIAN_POINT ( 'NONE',  ( -21.68676472469942600, 2.655774987571791500E-015, 5.813330856004549000E-018 ) ) ;
#189 = CARTESIAN_POINT ( 'NONE',  ( 0.0000000000000000000, 0.0000000000000000000, -4.336808689942017700E-016 ) ) ;
#190 = DIRECTION ( 'NONE',  ( -0.0000000000000000000, -0.0000000000000000000, 1.000000000000000000 ) ) ;
#191 = DIRECTION ( 'NONE',  ( 0.0000000000000000000, 0.0000000000000000000, -1.000000000000000000 ) ) ;
#192 = CARTESIAN_POINT ( 'NONE',  ( 0.0000000000000000000, 0.0000000000000000000, -0.7317647246994228900 ) ) ;
#193 = FACE_OUTER_BOUND ( 'NONE', #322, .T. ) ;
#194 = DIRECTION ( 'NONE',  ( 1.000000000000000000, 0.0000000000000000000, 0.0000000000000000000 ) ) ;
#195 = CARTESIAN_POINT ( 'NONE',  ( 0.0000000000000000000, 0.0000000000000000000, -48.00000000000001400 ) ) ;
#196 = CARTESIAN_POINT ( 'NONE',  ( -21.68676472469945800, 0.0000000000000000000, -48.00000000000001400 ) ) ;
#197 = DIRECTION ( 'NONE',  ( 0.0000000000000000000, 1.000000000000000000, 0.0000000000000000000 ) ) ;
#198 = DIRECTION ( 'NONE',  ( -0.0000000000000000000, 1.513719172772997400E-016, -1.000000000000000000 ) ) ;
#199 = CARTESIAN_POINT ( 'NONE',  ( 0.0000000000000000000, 3.796405077356786400E-015, -48.00000000000008500 ) ) ;
#200 = AXIS2_PLACEMENT_3D ( 'NONE', #199, #198, #197 ) ;
#201 = AXIS2_PLACEMENT_3D ( 'NONE', #192, #190, #163 ) ;
#202 = DIRECTION ( 'NONE',  ( -0.0000000000000000000, -0.0000000000000000000, 1.000000000000000000 ) ) ;
#203 = CONICAL_SURFACE ( 'NONE', #171, 21.68676472469945800, 0.7853981633974578300 ) ;
#204 = VECTOR ( 'NONE', #173, 1000.000000000000000 ) ;
#205 = CARTESIAN_POINT ( 'NONE',  ( -20.95499999999999500, 2.566162614434790800E-015, -0.7317647246994228900 ) ) ;
#206 = LINE ( 'NONE', #205, #204 ) ;
#207 = CIRCLE ( 'NONE', #201, 20.95499999999999500 ) ;
#208 = DIRECTION ( 'NONE',  ( 1.000000000000000000, 0.0000000000000000000, 0.0000000000000000000 ) ) ;
#209 = DIRECTION ( 'NONE',  ( -0.0000000000000000000, -0.0000000000000000000, 1.000000000000000000 ) ) ;
#210 = CARTESIAN_POINT ( 'NONE',  ( 0.0000000000000000000, 0.0000000000000000000, -48.00000000000001400 ) ) ;
#211 = AXIS2_PLACEMENT_3D ( 'NONE', #210, #209, #208 ) ;
#212 = CONICAL_SURFACE ( 'NONE', #170, 20.95499999999999500, 0.7853981633974543900 ) ;
#213 = FACE_OUTER_BOUND ( 'NONE', #311, .T. ) ;
#214 = DIRECTION ( 'NONE',  ( 1.000000000000000000, 0.0000000000000000000, 0.0000000000000000000 ) ) ;
#215 = DIRECTION ( 'NONE',  ( -0.0000000000000000000, -0.0000000000000000000, 1.000000000000000000 ) ) ;
#216 = VECTOR ( 'NONE', #215, 1000.000000000000000 ) ;
#217 = CARTESIAN_POINT ( 'NONE',  ( 24.14999999999999900, 0.0000000000000000000, -4.336808689942017700E-016 ) ) ;
#218 = LINE ( 'NONE', #217, #216 ) ;
#219 = DIRECTION ( 'NONE',  ( 1.000000000000000000, 0.0000000000000000000, 0.0000000000000000000 ) ) ;
#220 = CARTESIAN_POINT ( 'NONE',  ( 0.0000000000000000000, 0.0000000000000000000, -47.26823527530056900 ) ) ;
#221 = DIRECTION ( 'NONE',  ( -0.0000000000000000000, -0.0000000000000000000, 1.000000000000000000 ) ) ;
#222 = DIRECTION ( 'NONE',  ( 0.7071067811865541200, 8.659274570719435500E-017, -0.7071067811865408000 ) ) ;
#223 = CARTESIAN_POINT ( 'NONE',  ( 21.68676472469945800, 2.655774987571795500E-015, -48.00000000000001400 ) ) ;
#224 = AXIS2_PLACEMENT_3D ( 'NONE', #220, #221, #219 ) ;
#225 = VECTOR ( 'NONE', #222, 1000.000000000000100 ) ;
#226 = LINE ( 'NONE', #223, #225 ) ;
#227 = CIRCLE ( 'NONE', #224, 20.95499999999999500 ) ;
#228 = FACE_OUTER_BOUND ( 'NONE', #371, .T. ) ;
#229 = CARTESIAN_POINT ( 'NONE',  ( 20.95499999999999500, 2.610968801003293100E-015, -47.26823527530056900 ) ) ;
#230 = CARTESIAN_POINT ( 'NONE',  ( 2.566162614434792000E-015, -20.95499999999999500, -47.26823527530056900 ) ) ;
#231 = CC_DESIGN_PERSON_AND_ORGANIZATION_ASSIGNMENT ( #154, #153, ( #159 ) ) ;
#232 = CONICAL_SURFACE ( 'NONE', #239, 20.95499999999999500, 0.7853981633974543900 ) ;
#233 = DIRECTION ( 'NONE',  ( 1.000000000000000000, 0.0000000000000000000, 0.0000000000000000000 ) ) ;
#234 = CIRCLE ( 'NONE', #246, 24.14999999999999900 ) ;
#235 = CARTESIAN_POINT ( 'NONE',  ( 0.0000000000000000000, 0.0000000000000000000, -0.7317647246994228900 ) ) ;
#236 =( NAMED_UNIT ( * ) PLANE_ANGLE_UNIT ( ) SI_UNIT ( $, .RADIAN. ) );
#237 = UNCERTAINTY_MEASURE_WITH_UNIT (LENGTH_MEASURE( 1.000000000000000100E-005 ), #242, 'distance_accuracy_value', 'NONE');
#238 =( NAMED_UNIT ( * ) SI_UNIT ( $, .STERADIAN. ) SOLID_ANGLE_UNIT ( ) );
#239 = AXIS2_PLACEMENT_3D ( 'NONE', #235, #241, #233 ) ;
#240 =( GEOMETRIC_REPRESENTATION_CONTEXT ( 3 ) GLOBAL_UNCERTAINTY_ASSIGNED_CONTEXT ( ( #237 ) ) GLOBAL_UNIT_ASSIGNED_CONTEXT ( ( #242, #236, #238 ) ) REPRESENTATION_CONTEXT ( 'NONE', 'WORKASPACE' ) );
#241 = DIRECTION ( 'NONE',  ( -0.0000000000000000000, -0.0000000000000000000, 1.000000000000000000 ) ) ;
#242 =( LENGTH_UNIT ( ) NAMED_UNIT ( * ) SI_UNIT ( .MILLI., .METRE. ) );
#243 = ADVANCED_BREP_SHAPE_REPRESENTATION ( '11-0201-07_outokumpu', ( #356, #45 ), #240 ) ;
#244 = DIRECTION ( 'NONE',  ( -0.0000000000000000000, -0.0000000000000000000, 1.000000000000000000 ) ) ;
#245 = CARTESIAN_POINT ( 'NONE',  ( 0.0000000000000000000, 0.0000000000000000000, 0.0000000000000000000 ) ) ;
#246 = AXIS2_PLACEMENT_3D ( 'NONE', #245, #244, #249 ) ;
#247 = CARTESIAN_POINT ( 'NONE',  ( 20.95499999999999500, 0.0000000000000000000, -0.7317647246994228900 ) ) ;
#248 = CARTESIAN_POINT ( 'NONE',  ( 24.14999999999999900, 0.0000000000000000000, 0.0000000000000000000 ) ) ;
#249 = DIRECTION ( 'NONE',  ( 1.000000000000000000, 0.0000000000000000000, 0.0000000000000000000 ) ) ;
#250 = CC_DESIGN_APPROVAL ( #298, ( #301 ) ) ;
#251 = APPROVAL_DATE_TIME ( #269, #298 ) ;
#252 = APPLICATION_CONTEXT ( 'configuration controlled 3d designs of mechanical parts and assemblies' ) ;
#253 = CC_DESIGN_PERSON_AND_ORGANIZATION_ASSIGNMENT ( #281, #256, ( #292 ) ) ;
#254 = DESIGN_CONTEXT ( 'detailed design', #252, 'design' ) ;
#255 = APPLICATION_PROTOCOL_DEFINITION ( 'international standard', 'config_control_design', 1994, #252 ) ;
#256 = PERSON_AND_ORGANIZATION_ROLE ( 'design_owner' ) ;
#257 = APPLICATION_PROTOCOL_DEFINITION ( 'international standard', 'config_control_design', 1994, #282 ) ;
#258 = PRODUCT_DEFINITION_FORMATION_WITH_SPECIFIED_SOURCE ( 'ANY', '', #292, .NOT_KNOWN. ) ;
#259 = CC_DESIGN_DATE_AND_TIME_ASSIGNMENT ( #261, #260, ( #301 ) ) ;
#260 = DATE_TIME_ROLE ( 'creation_date' ) ;
#261 = DATE_AND_TIME ( #267, #268 ) ;
#262 = CALENDAR_DATE ( 2015, 10, 8 ) ;
#263 = LOCAL_TIME ( 14, 15, 3.000000000000000000, #264 ) ;
#264 = COORDINATED_UNIVERSAL_TIME_OFFSET ( 1, 0, .AHEAD. ) ;
#265 = APPROVAL_PERSON_ORGANIZATION ( #296, #294, #266 ) ;
#266 = APPROVAL_ROLE ( '' ) ;
#267 = CALENDAR_DATE ( 2015, 10, 8 ) ;
#268 = LOCAL_TIME ( 14, 15, 3.000000000000000000, #274 ) ;
#269 = DATE_AND_TIME ( #270, #271 ) ;
#270 = CALENDAR_DATE ( 2015, 10, 8 ) ;
#271 = LOCAL_TIME ( 14, 15, 3.000000000000000000, #272 ) ;
#272 = COORDINATED_UNIVERSAL_TIME_OFFSET ( 1, 0, .AHEAD. ) ;
#273 = APPROVAL_PERSON_ORGANIZATION ( #300, #298, #297 ) ;
#274 = COORDINATED_UNIVERSAL_TIME_OFFSET ( 1, 0, .AHEAD. ) ;
#275 = CC_DESIGN_PERSON_AND_ORGANIZATION_ASSIGNMENT ( #277, #276, ( #301 ) ) ;
#276 = PERSON_AND_ORGANIZATION_ROLE ( 'creator' ) ;
#277 = PERSON_AND_ORGANIZATION ( #288, #278 ) ;
#278 = ORGANIZATION ( 'UNSPECIFIED', 'UNSPECIFIED', '' ) ;
#279 = PERSON_AND_ORGANIZATION ( #288, #278 ) ;
#280 = CC_DESIGN_PERSON_AND_ORGANIZATION_ASSIGNMENT ( #284, #283, ( #258 ) ) ;
#281 = PERSON_AND_ORGANIZATION ( #288, #278 ) ;
#282 = APPLICATION_CONTEXT ( 'configuration controlled 3d designs of mechanical parts and assemblies' ) ;
#283 = PERSON_AND_ORGANIZATION_ROLE ( 'creator' ) ;
#284 = PERSON_AND_ORGANIZATION ( #288, #278 ) ;
#285 = CC_DESIGN_APPROVAL ( #294, ( #258 ) ) ;
#286 = APPROVAL_DATE_TIME ( #287, #294 ) ;
#287 = DATE_AND_TIME ( #262, #263 ) ;
#288 = PERSON ( 'UNSPECIFIED', 'UNSPECIFIED', 'UNSPECIFIED', ('UNSPECIFIED'), ('UNSPECIFIED'), ('UNSPECIFIED') ) ;
#289 = SECURITY_CLASSIFICATION_LEVEL ( 'unclassified' ) ;
#290 = CC_DESIGN_PERSON_AND_ORGANIZATION_ASSIGNMENT ( #279, #291, ( #258 ) ) ;
#291 = PERSON_AND_ORGANIZATION_ROLE ( 'design_supplier' ) ;
#292 = PRODUCT ( '11-0201-07_outokumpu', '11-0201-07_outokumpu', '', ( #293 ) ) ;
#293 = MECHANICAL_CONTEXT ( 'NONE', #282, 'mechanical' ) ;
#294 = APPROVAL ( #295, 'UNSPECIFIED' ) ;
#295 = APPROVAL_STATUS ( 'not_yet_approved' ) ;
#296 = PERSON_AND_ORGANIZATION ( #288, #278 ) ;
#297 = APPROVAL_ROLE ( '' ) ;
#298 = APPROVAL ( #299, 'UNSPECIFIED' ) ;
#299 = APPROVAL_STATUS ( 'not_yet_approved' ) ;
#300 = PERSON_AND_ORGANIZATION ( #288, #278 ) ;
#301 = PRODUCT_DEFINITION ( 'UNKNOWN', '', #258, #254 ) ;
#302 = VERTEX_POINT ( 'NONE', #135 ) ;
#303 = VERTEX_POINT ( 'NONE', #118 ) ;
#304 = EDGE_CURVE ( 'NONE', #303, #305, #140, .T. ) ;
#305 = VERTEX_POINT ( 'NONE', #141 ) ;
#306 = EDGE_CURVE ( 'NONE', #368, #317, #146, .T. ) ;
#307 = ORIENTED_EDGE ( 'NONE', *, *, #319, .F. ) ;
#308 = ORIENTED_EDGE ( 'NONE', *, *, #316, .T. ) ;
#309 = ORIENTED_EDGE ( 'NONE', *, *, #9, .F. ) ;
#310 = ORIENTED_EDGE ( 'NONE', *, *, #29, .F. ) ;
#311 = EDGE_LOOP ( 'NONE', ( #332, #323, #334, #367, #307 ) ) ;
#312 = VERTEX_POINT ( 'NONE', #147 ) ;
#313 = ORIENTED_EDGE ( 'NONE', *, *, #336, .T. ) ;
#314 = EDGE_CURVE ( 'NONE', #312, #347, #123, .T. ) ;
#315 = ORIENTED_EDGE ( 'NONE', *, *, #314, .F. ) ;
#316 = EDGE_CURVE ( 'NONE', #305, #302, #133, .T. ) ;
#317 = VERTEX_POINT ( 'NONE', #129 ) ;
#318 = EDGE_CURVE ( 'NONE', #333, #317, #158, .T. ) ;
#319 = EDGE_CURVE ( 'NONE', #330, #368, #207, .T. ) ;
#320 = ADVANCED_FACE ( 'NONE', ( #193 ), #177, .T. ) ;
#321 = ORIENTED_EDGE ( 'NONE', *, *, #304, .T. ) ;
#322 = EDGE_LOOP ( 'NONE', ( #321, #308, #363, #364 ) ) ;
#323 = ORIENTED_EDGE ( 'NONE', *, *, #328, .T. ) ;
#324 = ORIENTED_EDGE ( 'NONE', *, *, #306, .T. ) ;
#325 = EDGE_LOOP ( 'NONE', ( #369, #326, #373, #357, #310 ) ) ;
#326 = ORIENTED_EDGE ( 'NONE', *, *, #23, .T. ) ;
#327 = ADVANCED_FACE ( 'NONE', ( #175 ), #203, .F. ) ;
#328 = EDGE_CURVE ( 'NONE', #329, #333, #206, .T. ) ;
#329 = VERTEX_POINT ( 'NONE', #184 ) ;
#330 = VERTEX_POINT ( 'NONE', #172 ) ;
#331 = EDGE_CURVE ( 'NONE', #329, #330, #166, .T. ) ;
#332 = ORIENTED_EDGE ( 'NONE', *, *, #331, .F. ) ;
#333 = VERTEX_POINT ( 'NONE', #188 ) ;
#334 = ORIENTED_EDGE ( 'NONE', *, *, #318, .T. ) ;
#335 = ADVANCED_FACE ( 'NONE', ( #213 ), #212, .F. ) ;
#336 = EDGE_CURVE ( 'NONE', #312, #355, #183, .T. ) ;
#337 = EDGE_LOOP ( 'NONE', ( #8, #352, #346, #315, #313 ) ) ;
#338 = ORIENTED_EDGE ( 'NONE', *, *, #9, .T. ) ;
#339 = ADVANCED_FACE ( 'NONE', ( #178 ), #167, .F. ) ;
#340 = CLOSED_SHELL ( 'NONE', ( #2, #335, #320, #339, #11, #33, #19, #36, #360, #327 ) ) ;
#341 = DATE_TIME_ROLE ( 'classification_date' ) ;
#342 = DATE_AND_TIME ( #343, #344 ) ;
#343 = CALENDAR_DATE ( 2015, 10, 8 ) ;
#344 = LOCAL_TIME ( 14, 15, 3.000000000000000000, #345 ) ;
#345 = COORDINATED_UNIVERSAL_TIME_OFFSET ( 1, 0, .AHEAD. ) ;
#346 = ORIENTED_EDGE ( 'NONE', *, *, #350, .F. ) ;
#347 = VERTEX_POINT ( 'NONE', #196 ) ;
#348 = EDGE_CURVE ( 'NONE', #303, #366, #218, .T. ) ;
#349 = VERTEX_POINT ( 'NONE', #165 ) ;
#350 = EDGE_CURVE ( 'NONE', #347, #349, #164, .T. ) ;
#351 = VERTEX_POINT ( 'NONE', #229 ) ;
#352 = ORIENTED_EDGE ( 'NONE', *, *, #353, .T. ) ;
#353 = EDGE_CURVE ( 'NONE', #351, #349, #226, .T. ) ;
#354 = EDGE_CURVE ( 'NONE', #355, #351, #227, .T. ) ;
#355 = VERTEX_POINT ( 'NONE', #230 ) ;
#356 = MANIFOLD_SOLID_BREP ( 'NONE', #340 ) ;
#357 = ORIENTED_EDGE ( 'NONE', *, *, #314, .T. ) ;
#358 = ORIENTED_EDGE ( 'NONE', *, *, #348, .T. ) ;
#359 = ORIENTED_EDGE ( 'NONE', *, *, #18, .F. ) ;
#360 = ADVANCED_FACE ( 'NONE', ( #228 ), #232, .F. ) ;
#361 = ORIENTED_EDGE ( 'NONE', *, *, #34, .T. ) ;
#362 = EDGE_LOOP ( 'NONE', ( #338, #14, #15, #27, #3, #10 ) ) ;
#363 = ORIENTED_EDGE ( 'NONE', *, *, #365, .F. ) ;
#364 = ORIENTED_EDGE ( 'NONE', *, *, #348, .F. ) ;
#365 = EDGE_CURVE ( 'NONE', #366, #302, #234, .T. ) ;
#366 = VERTEX_POINT ( 'NONE', #248 ) ;
#367 = ORIENTED_EDGE ( 'NONE', *, *, #306, .F. ) ;
#368 = VERTEX_POINT ( 'NONE', #247 ) ;
#369 = ORIENTED_EDGE ( 'NONE', *, *, #353, .F. ) ;
#370 = ORIENTED_EDGE ( 'NONE', *, *, #41, .F. ) ;
#371 = EDGE_LOOP ( 'NONE', ( #372, #309, #359, #324, #361 ) ) ;
#372 = ORIENTED_EDGE ( 'NONE', *, *, #328, .F. ) ;
#373 = ORIENTED_EDGE ( 'NONE', *, *, #4, .T. ) ;
#374 = APPROVAL_ROLE ( '' ) ;
#375 = APPROVAL ( #376, 'UNSPECIFIED' ) ;
#376 = APPROVAL_STATUS ( 'not_yet_approved' ) ;
#377 = PERSON_AND_ORGANIZATION ( #288, #278 ) ;
#378 = CC_DESIGN_APPROVAL ( #375, ( #159 ) ) ;
#379 = APPROVAL_DATE_TIME ( #381, #375 ) ;
#380 = CC_DESIGN_DATE_AND_TIME_ASSIGNMENT ( #342, #341, ( #159 ) ) ;
#381 = DATE_AND_TIME ( #382, #383 ) ;
#382 = CALENDAR_DATE ( 2015, 10, 8 ) ;
#383 = LOCAL_TIME ( 14, 15, 3.000000000000000000, #384 ) ;
#384 = COORDINATED_UNIVERSAL_TIME_OFFSET ( 1, 0, .AHEAD. ) ;
#385 = APPROVAL_PERSON_ORGANIZATION ( #377, #375, #374 ) ;
#386 = CC_DESIGN_SECURITY_CLASSIFICATION ( #159, ( #258 ) ) ;
#387 = PRODUCT_DEFINITION_SHAPE ( 'NONE', 'NONE',  #301 ) ;
#388 = SHAPE_DEFINITION_REPRESENTATION ( #387, #243 ) ;
#389 = PRODUCT_RELATED_PRODUCT_CATEGORY ( 'detail', '', ( #292 ) ) ;
ENDSEC;
END-ISO-10303-21;
