ISO-10303-21;
HEADER;
FILE_DESCRIPTION (( 'STEP AP203' ),
    '1' );
FILE_NAME ('19-0408-54_outokumpu.step',
    '2015-08-11T09:39:05',
    ( '' ),
    ( '' ),
    'SwSTEP 2.0',
    'SolidWorks 2008',
    '' );
FILE_SCHEMA (( 'CONFIG_CONTROL_DESIGN' ));
ENDSEC;

DATA;
#1 = VECTOR ( 'NONE', #419, 1000.000000000000000 ) ;
#2 = CARTESIAN_POINT ( 'NONE',  ( 1.140782048903236000E-015, -9.315500000000001900, -120.0000000000000400 ) ) ;
#3 = LINE ( 'NONE', #2, #1 ) ;
#4 = DIRECTION ( 'NONE',  ( -0.0000000000000000000, -0.0000000000000000000, 1.000000000000000000 ) ) ;
#5 = VECTOR ( 'NONE', #4, 1000.000000000000000 ) ;
#6 = CARTESIAN_POINT ( 'NONE',  ( 10.47749999999999700, 0.0000000000000000000, -4.336808689942017700E-016 ) ) ;
#7 = LINE ( 'NONE', #6, #5 ) ;
#8 = DIRECTION ( 'NONE',  ( -0.0000000000000000000, -0.0000000000000000000, 1.000000000000000000 ) ) ;
#9 = VECTOR ( 'NONE', #8, 1000.000000000000000 ) ;
#10 = CARTESIAN_POINT ( 'NONE',  ( -10.47749999999999700, 1.283081307217395400E-015, -4.336808689942017700E-016 ) ) ;
#11 = LINE ( 'NONE', #10, #9 ) ;
#12 = UNCERTAINTY_MEASURE_WITH_UNIT (LENGTH_MEASURE( 1.000000000000000100E-005 ), #15, 'distance_accuracy_value', 'NONE');
#13 =( NAMED_UNIT ( * ) SI_UNIT ( $, .STERADIAN. ) SOLID_ANGLE_UNIT ( ) );
#14 =( NAMED_UNIT ( * ) PLANE_ANGLE_UNIT ( ) SI_UNIT ( $, .RADIAN. ) );
#15 =( LENGTH_UNIT ( ) NAMED_UNIT ( * ) SI_UNIT ( .MILLI., .METRE. ) );
#16 = DIRECTION ( 'NONE',  ( -1.000000000000000000, 0.0000000000000000000, 0.0000000000000000000 ) ) ;
#17 = DIRECTION ( 'NONE',  ( 0.0000000000000000000, 0.0000000000000000000, -1.000000000000000000 ) ) ;
#18 = CARTESIAN_POINT ( 'NONE',  ( 0.0000000000000000000, 0.0000000000000000000, -105.9069999999999700 ) ) ;
#19 = AXIS2_PLACEMENT_3D ( 'NONE', #18, #17, #16 ) ;
#20 = AXIS2_PLACEMENT_3D ( 'NONE', #39, #38, #37 ) ;
#21 = CONICAL_SURFACE ( 'NONE', #19, 10.47749999999999700, 0.9080276881268838400 ) ;
#22 = DIRECTION ( 'NONE',  ( -1.000000000000000000, 0.0000000000000000000, 0.0000000000000000000 ) ) ;
#23 = DIRECTION ( 'NONE',  ( 0.0000000000000000000, 0.0000000000000000000, -1.000000000000000000 ) ) ;
#24 = CARTESIAN_POINT ( 'NONE',  ( 0.0000000000000000000, 0.0000000000000000000, -105.9069999999999700 ) ) ;
#25 = AXIS2_PLACEMENT_3D ( 'NONE', #24, #23, #22 ) ;
#26 = CONICAL_SURFACE ( 'NONE', #25, 10.47749999999999700, 0.9080276881268838400 ) ;
#27 = FACE_OUTER_BOUND ( 'NONE', #296, .T. ) ;
#28 = FACE_OUTER_BOUND ( 'NONE', #242, .T. ) ;
#29 = DIRECTION ( 'NONE',  ( -0.7071067811865643400, 0.0000000000000000000, -0.7071067811865307000 ) ) ;
#30 = VECTOR ( 'NONE', #29, 1000.000000000000000 ) ;
#31 = CARTESIAN_POINT ( 'NONE',  ( -10.84338236234973300, 0.0000000000000000000, -120.0000000000000000 ) ) ;
#32 = LINE ( 'NONE', #31, #30 ) ;
#33 = DIRECTION ( 'NONE',  ( 1.000000000000000000, 0.0000000000000000000, 0.0000000000000000000 ) ) ;
#34 = DIRECTION ( 'NONE',  ( -0.0000000000000000000, -0.0000000000000000000, 1.000000000000000000 ) ) ;
#35 = CARTESIAN_POINT ( 'NONE',  ( 0.0000000000000000000, 0.0000000000000000000, -4.336808689942017700E-016 ) ) ;
#36 = APPLICATION_CONTEXT ( 'configuration controlled 3d designs of mechanical parts and assemblies' ) ;
#37 = DIRECTION ( 'NONE',  ( 1.000000000000000000, 0.0000000000000000000, 0.0000000000000000000 ) ) ;
#38 = DIRECTION ( 'NONE',  ( 0.0000000000000000000, 0.0000000000000000000, 1.000000000000000000 ) ) ;
#39 = CARTESIAN_POINT ( 'NONE',  ( 0.0000000000000000000, 0.0000000000000000000, 0.0000000000000000000 ) ) ;
#40 = SHAPE_DEFINITION_REPRESENTATION ( #98, #41 ) ;
#41 = ADVANCED_BREP_SHAPE_REPRESENTATION ( '19-0408-54_outokumpu', ( #207, #20 ), #42 ) ;
#42 =( GEOMETRIC_REPRESENTATION_CONTEXT ( 3 ) GLOBAL_UNCERTAINTY_ASSIGNED_CONTEXT ( ( #12 ) ) GLOBAL_UNIT_ASSIGNED_CONTEXT ( ( #15, #14, #13 ) ) REPRESENTATION_CONTEXT ( 'NONE', 'WORKASPACE' ) );
#43 = CC_DESIGN_PERSON_AND_ORGANIZATION_ASSIGNMENT ( #45, #44, ( #48 ) ) ;
#44 = PERSON_AND_ORGANIZATION_ROLE ( 'design_owner' ) ;
#45 = PERSON_AND_ORGANIZATION ( #47, #46 ) ;
#46 = ORGANIZATION ( 'UNSPECIFIED', 'UNSPECIFIED', '' ) ;
#47 = PERSON ( 'UNSPECIFIED', 'UNSPECIFIED', 'UNSPECIFIED', ('UNSPECIFIED'), ('UNSPECIFIED'), ('UNSPECIFIED') ) ;
#48 = PRODUCT ( '19-0408-54_outokumpu', '19-0408-54_outokumpu', '', ( #49 ) ) ;
#49 = MECHANICAL_CONTEXT ( 'NONE', #36, 'mechanical' ) ;
#50 = APPLICATION_PROTOCOL_DEFINITION ( 'international standard', 'config_control_design', 1994, #36 ) ;
#51 = CC_DESIGN_PERSON_AND_ORGANIZATION_ASSIGNMENT ( #53, #52, ( #54 ) ) ;
#52 = PERSON_AND_ORGANIZATION_ROLE ( 'classification_officer' ) ;
#53 = PERSON_AND_ORGANIZATION ( #47, #46 ) ;
#54 = SECURITY_CLASSIFICATION ( '', '', #55 ) ;
#55 = SECURITY_CLASSIFICATION_LEVEL ( 'unclassified' ) ;
#56 = CC_DESIGN_PERSON_AND_ORGANIZATION_ASSIGNMENT ( #58, #57, ( #73 ) ) ;
#57 = PERSON_AND_ORGANIZATION_ROLE ( 'design_supplier' ) ;
#58 = PERSON_AND_ORGANIZATION ( #47, #46 ) ;
#59 = CC_DESIGN_PERSON_AND_ORGANIZATION_ASSIGNMENT ( #61, #60, ( #73 ) ) ;
#60 = PERSON_AND_ORGANIZATION_ROLE ( 'creator' ) ;
#61 = PERSON_AND_ORGANIZATION ( #47, #46 ) ;
#62 = CC_DESIGN_APPROVAL ( #70, ( #73 ) ) ;
#63 = APPROVAL_DATE_TIME ( #64, #70 ) ;
#64 = DATE_AND_TIME ( #65, #66 ) ;
#65 = CALENDAR_DATE ( 2015, 11, 8 ) ;
#66 = LOCAL_TIME ( 11, 39, 5.000000000000000000, #67 ) ;
#67 = COORDINATED_UNIVERSAL_TIME_OFFSET ( 1, 0, .AHEAD. ) ;
#68 = APPROVAL_PERSON_ORGANIZATION ( #72, #70, #69 ) ;
#69 = APPROVAL_ROLE ( '' ) ;
#70 = APPROVAL ( #71, 'UNSPECIFIED' ) ;
#71 = APPROVAL_STATUS ( 'not_yet_approved' ) ;
#72 = PERSON_AND_ORGANIZATION ( #47, #46 ) ;
#73 = PRODUCT_DEFINITION_FORMATION_WITH_SPECIFIED_SOURCE ( 'ANY', '', #48, .NOT_KNOWN. ) ;
#74 = CC_DESIGN_DATE_AND_TIME_ASSIGNMENT ( #76, #75, ( #94 ) ) ;
#75 = DATE_TIME_ROLE ( 'creation_date' ) ;
#76 = DATE_AND_TIME ( #77, #78 ) ;
#77 = CALENDAR_DATE ( 2015, 11, 8 ) ;
#78 = LOCAL_TIME ( 11, 39, 5.000000000000000000, #79 ) ;
#79 = COORDINATED_UNIVERSAL_TIME_OFFSET ( 1, 0, .AHEAD. ) ;
#80 = CC_DESIGN_PERSON_AND_ORGANIZATION_ASSIGNMENT ( #82, #81, ( #94 ) ) ;
#81 = PERSON_AND_ORGANIZATION_ROLE ( 'creator' ) ;
#82 = PERSON_AND_ORGANIZATION ( #47, #46 ) ;
#83 = CC_DESIGN_APPROVAL ( #91, ( #94 ) ) ;
#84 = APPROVAL_DATE_TIME ( #85, #91 ) ;
#85 = DATE_AND_TIME ( #86, #87 ) ;
#86 = CALENDAR_DATE ( 2015, 11, 8 ) ;
#87 = LOCAL_TIME ( 11, 39, 5.000000000000000000, #88 ) ;
#88 = COORDINATED_UNIVERSAL_TIME_OFFSET ( 1, 0, .AHEAD. ) ;
#89 = APPROVAL_PERSON_ORGANIZATION ( #93, #91, #90 ) ;
#90 = APPROVAL_ROLE ( '' ) ;
#91 = APPROVAL ( #92, 'UNSPECIFIED' ) ;
#92 = APPROVAL_STATUS ( 'not_yet_approved' ) ;
#93 = PERSON_AND_ORGANIZATION ( #47, #46 ) ;
#94 = PRODUCT_DEFINITION ( 'UNKNOWN', '', #73, #95 ) ;
#95 = DESIGN_CONTEXT ( 'detailed design', #97, 'design' ) ;
#96 = APPLICATION_PROTOCOL_DEFINITION ( 'international standard', 'config_control_design', 1994, #97 ) ;
#97 = APPLICATION_CONTEXT ( 'configuration controlled 3d designs of mechanical parts and assemblies' ) ;
#98 = PRODUCT_DEFINITION_SHAPE ( 'NONE', 'NONE',  #94 ) ;
#99 = PRODUCT_RELATED_PRODUCT_CATEGORY ( 'detail', '', ( #48 ) ) ;
#100 = CC_DESIGN_SECURITY_CLASSIFICATION ( #54, ( #73 ) ) ;
#101 = CC_DESIGN_APPROVAL ( #109, ( #54 ) ) ;
#102 = APPROVAL_DATE_TIME ( #103, #109 ) ;
#103 = DATE_AND_TIME ( #104, #105 ) ;
#104 = CALENDAR_DATE ( 2015, 11, 8 ) ;
#105 = LOCAL_TIME ( 11, 39, 5.000000000000000000, #106 ) ;
#106 = COORDINATED_UNIVERSAL_TIME_OFFSET ( 1, 0, .AHEAD. ) ;
#107 = APPROVAL_PERSON_ORGANIZATION ( #111, #109, #108 ) ;
#108 = APPROVAL_ROLE ( '' ) ;
#109 = APPROVAL ( #110, 'UNSPECIFIED' ) ;
#110 = APPROVAL_STATUS ( 'not_yet_approved' ) ;
#111 = PERSON_AND_ORGANIZATION ( #47, #46 ) ;
#112 = CC_DESIGN_DATE_AND_TIME_ASSIGNMENT ( #114, #113, ( #54 ) ) ;
#113 = DATE_TIME_ROLE ( 'classification_date' ) ;
#114 = DATE_AND_TIME ( #115, #116 ) ;
#115 = CALENDAR_DATE ( 2015, 11, 8 ) ;
#116 = LOCAL_TIME ( 11, 39, 5.000000000000000000, #117 ) ;
#117 = COORDINATED_UNIVERSAL_TIME_OFFSET ( 1, 0, .AHEAD. ) ;
#118 = CIRCLE ( 'NONE', #120, 9.315499999999987700 ) ;
#119 = CARTESIAN_POINT ( 'NONE',  ( 0.0000000000000000000, 0.0000000000000000000, -104.9999999999999900 ) ) ;
#120 = AXIS2_PLACEMENT_3D ( 'NONE', #119, #122, #121 ) ;
#121 = DIRECTION ( 'NONE',  ( 1.000000000000000000, 0.0000000000000000000, 0.0000000000000000000 ) ) ;
#122 = DIRECTION ( 'NONE',  ( -0.0000000000000000000, -0.0000000000000000000, 1.000000000000000000 ) ) ;
#123 = CARTESIAN_POINT ( 'NONE',  ( 0.0000000000000000000, 9.315499999999987700, -104.9999999999999900 ) ) ;
#124 = FACE_OUTER_BOUND ( 'NONE', #214, .T. ) ;
#125 = DIRECTION ( 'NONE',  ( -0.0000000000000000000, 3.911744792584156800E-017, -1.000000000000000000 ) ) ;
#126 = VECTOR ( 'NONE', #125, 1000.000000000000000 ) ;
#127 = CARTESIAN_POINT ( 'NONE',  ( 0.0000000000000000000, 9.315500000000005400, -120.0000000000000400 ) ) ;
#128 = LINE ( 'NONE', #127, #126 ) ;
#129 = CYLINDRICAL_SURFACE ( 'NONE', #130, 10.47749999999999700 ) ;
#130 = AXIS2_PLACEMENT_3D ( 'NONE', #132, #133, #131 ) ;
#131 = DIRECTION ( 'NONE',  ( 1.000000000000000000, 0.0000000000000000000, 0.0000000000000000000 ) ) ;
#132 = CARTESIAN_POINT ( 'NONE',  ( 0.0000000000000000000, 0.0000000000000000000, -4.336808689942017700E-016 ) ) ;
#133 = DIRECTION ( 'NONE',  ( -0.0000000000000000000, -0.0000000000000000000, 1.000000000000000000 ) ) ;
#134 = ORIENTED_EDGE ( 'NONE', *, *, #148, .F. ) ;
#135 = ORIENTED_EDGE ( 'NONE', *, *, #219, .T. ) ;
#136 = ORIENTED_EDGE ( 'NONE', *, *, #226, .T. ) ;
#137 = EDGE_CURVE ( 'NONE', #171, #170, #302, .T. ) ;
#138 = EDGE_CURVE ( 'NONE', #212, #211, #248, .T. ) ;
#139 = ORIENTED_EDGE ( 'NONE', *, *, #153, .T. ) ;
#140 = EDGE_LOOP ( 'NONE', ( #160, #161, #162, #156 ) ) ;
#141 = ORIENTED_EDGE ( 'NONE', *, *, #137, .T. ) ;
#142 = ORIENTED_EDGE ( 'NONE', *, *, #198, .T. ) ;
#143 = ORIENTED_EDGE ( 'NONE', *, *, #138, .T. ) ;
#144 = ORIENTED_EDGE ( 'NONE', *, *, #217, .T. ) ;
#145 = ORIENTED_EDGE ( 'NONE', *, *, #175, .F. ) ;
#146 = ADVANCED_FACE ( 'NONE', ( #249 ), #274, .T. ) ;
#147 = ORIENTED_EDGE ( 'NONE', *, *, #227, .F. ) ;
#148 = EDGE_CURVE ( 'NONE', #172, #218, #270, .T. ) ;
#149 = ORIENTED_EDGE ( 'NONE', *, *, #231, .T. ) ;
#150 = ORIENTED_EDGE ( 'NONE', *, *, #169, .T. ) ;
#151 = ADVANCED_FACE ( 'NONE', ( #265 ), #264, .F. ) ;
#152 = ORIENTED_EDGE ( 'NONE', *, *, #137, .F. ) ;
#153 = EDGE_CURVE ( 'NONE', #174, #234, #295, .T. ) ;
#154 = ADVANCED_FACE ( 'NONE', ( #290 ), #289, .F. ) ;
#155 = EDGE_LOOP ( 'NONE', ( #147, #152, #135, #134, #145 ) ) ;
#156 = ORIENTED_EDGE ( 'NONE', *, *, #159, .F. ) ;
#157 = EDGE_LOOP ( 'NONE', ( #141, #150 ) ) ;
#158 = ADVANCED_FACE ( 'NONE', ( #288, #283 ), #282, .F. ) ;
#159 = EDGE_CURVE ( 'NONE', #196, #199, #254, .T. ) ;
#160 = ORIENTED_EDGE ( 'NONE', *, *, #195, .F. ) ;
#161 = ORIENTED_EDGE ( 'NONE', *, *, #181, .T. ) ;
#162 = ORIENTED_EDGE ( 'NONE', *, *, #201, .T. ) ;
#163 = ORIENTED_EDGE ( 'NONE', *, *, #138, .F. ) ;
#164 = EDGE_LOOP ( 'NONE', ( #182, #165 ) ) ;
#165 = ORIENTED_EDGE ( 'NONE', *, *, #166, .T. ) ;
#166 = EDGE_CURVE ( 'NONE', #179, #206, #312, .T. ) ;
#167 = EDGE_LOOP ( 'NONE', ( #183, #163, #136, #139 ) ) ;
#168 = ORIENTED_EDGE ( 'NONE', *, *, #169, .F. ) ;
#169 = EDGE_CURVE ( 'NONE', #170, #171, #322, .T. ) ;
#170 = VERTEX_POINT ( 'NONE', #315 ) ;
#171 = VERTEX_POINT ( 'NONE', #309 ) ;
#172 = VERTEX_POINT ( 'NONE', #308 ) ;
#173 = VERTEX_POINT ( 'NONE', #307 ) ;
#174 = VERTEX_POINT ( 'NONE', #310 ) ;
#175 = EDGE_CURVE ( 'NONE', #173, #172, #313, .T. ) ;
#176 = ORIENTED_EDGE ( 'NONE', *, *, #177, .T. ) ;
#177 = EDGE_CURVE ( 'NONE', #172, #174, #318, .T. ) ;
#178 = EDGE_CURVE ( 'NONE', #212, #179, #329, .T. ) ;
#179 = VERTEX_POINT ( 'NONE', #368 ) ;
#180 = ADVANCED_FACE ( 'NONE', ( #345 ), #347, .F. ) ;
#181 = EDGE_CURVE ( 'NONE', #193, #192, #362, .T. ) ;
#182 = ORIENTED_EDGE ( 'NONE', *, *, #205, .T. ) ;
#183 = ORIENTED_EDGE ( 'NONE', *, *, #223, .F. ) ;
#184 = ORIENTED_EDGE ( 'NONE', *, *, #181, .F. ) ;
#185 = ADVANCED_FACE ( 'NONE', ( #380, #335 ), #338, .F. ) ;
#186 = EDGE_LOOP ( 'NONE', ( #187, #184 ) ) ;
#187 = ORIENTED_EDGE ( 'NONE', *, *, #191, .F. ) ;
#188 = ORIENTED_EDGE ( 'NONE', *, *, #227, .T. ) ;
#189 = ORIENTED_EDGE ( 'NONE', *, *, #219, .F. ) ;
#190 = ORIENTED_EDGE ( 'NONE', *, *, #240, .F. ) ;
#191 = EDGE_CURVE ( 'NONE', #192, #193, #359, .T. ) ;
#192 = VERTEX_POINT ( 'NONE', #372 ) ;
#193 = VERTEX_POINT ( 'NONE', #371 ) ;
#194 = ORIENTED_EDGE ( 'NONE', *, *, #195, .T. ) ;
#195 = EDGE_CURVE ( 'NONE', #193, #196, #344, .T. ) ;
#196 = VERTEX_POINT ( 'NONE', #340 ) ;
#197 = ORIENTED_EDGE ( 'NONE', *, *, #198, .F. ) ;
#198 = EDGE_CURVE ( 'NONE', #199, #196, #367, .T. ) ;
#199 = VERTEX_POINT ( 'NONE', #357 ) ;
#200 = ORIENTED_EDGE ( 'NONE', *, *, #201, .F. ) ;
#201 = EDGE_CURVE ( 'NONE', #192, #199, #356, .T. ) ;
#202 = ADVANCED_FACE ( 'NONE', ( #352 ), #351, .F. ) ;
#203 = EDGE_LOOP ( 'NONE', ( #168, #188, #215, #216, #189 ) ) ;
#204 = ORIENTED_EDGE ( 'NONE', *, *, #205, .F. ) ;
#205 = EDGE_CURVE ( 'NONE', #206, #179, #389, .T. ) ;
#206 = VERTEX_POINT ( 'NONE', #390 ) ;
#207 = MANIFOLD_SOLID_BREP ( 'NONE', #250 ) ;
#208 = ADVANCED_FACE ( 'NONE', ( #399 ), #398, .F. ) ;
#209 = ORIENTED_EDGE ( 'NONE', *, *, #210, .T. ) ;
#210 = EDGE_CURVE ( 'NONE', #211, #212, #393, .T. ) ;
#211 = VERTEX_POINT ( 'NONE', #384 ) ;
#212 = VERTEX_POINT ( 'NONE', #383 ) ;
#213 = ORIENTED_EDGE ( 'NONE', *, *, #178, .T. ) ;
#214 = EDGE_LOOP ( 'NONE', ( #221, #222, #224, #225 ) ) ;
#215 = ORIENTED_EDGE ( 'NONE', *, *, #235, .F. ) ;
#216 = ORIENTED_EDGE ( 'NONE', *, *, #217, .F. ) ;
#217 = EDGE_CURVE ( 'NONE', #218, #232, #118, .T. ) ;
#218 = VERTEX_POINT ( 'NONE', #123 ) ;
#219 = EDGE_CURVE ( 'NONE', #171, #218, #128, .T. ) ;
#220 = ADVANCED_FACE ( 'NONE', ( #124 ), #129, .F. ) ;
#221 = ORIENTED_EDGE ( 'NONE', *, *, #210, .F. ) ;
#222 = ORIENTED_EDGE ( 'NONE', *, *, #223, .T. ) ;
#223 = EDGE_CURVE ( 'NONE', #211, #234, #11, .T. ) ;
#224 = ORIENTED_EDGE ( 'NONE', *, *, #233, .T. ) ;
#225 = ORIENTED_EDGE ( 'NONE', *, *, #226, .F. ) ;
#226 = EDGE_CURVE ( 'NONE', #212, #174, #7, .T. ) ;
#227 = EDGE_CURVE ( 'NONE', #170, #173, #3, .T. ) ;
#228 = ORIENTED_EDGE ( 'NONE', *, *, #235, .T. ) ;
#229 = ORIENTED_EDGE ( 'NONE', *, *, #231, .F. ) ;
#230 = ORIENTED_EDGE ( 'NONE', *, *, #233, .F. ) ;
#231 = EDGE_CURVE ( 'NONE', #232, #234, #418, .T. ) ;
#232 = VERTEX_POINT ( 'NONE', #414 ) ;
#233 = EDGE_CURVE ( 'NONE', #234, #174, #413, .T. ) ;
#234 = VERTEX_POINT ( 'NONE', #408 ) ;
#235 = EDGE_CURVE ( 'NONE', #232, #173, #407, .T. ) ;
#236 = ADVANCED_FACE ( 'NONE', ( #402 ), #401, .T. ) ;
#237 = EDGE_LOOP ( 'NONE', ( #238, #194, #197, #200 ) ) ;
#238 = ORIENTED_EDGE ( 'NONE', *, *, #191, .T. ) ;
#239 = EDGE_LOOP ( 'NONE', ( #209, #213, #204, #190 ) ) ;
#240 = EDGE_CURVE ( 'NONE', #211, #206, #32, .T. ) ;
#241 = ORIENTED_EDGE ( 'NONE', *, *, #175, .T. ) ;
#242 = EDGE_LOOP ( 'NONE', ( #241, #176, #230, #229, #228 ) ) ;
#243 = ADVANCED_FACE ( 'NONE', ( #28 ), #26, .F. ) ;
#244 = EDGE_LOOP ( 'NONE', ( #245, #143, #279, #280 ) ) ;
#245 = ORIENTED_EDGE ( 'NONE', *, *, #178, .F. ) ;
#246 = ORIENTED_EDGE ( 'NONE', *, *, #177, .F. ) ;
#247 = AXIS2_PLACEMENT_3D ( 'NONE', #278, #277, #276 ) ;
#248 = CIRCLE ( 'NONE', #247, 10.47749999999999700 ) ;
#249 = FACE_OUTER_BOUND ( 'NONE', #140, .T. ) ;
#250 = CLOSED_SHELL ( 'NONE', ( #208, #243, #236, #202, #220, #185, #180, #154, #146, #158, #297, #151 ) ) ;
#251 = DIRECTION ( 'NONE',  ( 1.000000000000000000, 0.0000000000000000000, 0.0000000000000000000 ) ) ;
#252 = DIRECTION ( 'NONE',  ( -0.0000000000000000000, -0.0000000000000000000, 1.000000000000000000 ) ) ;
#253 = AXIS2_PLACEMENT_3D ( 'NONE', #259, #252, #251 ) ;
#254 = CIRCLE ( 'NONE', #253, 13.15000000000000000 ) ;
#255 = DIRECTION ( 'NONE',  ( 0.0000000000000000000, 1.000000000000000000, 0.0000000000000000000 ) ) ;
#256 = DIRECTION ( 'NONE',  ( -1.000000000000000000, 0.0000000000000000000, -0.0000000000000000000 ) ) ;
#257 = DIRECTION ( 'NONE',  ( 0.0000000000000000000, 0.0000000000000000000, -1.000000000000000000 ) ) ;
#258 = CARTESIAN_POINT ( 'NONE',  ( 0.0000000000000000000, 13.15000000000000000, -2.168404344971008900E-016 ) ) ;
#259 = CARTESIAN_POINT ( 'NONE',  ( 0.0000000000000000000, 0.0000000000000000000, 0.0000000000000000000 ) ) ;
#260 = DIRECTION ( 'NONE',  ( -1.000000000000000000, 0.0000000000000000000, 0.0000000000000000000 ) ) ;
#261 = DIRECTION ( 'NONE',  ( 0.0000000000000000000, 0.0000000000000000000, -1.000000000000000000 ) ) ;
#262 = CARTESIAN_POINT ( 'NONE',  ( 0.0000000000000000000, 0.0000000000000000000, -120.0000000000000000 ) ) ;
#263 = AXIS2_PLACEMENT_3D ( 'NONE', #262, #261, #260 ) ;
#264 = CONICAL_SURFACE ( 'NONE', #263, 10.84338236234973300, 0.7853981633974721500 ) ;
#265 = FACE_OUTER_BOUND ( 'NONE', #244, .T. ) ;
#266 = DIRECTION ( 'NONE',  ( 1.000000000000000000, 0.0000000000000000000, 0.0000000000000000000 ) ) ;
#267 = DIRECTION ( 'NONE',  ( -0.0000000000000000000, -0.0000000000000000000, 1.000000000000000000 ) ) ;
#268 = CARTESIAN_POINT ( 'NONE',  ( 0.0000000000000000000, 0.0000000000000000000, -104.9999999999999900 ) ) ;
#269 = AXIS2_PLACEMENT_3D ( 'NONE', #268, #267, #266 ) ;
#270 = CIRCLE ( 'NONE', #269, 9.315499999999987700 ) ;
#271 = DIRECTION ( 'NONE',  ( 1.000000000000000000, 0.0000000000000000000, 0.0000000000000000000 ) ) ;
#272 = DIRECTION ( 'NONE',  ( -0.0000000000000000000, -0.0000000000000000000, 1.000000000000000000 ) ) ;
#273 = AXIS2_PLACEMENT_3D ( 'NONE', #275, #272, #271 ) ;
#274 = CYLINDRICAL_SURFACE ( 'NONE', #273, 13.14999999999999900 ) ;
#275 = CARTESIAN_POINT ( 'NONE',  ( 0.0000000000000000000, 0.0000000000000000000, -4.336808689942017700E-016 ) ) ;
#276 = DIRECTION ( 'NONE',  ( 1.000000000000000000, 0.0000000000000000000, 0.0000000000000000000 ) ) ;
#277 = DIRECTION ( 'NONE',  ( -0.0000000000000000000, -0.0000000000000000000, 1.000000000000000000 ) ) ;
#278 = CARTESIAN_POINT ( 'NONE',  ( 0.0000000000000000000, 0.0000000000000000000, -119.6341176376502800 ) ) ;
#279 = ORIENTED_EDGE ( 'NONE', *, *, #240, .T. ) ;
#280 = ORIENTED_EDGE ( 'NONE', *, *, #166, .F. ) ;
#281 = AXIS2_PLACEMENT_3D ( 'NONE', #258, #257, #256 ) ;
#282 = PLANE ( 'NONE',  #281 ) ;
#283 = FACE_OUTER_BOUND ( 'NONE', #304, .T. ) ;
#284 = DIRECTION ( 'NONE',  ( 0.0000000000000000000, 1.000000000000000000, 0.0000000000000000000 ) ) ;
#285 = DIRECTION ( 'NONE',  ( -0.0000000000000000000, 3.911744792584156800E-017, -1.000000000000000000 ) ) ;
#286 = CARTESIAN_POINT ( 'NONE',  ( 0.0000000000000000000, 1.224646799147375100E-015, -120.0000000000000400 ) ) ;
#287 = AXIS2_PLACEMENT_3D ( 'NONE', #286, #285, #284 ) ;
#288 = FACE_BOUND ( 'NONE', #157, .T. ) ;
#289 = CYLINDRICAL_SURFACE ( 'NONE', #287, 9.315500000000003700 ) ;
#290 = FACE_OUTER_BOUND ( 'NONE', #155, .T. ) ;
#291 = DIRECTION ( 'NONE',  ( 1.000000000000000000, 0.0000000000000000000, 0.0000000000000000000 ) ) ;
#292 = DIRECTION ( 'NONE',  ( -0.0000000000000000000, -0.0000000000000000000, 1.000000000000000000 ) ) ;
#293 = CARTESIAN_POINT ( 'NONE',  ( 0.0000000000000000000, 0.0000000000000000000, -105.9069999999999700 ) ) ;
#294 = AXIS2_PLACEMENT_3D ( 'NONE', #293, #292, #291 ) ;
#295 = CIRCLE ( 'NONE', #294, 10.47749999999999700 ) ;
#296 = EDGE_LOOP ( 'NONE', ( #246, #305, #144, #149, #303 ) ) ;
#297 = ADVANCED_FACE ( 'NONE', ( #27 ), #21, .F. ) ;
#298 = DIRECTION ( 'NONE',  ( 0.0000000000000000000, 1.000000000000000000, 3.911744792584156100E-017 ) ) ;
#299 = DIRECTION ( 'NONE',  ( -0.0000000000000000000, 3.911744792584156800E-017, -1.000000000000000000 ) ) ;
#300 = CARTESIAN_POINT ( 'NONE',  ( 0.0000000000000000000, -3.469446951953614200E-015, 0.0000000000000000000 ) ) ;
#301 = AXIS2_PLACEMENT_3D ( 'NONE', #300, #299, #298 ) ;
#302 = CIRCLE ( 'NONE', #301, 9.315499999999991200 ) ;
#303 = ORIENTED_EDGE ( 'NONE', *, *, #153, .F. ) ;
#304 = EDGE_LOOP ( 'NONE', ( #142, #306 ) ) ;
#305 = ORIENTED_EDGE ( 'NONE', *, *, #148, .T. ) ;
#306 = ORIENTED_EDGE ( 'NONE', *, *, #159, .T. ) ;
#307 = CARTESIAN_POINT ( 'NONE',  ( 1.140782048903235200E-015, -9.315499999999987700, -104.9999999999999900 ) ) ;
#308 = CARTESIAN_POINT ( 'NONE',  ( 9.315499999999987700, 1.211931678060314700E-015, -104.9999999999999900 ) ) ;
#309 = CARTESIAN_POINT ( 'NONE',  ( 0.0000000000000000000, 9.315499999999987700, 3.643985861531767100E-016 ) ) ;
#310 = CARTESIAN_POINT ( 'NONE',  ( 10.47749999999999700, 0.0000000000000000000, -105.9069999999999700 ) ) ;
#311 = CARTESIAN_POINT ( 'NONE',  ( 0.0000000000000000000, -3.469446951953614200E-015, 0.0000000000000000000 ) ) ;
#312 = CIRCLE ( 'NONE', #320, 10.84338236234973300 ) ;
#313 = CIRCLE ( 'NONE', #323, 9.315499999999987700 ) ;
#314 = DIRECTION ( 'NONE',  ( 1.000000000000000000, 0.0000000000000000000, 0.0000000000000000000 ) ) ;
#315 = CARTESIAN_POINT ( 'NONE',  ( 1.140782048903235600E-015, -9.315499999999994800, -3.643985861531767600E-016 ) ) ;
#316 = DIRECTION ( 'NONE',  ( 0.7882917068561162700, 9.653470328814866600E-017, -0.6153017023394871100 ) ) ;
#317 = CARTESIAN_POINT ( 'NONE',  ( 10.47749999999999700, 1.283081307217395400E-015, -105.9069999999999700 ) ) ;
#318 = LINE ( 'NONE', #317, #330 ) ;
#319 = DIRECTION ( 'NONE',  ( -0.0000000000000000000, -0.0000000000000000000, 1.000000000000000000 ) ) ;
#320 = AXIS2_PLACEMENT_3D ( 'NONE', #334, #319, #314 ) ;
#321 = DIRECTION ( 'NONE',  ( 0.0000000000000000000, 1.000000000000000000, 3.911744792584156100E-017 ) ) ;
#322 = CIRCLE ( 'NONE', #324, 9.315499999999991200 ) ;
#323 = AXIS2_PLACEMENT_3D ( 'NONE', #327, #326, #325 ) ;
#324 = AXIS2_PLACEMENT_3D ( 'NONE', #311, #328, #321 ) ;
#325 = DIRECTION ( 'NONE',  ( 1.000000000000000000, 0.0000000000000000000, 0.0000000000000000000 ) ) ;
#326 = DIRECTION ( 'NONE',  ( -0.0000000000000000000, -0.0000000000000000000, 1.000000000000000000 ) ) ;
#327 = CARTESIAN_POINT ( 'NONE',  ( 0.0000000000000000000, 0.0000000000000000000, -104.9999999999999900 ) ) ;
#328 = DIRECTION ( 'NONE',  ( -0.0000000000000000000, 3.911744792584156800E-017, -1.000000000000000000 ) ) ;
#329 = LINE ( 'NONE', #333, #332 ) ;
#330 = VECTOR ( 'NONE', #316, 1000.000000000000100 ) ;
#331 = DIRECTION ( 'NONE',  ( 0.7071067811865643400, 8.659274570719561300E-017, -0.7071067811865307000 ) ) ;
#332 = VECTOR ( 'NONE', #331, 1000.000000000000000 ) ;
#333 = CARTESIAN_POINT ( 'NONE',  ( 10.84338236234973300, 1.327887493785898100E-015, -120.0000000000000000 ) ) ;
#334 = CARTESIAN_POINT ( 'NONE',  ( 0.0000000000000000000, 0.0000000000000000000, -120.0000000000000000 ) ) ;
#335 = FACE_BOUND ( 'NONE', #164, .T. ) ;
#336 = CARTESIAN_POINT ( 'NONE',  ( 0.0000000000000000000, 13.14999999999999900, -120.0000000000000000 ) ) ;
#337 = AXIS2_PLACEMENT_3D ( 'NONE', #336, #361, #360 ) ;
#338 = PLANE ( 'NONE',  #337 ) ;
#339 = DIRECTION ( 'NONE',  ( -0.0000000000000000000, -0.0000000000000000000, 1.000000000000000000 ) ) ;
#340 = CARTESIAN_POINT ( 'NONE',  ( -13.15000000000000200, 1.610357355276426400E-015, 0.0000000000000000000 ) ) ;
#341 = DIRECTION ( 'NONE',  ( -0.0000000000000000000, -0.0000000000000000000, 1.000000000000000000 ) ) ;
#342 = VECTOR ( 'NONE', #341, 1000.000000000000000 ) ;
#343 = CARTESIAN_POINT ( 'NONE',  ( -13.14999999999999900, 1.610357355276426000E-015, -4.336808689942017700E-016 ) ) ;
#344 = LINE ( 'NONE', #343, #342 ) ;
#345 = FACE_OUTER_BOUND ( 'NONE', #167, .T. ) ;
#346 = DIRECTION ( 'NONE',  ( 1.000000000000000000, 0.0000000000000000000, 0.0000000000000000000 ) ) ;
#347 = CYLINDRICAL_SURFACE ( 'NONE', #377, 10.47749999999999700 ) ;
#348 = DIRECTION ( 'NONE',  ( -0.0000000000000000000, 3.911744792584156800E-017, -1.000000000000000000 ) ) ;
#349 = CARTESIAN_POINT ( 'NONE',  ( 0.0000000000000000000, 1.224646799147375100E-015, -120.0000000000000400 ) ) ;
#350 = AXIS2_PLACEMENT_3D ( 'NONE', #349, #348, #255 ) ;
#351 = CYLINDRICAL_SURFACE ( 'NONE', #350, 9.315500000000003700 ) ;
#352 = FACE_OUTER_BOUND ( 'NONE', #203, .T. ) ;
#353 = DIRECTION ( 'NONE',  ( -0.0000000000000000000, -0.0000000000000000000, 1.000000000000000000 ) ) ;
#354 = VECTOR ( 'NONE', #353, 1000.000000000000000 ) ;
#355 = CARTESIAN_POINT ( 'NONE',  ( 13.14999999999999900, 0.0000000000000000000, -4.336808689942017700E-016 ) ) ;
#356 = LINE ( 'NONE', #355, #354 ) ;
#357 = CARTESIAN_POINT ( 'NONE',  ( 13.15000000000000000, 0.0000000000000000000, 0.0000000000000000000 ) ) ;
#358 = AXIS2_PLACEMENT_3D ( 'NONE', #375, #374, #373 ) ;
#359 = CIRCLE ( 'NONE', #358, 13.14999999999999900 ) ;
#360 = DIRECTION ( 'NONE',  ( 1.000000000000000000, 0.0000000000000000000, 0.0000000000000000000 ) ) ;
#361 = DIRECTION ( 'NONE',  ( 0.0000000000000000000, -0.0000000000000000000, 1.000000000000000000 ) ) ;
#362 = CIRCLE ( 'NONE', #379, 13.14999999999999900 ) ;
#363 = DIRECTION ( 'NONE',  ( 1.000000000000000000, 0.0000000000000000000, 0.0000000000000000000 ) ) ;
#364 = DIRECTION ( 'NONE',  ( -0.0000000000000000000, -0.0000000000000000000, 1.000000000000000000 ) ) ;
#365 = CARTESIAN_POINT ( 'NONE',  ( 0.0000000000000000000, 0.0000000000000000000, 0.0000000000000000000 ) ) ;
#366 = AXIS2_PLACEMENT_3D ( 'NONE', #365, #364, #363 ) ;
#367 = CIRCLE ( 'NONE', #366, 13.15000000000000000 ) ;
#368 = CARTESIAN_POINT ( 'NONE',  ( 10.84338236234973300, 1.327887493785898100E-015, -120.0000000000000000 ) ) ;
#369 = DIRECTION ( 'NONE',  ( 1.000000000000000000, 0.0000000000000000000, 0.0000000000000000000 ) ) ;
#370 = DIRECTION ( 'NONE',  ( -0.0000000000000000000, -0.0000000000000000000, 1.000000000000000000 ) ) ;
#371 = CARTESIAN_POINT ( 'NONE',  ( -13.14999999999999900, 1.610357355276426000E-015, -120.0000000000000000 ) ) ;
#372 = CARTESIAN_POINT ( 'NONE',  ( 13.14999999999999900, 0.0000000000000000000, -120.0000000000000000 ) ) ;
#373 = DIRECTION ( 'NONE',  ( 1.000000000000000000, 0.0000000000000000000, 0.0000000000000000000 ) ) ;
#374 = DIRECTION ( 'NONE',  ( -0.0000000000000000000, -0.0000000000000000000, 1.000000000000000000 ) ) ;
#375 = CARTESIAN_POINT ( 'NONE',  ( 0.0000000000000000000, 0.0000000000000000000, -120.0000000000000000 ) ) ;
#376 = CARTESIAN_POINT ( 'NONE',  ( 0.0000000000000000000, 0.0000000000000000000, -4.336808689942017700E-016 ) ) ;
#377 = AXIS2_PLACEMENT_3D ( 'NONE', #376, #339, #346 ) ;
#378 = CARTESIAN_POINT ( 'NONE',  ( 0.0000000000000000000, 0.0000000000000000000, -120.0000000000000000 ) ) ;
#379 = AXIS2_PLACEMENT_3D ( 'NONE', #378, #370, #369 ) ;
#380 = FACE_OUTER_BOUND ( 'NONE', #186, .T. ) ;
#381 = DIRECTION ( 'NONE',  ( 1.000000000000000000, 0.0000000000000000000, 0.0000000000000000000 ) ) ;
#382 = DIRECTION ( 'NONE',  ( -0.0000000000000000000, -0.0000000000000000000, 1.000000000000000000 ) ) ;
#383 = CARTESIAN_POINT ( 'NONE',  ( 10.47749999999999700, 0.0000000000000000000, -119.6341176376502800 ) ) ;
#384 = CARTESIAN_POINT ( 'NONE',  ( -10.47749999999999700, 1.283081307217395400E-015, -119.6341176376502800 ) ) ;
#385 = DIRECTION ( 'NONE',  ( 1.000000000000000000, 0.0000000000000000000, 0.0000000000000000000 ) ) ;
#386 = DIRECTION ( 'NONE',  ( -0.0000000000000000000, -0.0000000000000000000, 1.000000000000000000 ) ) ;
#387 = CARTESIAN_POINT ( 'NONE',  ( 0.0000000000000000000, 0.0000000000000000000, -119.6341176376502800 ) ) ;
#388 = AXIS2_PLACEMENT_3D ( 'NONE', #387, #386, #385 ) ;
#389 = CIRCLE ( 'NONE', #392, 10.84338236234973300 ) ;
#390 = CARTESIAN_POINT ( 'NONE',  ( -10.84338236234973300, 0.0000000000000000000, -120.0000000000000000 ) ) ;
#391 = CARTESIAN_POINT ( 'NONE',  ( 0.0000000000000000000, 0.0000000000000000000, -120.0000000000000000 ) ) ;
#392 = AXIS2_PLACEMENT_3D ( 'NONE', #391, #382, #381 ) ;
#393 = CIRCLE ( 'NONE', #388, 10.47749999999999700 ) ;
#394 = DIRECTION ( 'NONE',  ( -1.000000000000000000, 0.0000000000000000000, 0.0000000000000000000 ) ) ;
#395 = DIRECTION ( 'NONE',  ( 0.0000000000000000000, 0.0000000000000000000, -1.000000000000000000 ) ) ;
#396 = CARTESIAN_POINT ( 'NONE',  ( 0.0000000000000000000, 0.0000000000000000000, -120.0000000000000000 ) ) ;
#397 = AXIS2_PLACEMENT_3D ( 'NONE', #396, #395, #394 ) ;
#398 = CONICAL_SURFACE ( 'NONE', #397, 10.84338236234973300, 0.7853981633974721500 ) ;
#399 = FACE_OUTER_BOUND ( 'NONE', #239, .T. ) ;
#400 = AXIS2_PLACEMENT_3D ( 'NONE', #35, #34, #33 ) ;
#401 = CYLINDRICAL_SURFACE ( 'NONE', #400, 13.14999999999999900 ) ;
#402 = FACE_OUTER_BOUND ( 'NONE', #237, .T. ) ;
#403 = DIRECTION ( 'NONE',  ( 1.000000000000000000, 0.0000000000000000000, 0.0000000000000000000 ) ) ;
#404 = DIRECTION ( 'NONE',  ( -0.0000000000000000000, -0.0000000000000000000, 1.000000000000000000 ) ) ;
#405 = CARTESIAN_POINT ( 'NONE',  ( 0.0000000000000000000, 0.0000000000000000000, -104.9999999999999900 ) ) ;
#406 = AXIS2_PLACEMENT_3D ( 'NONE', #405, #404, #403 ) ;
#407 = CIRCLE ( 'NONE', #406, 9.315499999999987700 ) ;
#408 = CARTESIAN_POINT ( 'NONE',  ( -10.47749999999999700, 1.283081307217395400E-015, -105.9069999999999700 ) ) ;
#409 = DIRECTION ( 'NONE',  ( 1.000000000000000000, 0.0000000000000000000, 0.0000000000000000000 ) ) ;
#410 = DIRECTION ( 'NONE',  ( -0.0000000000000000000, -0.0000000000000000000, 1.000000000000000000 ) ) ;
#411 = CARTESIAN_POINT ( 'NONE',  ( 0.0000000000000000000, 0.0000000000000000000, -105.9069999999999700 ) ) ;
#412 = AXIS2_PLACEMENT_3D ( 'NONE', #411, #410, #409 ) ;
#413 = CIRCLE ( 'NONE', #412, 10.47749999999999700 ) ;
#414 = CARTESIAN_POINT ( 'NONE',  ( -9.315499999999987700, 0.0000000000000000000, -104.9999999999999900 ) ) ;
#415 = DIRECTION ( 'NONE',  ( -0.7882917068561162700, 0.0000000000000000000, -0.6153017023394871100 ) ) ;
#416 = VECTOR ( 'NONE', #415, 1000.000000000000100 ) ;
#417 = CARTESIAN_POINT ( 'NONE',  ( -10.47749999999999700, 0.0000000000000000000, -105.9069999999999700 ) ) ;
#418 = LINE ( 'NONE', #417, #416 ) ;
#419 = DIRECTION ( 'NONE',  ( -0.0000000000000000000, 3.911744792584156800E-017, -1.000000000000000000 ) ) ;
ENDSEC;
END-ISO-10303-21;
