ISO-10303-21;
HEADER;
FILE_DESCRIPTION (( 'STEP AP203' ),
    '1' );
FILE_NAME ('3D_GR1432_42.4_188742140.STEP',
    '2024-10-23T09:12:43',
    ( '' ),
    ( '' ),
    'SwSTEP 2.0',
    'SolidWorks 2023',
    '' );
FILE_SCHEMA (( 'CONFIG_CONTROL_DESIGN' ));
ENDSEC;

DATA;
#1 = CC_DESIGN_PERSON_AND_ORGANIZATION_ASSIGNMENT ( #17, #240, ( #22 ) ) ;
#2 = FACE_OUTER_BOUND ( 'NONE', #4, .T. ) ;
#3 = VERTEX_POINT ( 'NONE', #174 ) ;
#4 = EDGE_LOOP ( 'NONE', ( #223, #48, #167, #126, #108, #257 ) ) ;
#5 = PERSON_AND_ORGANIZATION ( #267, #20 ) ;
#6 = ORIENTED_EDGE ( 'NONE', *, *, #246, .F. ) ;
#7 = DIRECTION ( 'NONE',  ( 0.000000000000000000, 0.000000000000000000, -1.000000000000000000 ) ) ;
#8 = EDGE_CURVE ( 'NONE', #70, #247, #162, .T. ) ;
#9 = CARTESIAN_POINT ( 'NONE',  ( -10.89565366168718619, 2.228330676863871318, 0.000000000000000000 ) ) ;
#10 = DIRECTION ( 'NONE',  ( -0.000000000000000000, -1.000000000000000000, -0.000000000000000000 ) ) ;
#11 = DIRECTION ( 'NONE',  ( 1.000000000000000000, 0.000000000000000000, 0.000000000000000000 ) ) ;
#12 = VECTOR ( 'NONE', #152, 1000.000000000000000 ) ;
#13 = APPROVAL_PERSON_ORGANIZATION ( #5, #237, #72 ) ;
#14 = ORIENTED_EDGE ( 'NONE', *, *, #260, .T. ) ;
#15 = DIRECTION ( 'NONE',  ( 1.000000000000000000, 0.000000000000000000, 0.000000000000000000 ) ) ;
#16 = CIRCLE ( 'NONE', #25, 21.19999999999999929 ) ;
#17 = PERSON_AND_ORGANIZATION ( #267, #20 ) ;
#18 = PERSON_AND_ORGANIZATION ( #267, #20 ) ;
#19 = DIRECTION ( 'NONE',  ( 1.000000000000000000, 0.000000000000000000, 0.000000000000000000 ) ) ;
#20 = ORGANIZATION ( 'UNSPECIFIED', 'UNSPECIFIED', '' ) ;
#21 = SPHERICAL_SURFACE ( 'NONE', #224, 47.09118517522676939 ) ;
#22 = PRODUCT_DEFINITION ( 'UNKNOWN', '', #155, #178 ) ;
#23 = ORIENTED_EDGE ( 'NONE', *, *, #187, .T. ) ;
#24 = EDGE_CURVE ( 'NONE', #27, #81, #124, .T. ) ;
#25 = AXIS2_PLACEMENT_3D ( 'NONE', #211, #10, #33 ) ;
#26 = APPROVAL_PERSON_ORGANIZATION ( #18, #115, #83 ) ;
#27 = VERTEX_POINT ( 'NONE', #79 ) ;
#28 = CARTESIAN_POINT ( 'NONE',  ( -10.89565366168718619, -42.04925351546086176, 0.000000000000000000 ) ) ;
#29 = VERTEX_POINT ( 'NONE', #139 ) ;
#30 = DIRECTION ( 'NONE',  ( -0.000000000000000000, -1.000000000000000000, -0.000000000000000000 ) ) ;
#31 = CYLINDRICAL_SURFACE ( 'NONE', #58, 21.20000000000000284 ) ;
#32 = CC_DESIGN_DATE_AND_TIME_ASSIGNMENT ( #140, #103, ( #22 ) ) ;
#33 = DIRECTION ( 'NONE',  ( 0.000000000000000000, 0.000000000000000000, -1.000000000000000000 ) ) ;
#34 = ADVANCED_FACE ( 'NONE', ( #233 ), #176, .F. ) ;
#35 = CARTESIAN_POINT ( 'NONE',  ( -10.89565366168718619, -3.124075944930048167E-15, 0.000000000000000000 ) ) ;
#36 = CALENDAR_DATE ( 2024, 23, 10 ) ;
#37 = AXIS2_PLACEMENT_3D ( 'NONE', #166, #244, #245 ) ;
#38 = SECURITY_CLASSIFICATION_LEVEL ( 'unclassified' ) ;
#39 =( GEOMETRIC_REPRESENTATION_CONTEXT ( 3 ) GLOBAL_UNCERTAINTY_ASSIGNED_CONTEXT ( ( #82 ) ) GLOBAL_UNIT_ASSIGNED_CONTEXT ( ( #172, #168, #78 ) ) REPRESENTATION_CONTEXT ( 'NONE', 'WORKASPACE' ) );
#40 = DIRECTION ( 'NONE',  ( -0.000000000000000000, -1.000000000000000000, -0.000000000000000000 ) ) ;
#41 = DIRECTION ( 'NONE',  ( 1.000000000000000000, 0.000000000000000000, -1.224646799147353207E-16 ) ) ;
#42 = EDGE_CURVE ( 'NONE', #81, #247, #71, .T. ) ;
#43 = ORIENTED_EDGE ( 'NONE', *, *, #181, .T. ) ;
#44 = DIRECTION ( 'NONE',  ( 1.224646799147353207E-16, -0.000000000000000000, 1.000000000000000000 ) ) ;
#45 = VECTOR ( 'NONE', #135, 1000.000000000000000 ) ;
#46 = DIRECTION ( 'NONE',  ( 0.000000000000000000, 0.000000000000000000, 1.000000000000000000 ) ) ;
#47 = PRODUCT ( '3D_GR1432_42.4_188742140', '3D_GR1432_42.4_188742140', '', ( #134 ) ) ;
#48 = ORIENTED_EDGE ( 'NONE', *, *, #99, .T. ) ;
#49 = DATE_AND_TIME ( #226, #235 ) ;
#50 = EDGE_LOOP ( 'NONE', ( #6, #112, #170, #192 ) ) ;
#51 = CARTESIAN_POINT ( 'NONE',  ( -10.89565366168718263, 5.041931659765907625, 0.000000000000000000 ) ) ;
#52 = EDGE_CURVE ( 'NONE', #70, #53, #262, .T. ) ;
#53 = VERTEX_POINT ( 'NONE', #220 ) ;
#54 = CIRCLE ( 'NONE', #200, 21.19999999999999929 ) ;
#55 = AXIS2_PLACEMENT_3D ( 'NONE', #255, #252, #156 ) ;
#56 = DIRECTION ( 'NONE',  ( 0.000000000000000000, 0.000000000000000000, -1.000000000000000000 ) ) ;
#57 = CARTESIAN_POINT ( 'NONE',  ( -10.89565366168718619, 2.228330676863871318, 0.000000000000000000 ) ) ;
#58 = AXIS2_PLACEMENT_3D ( 'NONE', #186, #30, #7 ) ;
#59 = CC_DESIGN_PERSON_AND_ORGANIZATION_ASSIGNMENT ( #120, #214, ( #155 ) ) ;
#60 = DIRECTION ( 'NONE',  ( -0.000000000000000000, -1.000000000000000000, -0.000000000000000000 ) ) ;
#61 = DATE_TIME_ROLE ( 'classification_date' ) ;
#62 = PERSON_AND_ORGANIZATION ( #267, #20 ) ;
#63 = CIRCLE ( 'NONE', #95, 47.09118517522676939 ) ;
#64 = ADVANCED_BREP_SHAPE_REPRESENTATION ( '3D_GR1432_42.4_188742140', ( #96, #55 ), #39 ) ;
#65 = ADVANCED_FACE ( 'NONE', ( #107 ), #21, .F. ) ;
#66 = DIRECTION ( 'NONE',  ( 1.000000000000000000, 0.000000000000000000, 0.000000000000000000 ) ) ;
#67 = AXIS2_PLACEMENT_3D ( 'NONE', #258, #60, #234 ) ;
#68 = LOCAL_TIME ( 11, 12, 43.00000000000000000, #160 ) ;
#69 = DIRECTION ( 'NONE',  ( 1.000000000000000000, 0.000000000000000000, -1.224646799147353207E-16 ) ) ;
#70 = VERTEX_POINT ( 'NONE', #145 ) ;
#71 = CIRCLE ( 'NONE', #90, 21.19999999999999929 ) ;
#72 = APPROVAL_ROLE ( '' ) ;
#73 = ORIENTED_EDGE ( 'NONE', *, *, #8, .F. ) ;
#74 = DIRECTION ( 'NONE',  ( -0.000000000000000000, -1.000000000000000000, -0.000000000000000000 ) ) ;
#75 = CARTESIAN_POINT ( 'NONE',  ( -10.89565366168718441, -2.337319828776047907E-15, 21.20000000000000284 ) ) ;
#76 = CC_DESIGN_APPROVAL ( #237, ( #22 ) ) ;
#77 = EDGE_CURVE ( 'NONE', #109, #153, #213, .T. ) ;
#78 =( NAMED_UNIT ( * ) SI_UNIT ( $, .STERADIAN. ) SOLID_ANGLE_UNIT ( ) );
#79 = CARTESIAN_POINT ( 'NONE',  ( -10.89565366168718441, -3.124075944930048167E-15, 21.19999999999999929 ) ) ;
#80 = CLOSED_SHELL ( 'NONE', ( #65, #207, #180, #111, #89, #34 ) ) ;
#81 = VERTEX_POINT ( 'NONE', #104 ) ;
#82 = UNCERTAINTY_MEASURE_WITH_UNIT (LENGTH_MEASURE( 1.000000000000000082E-05 ), #172, 'distance_accuracy_value', 'NONE');
#83 = APPROVAL_ROLE ( '' ) ;
#84 = APPROVAL_PERSON_ORGANIZATION ( #62, #106, #259 ) ;
#85 = DIRECTION ( 'NONE',  ( 0.000000000000000000, 0.000000000000000000, -1.000000000000000000 ) ) ;
#86 = CARTESIAN_POINT ( 'NONE',  ( -10.89565366168718619, -42.04925351546086176, 0.000000000000000000 ) ) ;
#87 = ORIENTED_EDGE ( 'NONE', *, *, #131, .F. ) ;
#88 = APPLICATION_PROTOCOL_DEFINITION ( 'international standard', 'config_control_design', 1994, #158 ) ;
#89 = ADVANCED_FACE ( 'NONE', ( #123 ), #202, .T. ) ;
#90 = AXIS2_PLACEMENT_3D ( 'NONE', #35, #102, #264 ) ;
#91 = DIRECTION ( 'NONE',  ( 0.000000000000000000, 0.000000000000000000, -1.000000000000000000 ) ) ;
#92 = SPHERICAL_SURFACE ( 'NONE', #196, 49.09118517522677649 ) ;
#93 = ORIENTED_EDGE ( 'NONE', *, *, #99, .F. ) ;
#94 = DIRECTION ( 'NONE',  ( 0.000000000000000000, 0.000000000000000000, -1.000000000000000000 ) ) ;
#95 = AXIS2_PLACEMENT_3D ( 'NONE', #28, #94, #169 ) ;
#96 = MANIFOLD_SOLID_BREP ( 'Rotation3', #80 ) ;
#97 = ORIENTED_EDGE ( 'NONE', *, *, #24, .T. ) ;
#98 = ORIENTED_EDGE ( 'NONE', *, *, #173, .F. ) ;
#99 = EDGE_CURVE ( 'NONE', #29, #153, #161, .T. ) ;
#100 = APPROVAL_STATUS ( 'not_yet_approved' ) ;
#101 = AXIS2_PLACEMENT_3D ( 'NONE', #127, #204, #69 ) ;
#102 = DIRECTION ( 'NONE',  ( -0.000000000000000000, -1.000000000000000000, -0.000000000000000000 ) ) ;
#103 = DATE_TIME_ROLE ( 'creation_date' ) ;
#104 = CARTESIAN_POINT ( 'NONE',  ( -32.09565366168718725, -1.562037972465024083E-15, 2.596251214192388770E-15 ) ) ;
#105 = SECURITY_CLASSIFICATION ( '', '', #38 ) ;
#106 = APPROVAL ( #142, 'UNSPECIFIED' ) ;
#107 = FACE_OUTER_BOUND ( 'NONE', #50, .T. ) ;
#108 = ORIENTED_EDGE ( 'NONE', *, *, #42, .F. ) ;
#109 = VERTEX_POINT ( 'NONE', #182 ) ;
#110 = PERSON_AND_ORGANIZATION_ROLE ( 'design_owner' ) ;
#111 = ADVANCED_FACE ( 'NONE', ( #2 ), #143, .T. ) ;
#112 = ORIENTED_EDGE ( 'NONE', *, *, #141, .T. ) ;
#113 = CARTESIAN_POINT ( 'NONE',  ( -10.89565366168718619, -3.124075944930048167E-15, 0.000000000000000000 ) ) ;
#114 = AXIS2_PLACEMENT_3D ( 'NONE', #164, #241, #66 ) ;
#115 = APPROVAL ( #100, 'UNSPECIFIED' ) ;
#116 = FACE_OUTER_BOUND ( 'NONE', #251, .T. ) ;
#117 = AXIS2_PLACEMENT_3D ( 'NONE', #86, #44, #41 ) ;
#118 = CC_DESIGN_PERSON_AND_ORGANIZATION_ASSIGNMENT ( #231, #110, ( #47 ) ) ;
#119 = CARTESIAN_POINT ( 'NONE',  ( -10.89565366168718619, -42.04925351546086176, 0.000000000000000000 ) ) ;
#120 = PERSON_AND_ORGANIZATION ( #267, #20 ) ;
#121 = AXIS2_PLACEMENT_3D ( 'NONE', #119, #195, #15 ) ;
#122 = COORDINATED_UNIVERSAL_TIME_OFFSET ( 1, 0, .AHEAD. ) ;
#123 = FACE_OUTER_BOUND ( 'NONE', #189, .T. ) ;
#124 = CIRCLE ( 'NONE', #67, 21.19999999999999929 ) ;
#125 = CC_DESIGN_APPROVAL ( #106, ( #155 ) ) ;
#126 = ORIENTED_EDGE ( 'NONE', *, *, #8, .T. ) ;
#127 = CARTESIAN_POINT ( 'NONE',  ( -10.89565366168718619, -42.04925351546086176, 0.000000000000000000 ) ) ;
#128 = ORIENTED_EDGE ( 'NONE', *, *, #141, .F. ) ;
#129 = DIRECTION ( 'NONE',  ( -0.000000000000000000, -1.000000000000000000, -0.000000000000000000 ) ) ;
#130 = CARTESIAN_POINT ( 'NONE',  ( -10.89565366168718619, -3.124075944930048167E-15, -21.19999999999999929 ) ) ;
#131 = EDGE_CURVE ( 'NONE', #109, #53, #208, .T. ) ;
#132 = ORIENTED_EDGE ( 'NONE', *, *, #77, .T. ) ;
#133 = CIRCLE ( 'NONE', #249, 21.20000000000000284 ) ;
#134 = MECHANICAL_CONTEXT ( 'NONE', #158, 'mechanical' ) ;
#135 = DIRECTION ( 'NONE',  ( -0.000000000000000000, -1.000000000000000000, -0.000000000000000000 ) ) ;
#136 = CARTESIAN_POINT ( 'NONE',  ( -10.89565366168718619, -42.04925351546086176, 0.000000000000000000 ) ) ;
#137 = APPROVAL_DATE_TIME ( #217, #106 ) ;
#138 = APPROVAL_DATE_TIME ( #49, #237 ) ;
#139 = CARTESIAN_POINT ( 'NONE',  ( -10.89565366168718441, 2.228330676863871318, 21.20000000000000284 ) ) ;
#140 = DATE_AND_TIME ( #199, #183 ) ;
#141 = EDGE_CURVE ( 'NONE', #203, #81, #265, .T. ) ;
#142 = APPROVAL_STATUS ( 'not_yet_approved' ) ;
#143 = CYLINDRICAL_SURFACE ( 'NONE', #256, 21.20000000000000284 ) ;
#144 = AXIS2_PLACEMENT_3D ( 'NONE', #9, #129, #91 ) ;
#145 = CARTESIAN_POINT ( 'NONE',  ( -10.89565366168718619, 2.228330676863871318, -21.20000000000000284 ) ) ;
#146 = CARTESIAN_POINT ( 'NONE',  ( -10.89565366168718619, -42.04925351546086176, 0.000000000000000000 ) ) ;
#147 = PRODUCT_RELATED_PRODUCT_CATEGORY ( 'detail', '', ( #47 ) ) ;
#148 = EDGE_LOOP ( 'NONE', ( #128, #151, #43, #97 ) ) ;
#149 = CIRCLE ( 'NONE', #144, 21.20000000000000284 ) ;
#150 = COORDINATED_UNIVERSAL_TIME_OFFSET ( 1, 0, .AHEAD. ) ;
#151 = ORIENTED_EDGE ( 'NONE', *, *, #246, .T. ) ;
#152 = DIRECTION ( 'NONE',  ( -0.000000000000000000, -1.000000000000000000, -0.000000000000000000 ) ) ;
#153 = VERTEX_POINT ( 'NONE', #206 ) ;
#154 = CARTESIAN_POINT ( 'NONE',  ( -10.89565366168718619, 2.228330676863871318, 0.000000000000000000 ) ) ;
#155 = PRODUCT_DEFINITION_FORMATION_WITH_SPECIFIED_SOURCE ( 'ANY', '', #47, .NOT_KNOWN. ) ;
#156 = DIRECTION ( 'NONE',  ( 1.000000000000000000, 0.000000000000000000, 0.000000000000000000 ) ) ;
#157 = ORIENTED_EDGE ( 'NONE', *, *, #77, .F. ) ;
#158 = APPLICATION_CONTEXT ( 'configuration controlled 3d designs of mechanical parts and assemblies' ) ;
#159 = ORIENTED_EDGE ( 'NONE', *, *, #52, .F. ) ;
#160 = COORDINATED_UNIVERSAL_TIME_OFFSET ( 1, 0, .AHEAD. ) ;
#161 = CIRCLE ( 'NONE', #37, 21.20000000000000284 ) ;
#162 = LINE ( 'NONE', #238, #45 ) ;
#163 = APPROVAL_DATE_TIME ( #263, #115 ) ;
#164 = CARTESIAN_POINT ( 'NONE',  ( -10.89565366168718619, -42.04925351546086176, 0.000000000000000000 ) ) ;
#165 = CARTESIAN_POINT ( 'NONE',  ( -10.89565366168718619, -2.337319828776047907E-15, 0.000000000000000000 ) ) ;
#166 = CARTESIAN_POINT ( 'NONE',  ( -10.89565366168718619, 2.228330676863871318, 0.000000000000000000 ) ) ;
#167 = ORIENTED_EDGE ( 'NONE', *, *, #173, .T. ) ;
#168 =( NAMED_UNIT ( * ) PLANE_ANGLE_UNIT ( ) SI_UNIT ( $, .RADIAN. ) );
#169 = DIRECTION ( 'NONE',  ( -1.000000000000000000, 0.000000000000000000, 0.000000000000000000 ) ) ;
#170 = ORIENTED_EDGE ( 'NONE', *, *, #42, .T. ) ;
#171 = DIRECTION ( 'NONE',  ( 0.000000000000000000, 0.000000000000000000, -1.000000000000000000 ) ) ;
#172 =( LENGTH_UNIT ( ) NAMED_UNIT ( * ) SI_UNIT ( .MILLI., .METRE. ) );
#173 = EDGE_CURVE ( 'NONE', #153, #70, #133, .T. ) ;
#174 = CARTESIAN_POINT ( 'NONE',  ( 10.30434633831281488, -1.562037972465024083E-15, 0.000000000000000000 ) ) ;
#175 = CC_DESIGN_PERSON_AND_ORGANIZATION_ASSIGNMENT ( #218, #261, ( #155 ) ) ;
#176 = SPHERICAL_SURFACE ( 'NONE', #121, 47.09118517522676939 ) ;
#177 = CALENDAR_DATE ( 2024, 23, 10 ) ;
#178 = DESIGN_CONTEXT ( 'detailed design', #193, 'design' ) ;
#179 = DIRECTION ( 'NONE',  ( -1.000000000000000000, 0.000000000000000000, 0.000000000000000000 ) ) ;
#180 = ADVANCED_FACE ( 'NONE', ( #190 ), #31, .T. ) ;
#181 = EDGE_CURVE ( 'NONE', #3, #27, #54, .T. ) ;
#182 = CARTESIAN_POINT ( 'NONE',  ( -10.89565366168718263, 7.041931659765916507, 0.000000000000000000 ) ) ;
#183 = LOCAL_TIME ( 11, 12, 43.00000000000000000, #197 ) ;
#184 = DIRECTION ( 'NONE',  ( 0.000000000000000000, 0.000000000000000000, -1.000000000000000000 ) ) ;
#185 = APPLICATION_PROTOCOL_DEFINITION ( 'international standard', 'config_control_design', 1994, #193 ) ;
#186 = CARTESIAN_POINT ( 'NONE',  ( -10.89565366168718619, -2.337319828776047907E-15, 0.000000000000000000 ) ) ;
#187 = EDGE_CURVE ( 'NONE', #53, #29, #149, .T. ) ;
#188 = PRODUCT_DEFINITION_SHAPE ( 'NONE', 'NONE',  #22 ) ;
#189 = EDGE_LOOP ( 'NONE', ( #157, #205, #159, #98 ) ) ;
#190 = FACE_OUTER_BOUND ( 'NONE', #210, .T. ) ;
#191 = EDGE_CURVE ( 'NONE', #247, #3, #16, .T. ) ;
#192 = ORIENTED_EDGE ( 'NONE', *, *, #191, .T. ) ;
#193 = APPLICATION_CONTEXT ( 'configuration controlled 3d designs of mechanical parts and assemblies' ) ;
#194 = PERSON_AND_ORGANIZATION ( #267, #20 ) ;
#195 = DIRECTION ( 'NONE',  ( 0.000000000000000000, 0.000000000000000000, 1.000000000000000000 ) ) ;
#196 = AXIS2_PLACEMENT_3D ( 'NONE', #136, #46, #11 ) ;
#197 = COORDINATED_UNIVERSAL_TIME_OFFSET ( 1, 0, .AHEAD. ) ;
#198 = LOCAL_TIME ( 11, 12, 43.00000000000000000, #212 ) ;
#199 = CALENDAR_DATE ( 2024, 23, 10 ) ;
#200 = AXIS2_PLACEMENT_3D ( 'NONE', #113, #209, #171 ) ;
#201 = CC_DESIGN_DATE_AND_TIME_ASSIGNMENT ( #239, #61, ( #105 ) ) ;
#202 = SPHERICAL_SURFACE ( 'NONE', #114, 49.09118517522677649 ) ;
#203 = VERTEX_POINT ( 'NONE', #51 ) ;
#204 = DIRECTION ( 'NONE',  ( 1.224646799147353207E-16, -0.000000000000000000, 1.000000000000000000 ) ) ;
#205 = ORIENTED_EDGE ( 'NONE', *, *, #131, .T. ) ;
#206 = CARTESIAN_POINT ( 'NONE',  ( -32.09565366168719436, 2.228330676863871318, 2.596251214192389164E-15 ) ) ;
#207 = ADVANCED_FACE ( 'NONE', ( #116 ), #92, .T. ) ;
#208 = CIRCLE ( 'NONE', #221, 49.09118517522678360 ) ;
#209 = DIRECTION ( 'NONE',  ( -0.000000000000000000, -1.000000000000000000, -0.000000000000000000 ) ) ;
#210 = EDGE_LOOP ( 'NONE', ( #228, #23, #14, #254, #222, #73 ) ) ;
#211 = CARTESIAN_POINT ( 'NONE',  ( -10.89565366168718619, -3.124075944930048167E-15, 0.000000000000000000 ) ) ;
#212 = COORDINATED_UNIVERSAL_TIME_OFFSET ( 1, 0, .AHEAD. ) ;
#213 = CIRCLE ( 'NONE', #117, 49.09118517522677649 ) ;
#214 = PERSON_AND_ORGANIZATION_ROLE ( 'creator' ) ;
#215 = CALENDAR_DATE ( 2024, 23, 10 ) ;
#216 = ORIENTED_EDGE ( 'NONE', *, *, #187, .F. ) ;
#217 = DATE_AND_TIME ( #36, #198 ) ;
#218 = PERSON_AND_ORGANIZATION ( #267, #20 ) ;
#219 = CC_DESIGN_SECURITY_CLASSIFICATION ( #105, ( #155 ) ) ;
#220 = CARTESIAN_POINT ( 'NONE',  ( 10.30434633831282021, 2.228330676863871318, 0.000000000000000000 ) ) ;
#221 = AXIS2_PLACEMENT_3D ( 'NONE', #146, #184, #179 ) ;
#222 = ORIENTED_EDGE ( 'NONE', *, *, #191, .F. ) ;
#223 = ORIENTED_EDGE ( 'NONE', *, *, #260, .F. ) ;
#224 = AXIS2_PLACEMENT_3D ( 'NONE', #266, #242, #19 ) ;
#225 = CC_DESIGN_APPROVAL ( #115, ( #105 ) ) ;
#226 = CALENDAR_DATE ( 2024, 23, 10 ) ;
#227 = LINE ( 'NONE', #75, #12 ) ;
#228 = ORIENTED_EDGE ( 'NONE', *, *, #52, .T. ) ;
#229 = DIRECTION ( 'NONE',  ( 0.000000000000000000, 0.000000000000000000, -1.000000000000000000 ) ) ;
#230 = DIRECTION ( 'NONE',  ( -0.000000000000000000, -1.000000000000000000, -0.000000000000000000 ) ) ;
#231 = PERSON_AND_ORGANIZATION ( #267, #20 ) ;
#232 = PERSON_AND_ORGANIZATION_ROLE ( 'classification_officer' ) ;
#233 = FACE_OUTER_BOUND ( 'NONE', #148, .T. ) ;
#234 = DIRECTION ( 'NONE',  ( 0.000000000000000000, 0.000000000000000000, -1.000000000000000000 ) ) ;
#235 = LOCAL_TIME ( 11, 12, 43.00000000000000000, #150 ) ;
#236 = SHAPE_DEFINITION_REPRESENTATION ( #188, #64 ) ;
#237 = APPROVAL ( #248, 'UNSPECIFIED' ) ;
#238 = CARTESIAN_POINT ( 'NONE',  ( -10.89565366168718619, -2.337319828776047907E-15, -21.20000000000000284 ) ) ;
#239 = DATE_AND_TIME ( #177, #250 ) ;
#240 = PERSON_AND_ORGANIZATION_ROLE ( 'creator' ) ;
#241 = DIRECTION ( 'NONE',  ( 0.000000000000000000, 0.000000000000000000, 1.000000000000000000 ) ) ;
#242 = DIRECTION ( 'NONE',  ( 0.000000000000000000, 0.000000000000000000, 1.000000000000000000 ) ) ;
#243 = AXIS2_PLACEMENT_3D ( 'NONE', #154, #230, #56 ) ;
#244 = DIRECTION ( 'NONE',  ( -0.000000000000000000, -1.000000000000000000, -0.000000000000000000 ) ) ;
#245 = DIRECTION ( 'NONE',  ( 0.000000000000000000, 0.000000000000000000, -1.000000000000000000 ) ) ;
#246 = EDGE_CURVE ( 'NONE', #203, #3, #63, .T. ) ;
#247 = VERTEX_POINT ( 'NONE', #130 ) ;
#248 = APPROVAL_STATUS ( 'not_yet_approved' ) ;
#249 = AXIS2_PLACEMENT_3D ( 'NONE', #57, #74, #229 ) ;
#250 = LOCAL_TIME ( 11, 12, 43.00000000000000000, #122 ) ;
#251 = EDGE_LOOP ( 'NONE', ( #87, #132, #93, #216 ) ) ;
#252 = DIRECTION ( 'NONE',  ( 0.000000000000000000, 0.000000000000000000, 1.000000000000000000 ) ) ;
#253 = CC_DESIGN_PERSON_AND_ORGANIZATION_ASSIGNMENT ( #194, #232, ( #105 ) ) ;
#254 = ORIENTED_EDGE ( 'NONE', *, *, #181, .F. ) ;
#255 = CARTESIAN_POINT ( 'NONE',  ( 0.000000000000000000, 0.000000000000000000, 0.000000000000000000 ) ) ;
#256 = AXIS2_PLACEMENT_3D ( 'NONE', #165, #40, #85 ) ;
#257 = ORIENTED_EDGE ( 'NONE', *, *, #24, .F. ) ;
#258 = CARTESIAN_POINT ( 'NONE',  ( -10.89565366168718619, -3.124075944930048167E-15, 0.000000000000000000 ) ) ;
#259 = APPROVAL_ROLE ( '' ) ;
#260 = EDGE_CURVE ( 'NONE', #29, #27, #227, .T. ) ;
#261 = PERSON_AND_ORGANIZATION_ROLE ( 'design_supplier' ) ;
#262 = CIRCLE ( 'NONE', #243, 21.20000000000000284 ) ;
#263 = DATE_AND_TIME ( #215, #68 ) ;
#264 = DIRECTION ( 'NONE',  ( 0.000000000000000000, 0.000000000000000000, -1.000000000000000000 ) ) ;
#265 = CIRCLE ( 'NONE', #101, 47.09118517522676939 ) ;
#266 = CARTESIAN_POINT ( 'NONE',  ( -10.89565366168718619, -42.04925351546086176, 0.000000000000000000 ) ) ;
#267 = PERSON ( 'UNSPECIFIED', 'UNSPECIFIED', 'UNSPECIFIED', ('UNSPECIFIED'), ('UNSPECIFIED'), ('UNSPECIFIED') ) ;
ENDSEC;
END-ISO-10303-21;
