ISO-10303-21;
HEADER;
FILE_DESCRIPTION (( 'STEP AP203' ),
    '1' );
FILE_NAME ('12-0201-02_outokumpu.step',
    '2015-08-12T08:12:07',
    ( '' ),
    ( '' ),
    'SwSTEP 2.0',
    'SolidWorks 2008',
    '' );
FILE_SCHEMA (( 'CONFIG_CONTROL_DESIGN' ));
ENDSEC;

DATA;
#1 = ORIENTED_EDGE ( 'NONE', *, *, #138, .T. ) ;
#2 = EDGE_CURVE ( 'NONE', #127, #51, #147, .T. ) ;
#3 = DIRECTION ( 'NONE',  ( -0.0000000000000000000, 1.387778780781444900E-016, -1.000000000000000000 ) ) ;
#4 = DIRECTION ( 'NONE',  ( -0.0000000000000000000, -0.0000000000000000000, 1.000000000000000000 ) ) ;
#5 = LINE ( 'NONE', #9, #11 ) ;
#6 = DIRECTION ( 'NONE',  ( 0.0000000000000000000, 1.000000000000000000, 0.0000000000000000000 ) ) ;
#7 = DIRECTION ( 'NONE',  ( 0.0000000000000000000, 1.000000000000000000, 0.0000000000000000000 ) ) ;
#8 = DIRECTION ( 'NONE',  ( -0.0000000000000000000, 1.387778780781444900E-016, -1.000000000000000000 ) ) ;
#9 = CARTESIAN_POINT ( 'NONE',  ( -8.000000000000000000, 9.796850830579018100E-016, -4.336808689942017700E-016 ) ) ;
#10 = APPROVAL_ROLE ( '' ) ;
#11 = VECTOR ( 'NONE', #4, 1000.000000000000000 ) ;
#12 = APPROVAL_PERSON_ORGANIZATION ( #21, #19, #10 ) ;
#13 = APPROVAL_DATE_TIME ( #15, #19 ) ;
#14 = PERSON_AND_ORGANIZATION ( #353, #43 ) ;
#15 = DATE_AND_TIME ( #24, #17 ) ;
#16 = COORDINATED_UNIVERSAL_TIME_OFFSET ( 1, 0, .AHEAD. ) ;
#17 = LOCAL_TIME ( 10, 12, 6.000000000000000000, #16 ) ;
#18 = PERSON_AND_ORGANIZATION_ROLE ( 'creator' ) ;
#19 = APPROVAL ( #23, 'UNSPECIFIED' ) ;
#20 = PRODUCT_DEFINITION ( 'UNKNOWN', '', #370, #22 ) ;
#21 = PERSON_AND_ORGANIZATION ( #353, #43 ) ;
#22 = DESIGN_CONTEXT ( 'detailed design', #175, 'design' ) ;
#23 = APPROVAL_STATUS ( 'not_yet_approved' ) ;
#24 = CALENDAR_DATE ( 2015, 12, 8 ) ;
#25 = CC_DESIGN_APPROVAL ( #19, ( #20 ) ) ;
#26 = EDGE_CURVE ( 'NONE', #75, #81, #163, .T. ) ;
#27 = ORIENTED_EDGE ( 'NONE', *, *, #74, .F. ) ;
#28 = ORIENTED_EDGE ( 'NONE', *, *, #53, .T. ) ;
#29 = ORIENTED_EDGE ( 'NONE', *, *, #26, .T. ) ;
#30 = ORIENTED_EDGE ( 'NONE', *, *, #2, .T. ) ;
#31 = ORIENTED_EDGE ( 'NONE', *, *, #26, .F. ) ;
#32 = ORIENTED_EDGE ( 'NONE', *, *, #33, .T. ) ;
#33 = EDGE_CURVE ( 'NONE', #77, #76, #159, .T. ) ;
#34 = ORIENTED_EDGE ( 'NONE', *, *, #83, .T. ) ;
#35 = EDGE_CURVE ( 'NONE', #110, #67, #155, .T. ) ;
#36 = EDGE_LOOP ( 'NONE', ( #105, #106 ) ) ;
#37 = ORIENTED_EDGE ( 'NONE', *, *, #35, .F. ) ;
#38 = ORIENTED_EDGE ( 'NONE', *, *, #95, .T. ) ;
#39 = ORIENTED_EDGE ( 'NONE', *, *, #35, .T. ) ;
#40 = ADVANCED_FACE ( 'NONE', ( #150, #149 ), #173, .F. ) ;
#41 = EDGE_LOOP ( 'NONE', ( #78, #79, #130, #82 ) ) ;
#42 = ADVANCED_FACE ( 'NONE', ( #171 ), #184, .F. ) ;
#43 = ORGANIZATION ( 'UNSPECIFIED', 'UNSPECIFIED', '' ) ;
#44 = ADVANCED_FACE ( 'NONE', ( #183 ), #179, .F. ) ;
#45 = VERTEX_POINT ( 'NONE', #190 ) ;
#46 = ORIENTED_EDGE ( 'NONE', *, *, #47, .T. ) ;
#47 = EDGE_CURVE ( 'NONE', #45, #49, #189, .T. ) ;
#48 = ORIENTED_EDGE ( 'NONE', *, *, #50, .T. ) ;
#49 = VERTEX_POINT ( 'NONE', #227 ) ;
#50 = EDGE_CURVE ( 'NONE', #51, #45, #193, .T. ) ;
#51 = VERTEX_POINT ( 'NONE', #225 ) ;
#52 = EDGE_CURVE ( 'NONE', #51, #127, #221, .T. ) ;
#53 = EDGE_CURVE ( 'NONE', #77, #75, #223, .T. ) ;
#54 = EDGE_LOOP ( 'NONE', ( #31, #27 ) ) ;
#55 = ORIENTED_EDGE ( 'NONE', *, *, #80, .F. ) ;
#56 = ORIENTED_EDGE ( 'NONE', *, *, #33, .F. ) ;
#57 = ADVANCED_FACE ( 'NONE', ( #217 ), #206, .F. ) ;
#58 = ORIENTED_EDGE ( 'NONE', *, *, #123, .T. ) ;
#59 = ADVANCED_FACE ( 'NONE', ( #201, #200 ), #205, .F. ) ;
#60 = EDGE_LOOP ( 'NONE', ( #30, #61 ) ) ;
#61 = ORIENTED_EDGE ( 'NONE', *, *, #52, .T. ) ;
#62 = EDGE_LOOP ( 'NONE', ( #55, #56, #28, #29 ) ) ;
#63 = CLOSED_SHELL ( 'NONE', ( #42, #125, #44, #64, #88, #98, #135, #107, #40, #102, #59, #57 ) ) ;
#64 = ADVANCED_FACE ( 'NONE', ( #204 ), #203, .T. ) ;
#65 = ORIENTED_EDGE ( 'NONE', *, *, #115, .T. ) ;
#66 = VERTEX_POINT ( 'NONE', #211 ) ;
#67 = VERTEX_POINT ( 'NONE', #207 ) ;
#68 = EDGE_CURVE ( 'NONE', #116, #118, #5, .T. ) ;
#69 = ORIENTED_EDGE ( 'NONE', *, *, #70, .F. ) ;
#70 = EDGE_CURVE ( 'NONE', #71, #118, #250, .T. ) ;
#71 = VERTEX_POINT ( 'NONE', #309 ) ;
#72 = EDGE_LOOP ( 'NONE', ( #89, #90, #92, #93 ) ) ;
#73 = EDGE_CURVE ( 'NONE', #67, #110, #245, .T. ) ;
#74 = EDGE_CURVE ( 'NONE', #81, #75, #234, .T. ) ;
#75 = VERTEX_POINT ( 'NONE', #236 ) ;
#76 = VERTEX_POINT ( 'NONE', #235 ) ;
#77 = VERTEX_POINT ( 'NONE', #284 ) ;
#78 = ORIENTED_EDGE ( 'NONE', *, *, #83, .F. ) ;
#79 = ORIENTED_EDGE ( 'NONE', *, *, #80, .T. ) ;
#80 = EDGE_CURVE ( 'NONE', #76, #81, #283, .T. ) ;
#81 = VERTEX_POINT ( 'NONE', #243 ) ;
#82 = ORIENTED_EDGE ( 'NONE', *, *, #53, .F. ) ;
#83 = EDGE_CURVE ( 'NONE', #76, #77, #255, .T. ) ;
#84 = VERTEX_POINT ( 'NONE', #308 ) ;
#85 = ORIENTED_EDGE ( 'NONE', *, *, #113, .T. ) ;
#86 = ORIENTED_EDGE ( 'NONE', *, *, #87, .F. ) ;
#87 = EDGE_CURVE ( 'NONE', #66, #71, #307, .T. ) ;
#88 = ADVANCED_FACE ( 'NONE', ( #230 ), #229, .T. ) ;
#89 = ORIENTED_EDGE ( 'NONE', *, *, #68, .F. ) ;
#90 = ORIENTED_EDGE ( 'NONE', *, *, #91, .T. ) ;
#91 = EDGE_CURVE ( 'NONE', #116, #66, #238, .T. ) ;
#92 = ORIENTED_EDGE ( 'NONE', *, *, #87, .T. ) ;
#93 = ORIENTED_EDGE ( 'NONE', *, *, #94, .F. ) ;
#94 = EDGE_CURVE ( 'NONE', #118, #71, #289, .T. ) ;
#95 = EDGE_CURVE ( 'NONE', #84, #110, #279, .T. ) ;
#96 = MANIFOLD_SOLID_BREP ( 'NONE', #63 ) ;
#97 = EDGE_LOOP ( 'NONE', ( #103, #128, #58, #1 ) ) ;
#98 = ADVANCED_FACE ( 'NONE', ( #275, #274 ), #273, .F. ) ;
#99 = ORIENTED_EDGE ( 'NONE', *, *, #113, .F. ) ;
#100 = ORIENTED_EDGE ( 'NONE', *, *, #101, .F. ) ;
#101 = EDGE_CURVE ( 'NONE', #84, #112, #267, .T. ) ;
#102 = ADVANCED_FACE ( 'NONE', ( #263 ), #262, .F. ) ;
#103 = ORIENTED_EDGE ( 'NONE', *, *, #50, .F. ) ;
#104 = EDGE_LOOP ( 'NONE', ( #32, #34 ) ) ;
#105 = ORIENTED_EDGE ( 'NONE', *, *, #70, .T. ) ;
#106 = ORIENTED_EDGE ( 'NONE', *, *, #94, .T. ) ;
#107 = ADVANCED_FACE ( 'NONE', ( #261 ), #256, .F. ) ;
#108 = EDGE_LOOP ( 'NONE', ( #99, #100, #38, #39 ) ) ;
#109 = ORIENTED_EDGE ( 'NONE', *, *, #73, .F. ) ;
#110 = VERTEX_POINT ( 'NONE', #305 ) ;
#111 = EDGE_LOOP ( 'NONE', ( #65, #117, #69, #86 ) ) ;
#112 = VERTEX_POINT ( 'NONE', #300 ) ;
#113 = EDGE_CURVE ( 'NONE', #112, #67, #299, .T. ) ;
#114 = ORIENTED_EDGE ( 'NONE', *, *, #95, .F. ) ;
#115 = EDGE_CURVE ( 'NONE', #66, #116, #321, .T. ) ;
#116 = VERTEX_POINT ( 'NONE', #317 ) ;
#117 = ORIENTED_EDGE ( 'NONE', *, *, #68, .T. ) ;
#118 = VERTEX_POINT ( 'NONE', #311 ) ;
#119 = EDGE_CURVE ( 'NONE', #112, #84, #318, .T. ) ;
#120 = ORIENTED_EDGE ( 'NONE', *, *, #73, .T. ) ;
#121 = EDGE_LOOP ( 'NONE', ( #129, #85, #120, #114 ) ) ;
#122 = ORIENTED_EDGE ( 'NONE', *, *, #123, .F. ) ;
#123 = EDGE_CURVE ( 'NONE', #127, #49, #322, .T. ) ;
#124 = EDGE_LOOP ( 'NONE', ( #126, #48, #46, #122 ) ) ;
#125 = ADVANCED_FACE ( 'NONE', ( #334 ), #333, .F. ) ;
#126 = ORIENTED_EDGE ( 'NONE', *, *, #52, .F. ) ;
#127 = VERTEX_POINT ( 'NONE', #341 ) ;
#128 = ORIENTED_EDGE ( 'NONE', *, *, #2, .F. ) ;
#129 = ORIENTED_EDGE ( 'NONE', *, *, #119, .F. ) ;
#130 = ORIENTED_EDGE ( 'NONE', *, *, #74, .T. ) ;
#131 = EDGE_LOOP ( 'NONE', ( #132, #139 ) ) ;
#132 = ORIENTED_EDGE ( 'NONE', *, *, #138, .F. ) ;
#133 = EDGE_LOOP ( 'NONE', ( #37, #109 ) ) ;
#134 = ORIENTED_EDGE ( 'NONE', *, *, #91, .F. ) ;
#135 = ADVANCED_FACE ( 'NONE', ( #340, #325 ), #337, .F. ) ;
#136 = ORIENTED_EDGE ( 'NONE', *, *, #115, .F. ) ;
#137 = EDGE_LOOP ( 'NONE', ( #136, #134 ) ) ;
#138 = EDGE_CURVE ( 'NONE', #49, #45, #347, .T. ) ;
#139 = ORIENTED_EDGE ( 'NONE', *, *, #47, .F. ) ;
#140 = EDGE_LOOP ( 'NONE', ( #141, #142 ) ) ;
#141 = ORIENTED_EDGE ( 'NONE', *, *, #101, .T. ) ;
#142 = ORIENTED_EDGE ( 'NONE', *, *, #119, .T. ) ;
#143 = DIRECTION ( 'NONE',  ( 0.0000000000000000000, 1.000000000000000000, 0.0000000000000000000 ) ) ;
#144 = DIRECTION ( 'NONE',  ( -0.0000000000000000000, 1.387778780781444900E-016, -1.000000000000000000 ) ) ;
#145 = CARTESIAN_POINT ( 'NONE',  ( 0.0000000000000000000, -2.081668171172170500E-015, -9.999999999999998200 ) ) ;
#146 = AXIS2_PLACEMENT_3D ( 'NONE', #145, #144, #143 ) ;
#147 = CIRCLE ( 'NONE', #146, 5.000000000000001800 ) ;
#148 = CARTESIAN_POINT ( 'NONE',  ( 0.0000000000000000000, -2.081668171172170500E-015, -9.999999999999998200 ) ) ;
#149 = FACE_OUTER_BOUND ( 'NONE', #140, .T. ) ;
#150 = FACE_BOUND ( 'NONE', #131, .T. ) ;
#151 = DIRECTION ( 'NONE',  ( 0.0000000000000000000, 1.000000000000000000, 0.0000000000000000000 ) ) ;
#152 = DIRECTION ( 'NONE',  ( -0.0000000000000000000, 1.387778780781444900E-016, -1.000000000000000000 ) ) ;
#153 = CARTESIAN_POINT ( 'NONE',  ( 0.0000000000000000000, -2.288967738904228800E-030, -25.00000000000000000 ) ) ;
#154 = AXIS2_PLACEMENT_3D ( 'NONE', #153, #152, #151 ) ;
#155 = CIRCLE ( 'NONE', #154, 6.150000000000000400 ) ;
#156 = DIRECTION ( 'NONE',  ( 0.0000000000000000000, 1.000000000000000000, 1.387778780781444900E-016 ) ) ;
#157 = DIRECTION ( 'NONE',  ( -0.0000000000000000000, 1.387778780781444900E-016, -1.000000000000000000 ) ) ;
#158 = AXIS2_PLACEMENT_3D ( 'NONE', #164, #157, #156 ) ;
#159 = CIRCLE ( 'NONE', #158, 6.150000000000003900 ) ;
#160 = DIRECTION ( 'NONE',  ( 0.0000000000000000000, 1.000000000000000000, 0.0000000000000000000 ) ) ;
#161 = DIRECTION ( 'NONE',  ( -0.0000000000000000000, 1.387778780781444900E-016, -1.000000000000000000 ) ) ;
#162 = AXIS2_PLACEMENT_3D ( 'NONE', #148, #161, #160 ) ;
#163 = CIRCLE ( 'NONE', #162, 6.149999999999995000 ) ;
#164 = CARTESIAN_POINT ( 'NONE',  ( 0.0000000000000000000, -3.469446951953615000E-015, 0.0000000000000000000 ) ) ;
#165 = CC_DESIGN_PERSON_AND_ORGANIZATION_ASSIGNMENT ( #167, #166, ( #354 ) ) ;
#166 = PERSON_AND_ORGANIZATION_ROLE ( 'design_owner' ) ;
#167 = PERSON_AND_ORGANIZATION ( #353, #43 ) ;
#168 = DIRECTION ( 'NONE',  ( 0.0000000000000000000, -1.000000000000000000, -1.387778780781444900E-016 ) ) ;
#169 = DIRECTION ( 'NONE',  ( 0.0000000000000000000, -1.387778780781444900E-016, 1.000000000000000000 ) ) ;
#170 = AXIS2_PLACEMENT_3D ( 'NONE', #172, #169, #168 ) ;
#171 = FACE_OUTER_BOUND ( 'NONE', #41, .T. ) ;
#172 = CARTESIAN_POINT ( 'NONE',  ( 0.0000000000000000000, 5.000000000000000000, -15.00000000000000400 ) ) ;
#173 = PLANE ( 'NONE',  #170 ) ;
#174 = APPLICATION_PROTOCOL_DEFINITION ( 'international standard', 'config_control_design', 1994, #175 ) ;
#175 = APPLICATION_CONTEXT ( 'configuration controlled 3d designs of mechanical parts and assemblies' ) ;
#176 = CARTESIAN_POINT ( 'NONE',  ( 0.0000000000000000000, 0.0000000000000000000, -25.00000000000001800 ) ) ;
#177 = DIRECTION ( 'NONE',  ( -0.0000000000000000000, 1.387778780781444900E-016, -1.000000000000000000 ) ) ;
#178 = AXIS2_PLACEMENT_3D ( 'NONE', #182, #3, #6 ) ;
#179 = CYLINDRICAL_SURFACE ( 'NONE', #178, 6.149999999999997700 ) ;
#180 = CC_DESIGN_PERSON_AND_ORGANIZATION_ASSIGNMENT ( #14, #18, ( #20 ) ) ;
#181 = AXIS2_PLACEMENT_3D ( 'NONE', #176, #177, #185 ) ;
#182 = CARTESIAN_POINT ( 'NONE',  ( 0.0000000000000000000, 0.0000000000000000000, -25.00000000000001800 ) ) ;
#183 = FACE_OUTER_BOUND ( 'NONE', #121, .T. ) ;
#184 = CYLINDRICAL_SURFACE ( 'NONE', #181, 6.149999999999999500 ) ;
#185 = DIRECTION ( 'NONE',  ( 0.0000000000000000000, 1.000000000000000000, 0.0000000000000000000 ) ) ;
#186 = CARTESIAN_POINT ( 'NONE',  ( 0.0000000000000000000, -1.387778780781447100E-015, -15.00000000000000400 ) ) ;
#187 = DIRECTION ( 'NONE',  ( 0.0000000000000000000, 1.000000000000000000, 0.0000000000000000000 ) ) ;
#188 = AXIS2_PLACEMENT_3D ( 'NONE', #186, #191, #187 ) ;
#189 = CIRCLE ( 'NONE', #188, 5.000000000000001800 ) ;
#190 = CARTESIAN_POINT ( 'NONE',  ( 6.123031769111888300E-016, -5.000000000000003600, -15.00000000000000400 ) ) ;
#191 = DIRECTION ( 'NONE',  ( -0.0000000000000000000, 1.387778780781444900E-016, -1.000000000000000000 ) ) ;
#192 = CARTESIAN_POINT ( 'NONE',  ( 6.123031769111888300E-016, -5.000000000000001800, -25.00000000000001800 ) ) ;
#193 = LINE ( 'NONE', #192, #195 ) ;
#194 = CARTESIAN_POINT ( 'NONE',  ( 0.0000000000000000000, -2.081668171172170500E-015, -9.999999999999998200 ) ) ;
#195 = VECTOR ( 'NONE', #226, 1000.000000000000000 ) ;
#196 = DIRECTION ( 'NONE',  ( 0.0000000000000000000, 1.000000000000000000, 0.0000000000000000000 ) ) ;
#197 = DIRECTION ( 'NONE',  ( -0.0000000000000000000, 1.387778780781444900E-016, -1.000000000000000000 ) ) ;
#198 = CARTESIAN_POINT ( 'NONE',  ( 0.0000000000000000000, 0.0000000000000000000, -25.00000000000001800 ) ) ;
#199 = AXIS2_PLACEMENT_3D ( 'NONE', #198, #197, #196 ) ;
#200 = FACE_BOUND ( 'NONE', #60, .T. ) ;
#201 = FACE_OUTER_BOUND ( 'NONE', #54, .T. ) ;
#202 = DIRECTION ( 'NONE',  ( -0.0000000000000000000, 1.387778780781444900E-016, -1.000000000000000000 ) ) ;
#203 = CYLINDRICAL_SURFACE ( 'NONE', #212, 8.000000000000000000 ) ;
#204 = FACE_OUTER_BOUND ( 'NONE', #111, .T. ) ;
#205 = PLANE ( 'NONE',  #216 ) ;
#206 = CYLINDRICAL_SURFACE ( 'NONE', #199, 6.149999999999999500 ) ;
#207 = CARTESIAN_POINT ( 'NONE',  ( 7.531329076007618400E-016, -6.150000000000000400, -25.00000000000000000 ) ) ;
#208 = DIRECTION ( 'NONE',  ( 1.000000000000000000, 0.0000000000000000000, 0.0000000000000000000 ) ) ;
#209 = DIRECTION ( 'NONE',  ( -0.0000000000000000000, -0.0000000000000000000, 1.000000000000000000 ) ) ;
#210 = CARTESIAN_POINT ( 'NONE',  ( 0.0000000000000000000, 0.0000000000000000000, -4.336808689942017700E-016 ) ) ;
#211 = CARTESIAN_POINT ( 'NONE',  ( 8.000000000000000000, 0.0000000000000000000, -25.00000000000000400 ) ) ;
#212 = AXIS2_PLACEMENT_3D ( 'NONE', #210, #209, #208 ) ;
#213 = DIRECTION ( 'NONE',  ( 0.0000000000000000000, 1.000000000000000000, 1.387778780781444900E-016 ) ) ;
#214 = DIRECTION ( 'NONE',  ( -0.0000000000000000000, 1.387778780781444900E-016, -1.000000000000000000 ) ) ;
#215 = CARTESIAN_POINT ( 'NONE',  ( 0.0000000000000000000, 5.000000000000000000, -9.999999999999998200 ) ) ;
#216 = AXIS2_PLACEMENT_3D ( 'NONE', #215, #214, #213 ) ;
#217 = FACE_OUTER_BOUND ( 'NONE', #62, .T. ) ;
#218 = DIRECTION ( 'NONE',  ( -0.0000000000000000000, 1.387778780781444900E-016, -1.000000000000000000 ) ) ;
#219 = VECTOR ( 'NONE', #218, 1000.000000000000000 ) ;
#220 = AXIS2_PLACEMENT_3D ( 'NONE', #194, #202, #224 ) ;
#221 = CIRCLE ( 'NONE', #220, 5.000000000000001800 ) ;
#222 = CARTESIAN_POINT ( 'NONE',  ( 0.0000000000000000000, 6.149999999999999500, -25.00000000000001800 ) ) ;
#223 = LINE ( 'NONE', #222, #219 ) ;
#224 = DIRECTION ( 'NONE',  ( 0.0000000000000000000, 1.000000000000000000, 0.0000000000000000000 ) ) ;
#225 = CARTESIAN_POINT ( 'NONE',  ( 6.123031769111888300E-016, -5.000000000000003600, -9.999999999999998200 ) ) ;
#226 = DIRECTION ( 'NONE',  ( -0.0000000000000000000, 1.387778780781444900E-016, -1.000000000000000000 ) ) ;
#227 = CARTESIAN_POINT ( 'NONE',  ( 0.0000000000000000000, 5.000000000000000000, -15.00000000000000400 ) ) ;
#228 = CARTESIAN_POINT ( 'NONE',  ( 0.0000000000000000000, 0.0000000000000000000, -4.336808689942017700E-016 ) ) ;
#229 = CYLINDRICAL_SURFACE ( 'NONE', #242, 8.000000000000000000 ) ;
#230 = FACE_OUTER_BOUND ( 'NONE', #72, .T. ) ;
#231 = DIRECTION ( 'NONE',  ( -0.0000000000000000000, -0.0000000000000000000, 1.000000000000000000 ) ) ;
#232 = VECTOR ( 'NONE', #231, 1000.000000000000000 ) ;
#233 = DIRECTION ( 'NONE',  ( 1.000000000000000000, 0.0000000000000000000, 0.0000000000000000000 ) ) ;
#234 = CIRCLE ( 'NONE', #288, 6.149999999999995000 ) ;
#235 = CARTESIAN_POINT ( 'NONE',  ( 7.531329076007625300E-016, -6.150000000000007500, -8.534839501805891900E-016 ) ) ;
#236 = CARTESIAN_POINT ( 'NONE',  ( 0.0000000000000000000, 6.149999999999993200, -9.999999999999998200 ) ) ;
#237 = AXIS2_PLACEMENT_3D ( 'NONE', #310, #246, #233 ) ;
#238 = CIRCLE ( 'NONE', #293, 8.000000000000000000 ) ;
#239 = CARTESIAN_POINT ( 'NONE',  ( 0.0000000000000000000, 0.0000000000000000000, 0.0000000000000000000 ) ) ;
#240 = DIRECTION ( 'NONE',  ( 1.000000000000000000, 0.0000000000000000000, 0.0000000000000000000 ) ) ;
#241 = DIRECTION ( 'NONE',  ( -0.0000000000000000000, -0.0000000000000000000, 1.000000000000000000 ) ) ;
#242 = AXIS2_PLACEMENT_3D ( 'NONE', #228, #241, #240 ) ;
#243 = CARTESIAN_POINT ( 'NONE',  ( 7.531329076007615400E-016, -6.149999999999996800, -9.999999999999998200 ) ) ;
#244 = CARTESIAN_POINT ( 'NONE',  ( 0.0000000000000000000, -2.288967738904228800E-030, -25.00000000000000000 ) ) ;
#245 = CIRCLE ( 'NONE', #296, 6.150000000000000400 ) ;
#246 = DIRECTION ( 'NONE',  ( -0.0000000000000000000, -0.0000000000000000000, 1.000000000000000000 ) ) ;
#247 = DIRECTION ( 'NONE',  ( -0.0000000000000000000, 1.387778780781444900E-016, -1.000000000000000000 ) ) ;
#248 = VECTOR ( 'NONE', #247, 1000.000000000000000 ) ;
#249 = CARTESIAN_POINT ( 'NONE',  ( 7.531329076007618400E-016, -6.149999999999999500, -25.00000000000001800 ) ) ;
#250 = CIRCLE ( 'NONE', #237, 8.000000000000000000 ) ;
#251 = DIRECTION ( 'NONE',  ( 0.0000000000000000000, 1.000000000000000000, 1.387778780781444900E-016 ) ) ;
#252 = DIRECTION ( 'NONE',  ( -0.0000000000000000000, 1.387778780781444900E-016, -1.000000000000000000 ) ) ;
#253 = CARTESIAN_POINT ( 'NONE',  ( 0.0000000000000000000, -3.469446951953615000E-015, 0.0000000000000000000 ) ) ;
#254 = AXIS2_PLACEMENT_3D ( 'NONE', #253, #252, #251 ) ;
#255 = CIRCLE ( 'NONE', #254, 6.150000000000003900 ) ;
#256 = CYLINDRICAL_SURFACE ( 'NONE', #304, 6.149999999999997700 ) ;
#257 = DIRECTION ( 'NONE',  ( 0.0000000000000000000, 1.000000000000000000, 0.0000000000000000000 ) ) ;
#258 = DIRECTION ( 'NONE',  ( -0.0000000000000000000, 1.387778780781444900E-016, -1.000000000000000000 ) ) ;
#259 = CARTESIAN_POINT ( 'NONE',  ( 0.0000000000000000000, 0.0000000000000000000, -25.00000000000001800 ) ) ;
#260 = AXIS2_PLACEMENT_3D ( 'NONE', #259, #258, #257 ) ;
#261 = FACE_OUTER_BOUND ( 'NONE', #108, .T. ) ;
#262 = CYLINDRICAL_SURFACE ( 'NONE', #260, 5.000000000000001800 ) ;
#263 = FACE_OUTER_BOUND ( 'NONE', #97, .T. ) ;
#264 = DIRECTION ( 'NONE',  ( 0.0000000000000000000, 1.000000000000000000, 0.0000000000000000000 ) ) ;
#265 = DIRECTION ( 'NONE',  ( -0.0000000000000000000, 1.387778780781444900E-016, -1.000000000000000000 ) ) ;
#266 = AXIS2_PLACEMENT_3D ( 'NONE', #271, #265, #264 ) ;
#267 = CIRCLE ( 'NONE', #266, 6.149999999999995000 ) ;
#268 = DIRECTION ( 'NONE',  ( 1.000000000000000000, 0.0000000000000000000, 0.0000000000000000000 ) ) ;
#269 = DIRECTION ( 'NONE',  ( 0.0000000000000000000, -0.0000000000000000000, 1.000000000000000000 ) ) ;
#270 = AXIS2_PLACEMENT_3D ( 'NONE', #272, #269, #268 ) ;
#271 = CARTESIAN_POINT ( 'NONE',  ( 0.0000000000000000000, -1.387778780781447100E-015, -15.00000000000000400 ) ) ;
#272 = CARTESIAN_POINT ( 'NONE',  ( 0.0000000000000000000, 8.000000000000000000, -25.00000000000000000 ) ) ;
#273 = PLANE ( 'NONE',  #270 ) ;
#274 = FACE_OUTER_BOUND ( 'NONE', #137, .T. ) ;
#275 = FACE_BOUND ( 'NONE', #133, .T. ) ;
#276 = DIRECTION ( 'NONE',  ( -0.0000000000000000000, 1.387778780781444900E-016, -1.000000000000000000 ) ) ;
#277 = VECTOR ( 'NONE', #276, 1000.000000000000000 ) ;
#278 = CARTESIAN_POINT ( 'NONE',  ( 0.0000000000000000000, 6.149999999999997700, -25.00000000000001800 ) ) ;
#279 = LINE ( 'NONE', #278, #277 ) ;
#280 = DIRECTION ( 'NONE',  ( 1.000000000000000000, 0.0000000000000000000, 0.0000000000000000000 ) ) ;
#281 = DIRECTION ( 'NONE',  ( -0.0000000000000000000, -0.0000000000000000000, 1.000000000000000000 ) ) ;
#282 = AXIS2_PLACEMENT_3D ( 'NONE', #239, #281, #280 ) ;
#283 = LINE ( 'NONE', #249, #248 ) ;
#284 = CARTESIAN_POINT ( 'NONE',  ( 0.0000000000000000000, 6.150000000000000400, 8.534839501805891900E-016 ) ) ;
#285 = DIRECTION ( 'NONE',  ( 0.0000000000000000000, 1.000000000000000000, 0.0000000000000000000 ) ) ;
#286 = DIRECTION ( 'NONE',  ( -0.0000000000000000000, 1.387778780781444900E-016, -1.000000000000000000 ) ) ;
#287 = CARTESIAN_POINT ( 'NONE',  ( 0.0000000000000000000, -2.081668171172170500E-015, -9.999999999999998200 ) ) ;
#288 = AXIS2_PLACEMENT_3D ( 'NONE', #287, #286, #285 ) ;
#289 = CIRCLE ( 'NONE', #282, 8.000000000000000000 ) ;
#290 = DIRECTION ( 'NONE',  ( 1.000000000000000000, 0.0000000000000000000, 0.0000000000000000000 ) ) ;
#291 = DIRECTION ( 'NONE',  ( -0.0000000000000000000, -0.0000000000000000000, 1.000000000000000000 ) ) ;
#292 = CARTESIAN_POINT ( 'NONE',  ( 0.0000000000000000000, 0.0000000000000000000, -25.00000000000000400 ) ) ;
#293 = AXIS2_PLACEMENT_3D ( 'NONE', #292, #291, #290 ) ;
#294 = DIRECTION ( 'NONE',  ( 0.0000000000000000000, 1.000000000000000000, 0.0000000000000000000 ) ) ;
#295 = DIRECTION ( 'NONE',  ( -0.0000000000000000000, 1.387778780781444900E-016, -1.000000000000000000 ) ) ;
#296 = AXIS2_PLACEMENT_3D ( 'NONE', #244, #295, #294 ) ;
#297 = VECTOR ( 'NONE', #8, 1000.000000000000000 ) ;
#298 = CARTESIAN_POINT ( 'NONE',  ( 7.531329076007616400E-016, -6.149999999999997700, -25.00000000000001800 ) ) ;
#299 = LINE ( 'NONE', #298, #297 ) ;
#300 = CARTESIAN_POINT ( 'NONE',  ( 7.531329076007615400E-016, -6.149999999999996800, -15.00000000000000400 ) ) ;
#301 = DIRECTION ( 'NONE',  ( 0.0000000000000000000, 1.000000000000000000, 0.0000000000000000000 ) ) ;
#302 = DIRECTION ( 'NONE',  ( -0.0000000000000000000, 1.387778780781444900E-016, -1.000000000000000000 ) ) ;
#303 = CARTESIAN_POINT ( 'NONE',  ( 0.0000000000000000000, 0.0000000000000000000, -25.00000000000001800 ) ) ;
#304 = AXIS2_PLACEMENT_3D ( 'NONE', #303, #302, #301 ) ;
#305 = CARTESIAN_POINT ( 'NONE',  ( 0.0000000000000000000, 6.150000000000000400, -25.00000000000000000 ) ) ;
#306 = CARTESIAN_POINT ( 'NONE',  ( 8.000000000000000000, 0.0000000000000000000, -4.336808689942017700E-016 ) ) ;
#307 = LINE ( 'NONE', #306, #232 ) ;
#308 = CARTESIAN_POINT ( 'NONE',  ( 0.0000000000000000000, 6.149999999999993200, -15.00000000000000400 ) ) ;
#309 = CARTESIAN_POINT ( 'NONE',  ( 8.000000000000000000, 0.0000000000000000000, 0.0000000000000000000 ) ) ;
#310 = CARTESIAN_POINT ( 'NONE',  ( 0.0000000000000000000, 0.0000000000000000000, 0.0000000000000000000 ) ) ;
#311 = CARTESIAN_POINT ( 'NONE',  ( -8.000000000000000000, 9.796850830579018100E-016, 0.0000000000000000000 ) ) ;
#312 = DIRECTION ( 'NONE',  ( -0.0000000000000000000, 1.387778780781444900E-016, -1.000000000000000000 ) ) ;
#313 = CARTESIAN_POINT ( 'NONE',  ( 0.0000000000000000000, -1.387778780781447100E-015, -15.00000000000000400 ) ) ;
#314 = CARTESIAN_POINT ( 'NONE',  ( 0.0000000000000000000, 0.0000000000000000000, -25.00000000000000400 ) ) ;
#315 = AXIS2_PLACEMENT_3D ( 'NONE', #313, #312, #7 ) ;
#316 = AXIS2_PLACEMENT_3D ( 'NONE', #314, #319, #320 ) ;
#317 = CARTESIAN_POINT ( 'NONE',  ( -8.000000000000000000, 9.796850830579018100E-016, -25.00000000000000400 ) ) ;
#318 = CIRCLE ( 'NONE', #315, 6.149999999999995000 ) ;
#319 = DIRECTION ( 'NONE',  ( -0.0000000000000000000, -0.0000000000000000000, 1.000000000000000000 ) ) ;
#320 = DIRECTION ( 'NONE',  ( 1.000000000000000000, 0.0000000000000000000, 0.0000000000000000000 ) ) ;
#321 = CIRCLE ( 'NONE', #316, 8.000000000000000000 ) ;
#322 = LINE ( 'NONE', #331, #335 ) ;
#323 = CARTESIAN_POINT ( 'NONE',  ( 0.0000000000000000000, 8.000000000000000000, -2.168404344971008900E-016 ) ) ;
#324 = AXIS2_PLACEMENT_3D ( 'NONE', #323, #329, #328 ) ;
#325 = FACE_OUTER_BOUND ( 'NONE', #36, .T. ) ;
#326 = DIRECTION ( 'NONE',  ( 0.0000000000000000000, 1.000000000000000000, 0.0000000000000000000 ) ) ;
#327 = DIRECTION ( 'NONE',  ( -0.0000000000000000000, 1.387778780781444900E-016, -1.000000000000000000 ) ) ;
#328 = DIRECTION ( 'NONE',  ( -1.000000000000000000, 0.0000000000000000000, -0.0000000000000000000 ) ) ;
#329 = DIRECTION ( 'NONE',  ( 0.0000000000000000000, 0.0000000000000000000, -1.000000000000000000 ) ) ;
#330 = DIRECTION ( 'NONE',  ( -0.0000000000000000000, 1.387778780781444900E-016, -1.000000000000000000 ) ) ;
#331 = CARTESIAN_POINT ( 'NONE',  ( 0.0000000000000000000, 5.000000000000001800, -25.00000000000001800 ) ) ;
#332 = AXIS2_PLACEMENT_3D ( 'NONE', #348, #358, #336 ) ;
#333 = CYLINDRICAL_SURFACE ( 'NONE', #339, 5.000000000000001800 ) ;
#334 = FACE_OUTER_BOUND ( 'NONE', #124, .T. ) ;
#335 = VECTOR ( 'NONE', #330, 1000.000000000000000 ) ;
#336 = DIRECTION ( 'NONE',  ( 1.000000000000000000, 0.0000000000000000000, 0.0000000000000000000 ) ) ;
#337 = PLANE ( 'NONE',  #324 ) ;
#338 = CARTESIAN_POINT ( 'NONE',  ( 0.0000000000000000000, 0.0000000000000000000, -25.00000000000001800 ) ) ;
#339 = AXIS2_PLACEMENT_3D ( 'NONE', #338, #327, #326 ) ;
#340 = FACE_BOUND ( 'NONE', #104, .T. ) ;
#341 = CARTESIAN_POINT ( 'NONE',  ( 0.0000000000000000000, 5.000000000000000000, -9.999999999999998200 ) ) ;
#342 = ADVANCED_BREP_SHAPE_REPRESENTATION ( '12-0201-02_outokumpu', ( #96, #332 ), #349 ) ;
#343 =( NAMED_UNIT ( * ) PLANE_ANGLE_UNIT ( ) SI_UNIT ( $, .RADIAN. ) );
#344 = UNCERTAINTY_MEASURE_WITH_UNIT (LENGTH_MEASURE( 1.000000000000000100E-005 ), #359, 'distance_accuracy_value', 'NONE');
#345 =( NAMED_UNIT ( * ) SI_UNIT ( $, .STERADIAN. ) SOLID_ANGLE_UNIT ( ) );
#346 = CARTESIAN_POINT ( 'NONE',  ( 0.0000000000000000000, -1.387778780781447100E-015, -15.00000000000000400 ) ) ;
#347 = CIRCLE ( 'NONE', #352, 5.000000000000001800 ) ;
#348 = CARTESIAN_POINT ( 'NONE',  ( 0.0000000000000000000, 0.0000000000000000000, 0.0000000000000000000 ) ) ;
#349 =( GEOMETRIC_REPRESENTATION_CONTEXT ( 3 ) GLOBAL_UNCERTAINTY_ASSIGNED_CONTEXT ( ( #344 ) ) GLOBAL_UNIT_ASSIGNED_CONTEXT ( ( #359, #343, #345 ) ) REPRESENTATION_CONTEXT ( 'NONE', 'WORKASPACE' ) );
#350 = DIRECTION ( 'NONE',  ( 0.0000000000000000000, 1.000000000000000000, 0.0000000000000000000 ) ) ;
#351 = DIRECTION ( 'NONE',  ( -0.0000000000000000000, 1.387778780781444900E-016, -1.000000000000000000 ) ) ;
#352 = AXIS2_PLACEMENT_3D ( 'NONE', #346, #351, #350 ) ;
#353 = PERSON ( 'UNSPECIFIED', 'UNSPECIFIED', 'UNSPECIFIED', ('UNSPECIFIED'), ('UNSPECIFIED'), ('UNSPECIFIED') ) ;
#354 = PRODUCT ( '12-0201-02_outokumpu', '12-0201-02_outokumpu', '', ( #355 ) ) ;
#355 = MECHANICAL_CONTEXT ( 'NONE', #357, 'mechanical' ) ;
#356 = APPLICATION_PROTOCOL_DEFINITION ( 'international standard', 'config_control_design', 1994, #357 ) ;
#357 = APPLICATION_CONTEXT ( 'configuration controlled 3d designs of mechanical parts and assemblies' ) ;
#358 = DIRECTION ( 'NONE',  ( 0.0000000000000000000, 0.0000000000000000000, 1.000000000000000000 ) ) ;
#359 =( LENGTH_UNIT ( ) NAMED_UNIT ( * ) SI_UNIT ( .MILLI., .METRE. ) );
#360 = DATE_AND_TIME ( #377, #409 ) ;
#361 = APPROVAL_STATUS ( 'not_yet_approved' ) ;
#362 = PERSON_AND_ORGANIZATION ( #353, #43 ) ;
#363 = CC_DESIGN_DATE_AND_TIME_ASSIGNMENT ( #379, #378, ( #391 ) ) ;
#364 = PERSON_AND_ORGANIZATION_ROLE ( 'creator' ) ;
#365 = PERSON_AND_ORGANIZATION ( #353, #43 ) ;
#366 = CC_DESIGN_APPROVAL ( #405, ( #370 ) ) ;
#367 = APPROVAL_DATE_TIME ( #400, #405 ) ;
#368 = CC_DESIGN_PERSON_AND_ORGANIZATION_ASSIGNMENT ( #398, #397, ( #370 ) ) ;
#369 = SHAPE_DEFINITION_REPRESENTATION ( #382, #342 ) ;
#370 = PRODUCT_DEFINITION_FORMATION_WITH_SPECIFIED_SOURCE ( 'ANY', '', #354, .NOT_KNOWN. ) ;
#371 = LOCAL_TIME ( 10, 12, 6.000000000000000000, #372 ) ;
#372 = COORDINATED_UNIVERSAL_TIME_OFFSET ( 1, 0, .AHEAD. ) ;
#373 = APPROVAL_PERSON_ORGANIZATION ( #362, #375, #374 ) ;
#374 = APPROVAL_ROLE ( '' ) ;
#375 = APPROVAL ( #361, 'UNSPECIFIED' ) ;
#376 = COORDINATED_UNIVERSAL_TIME_OFFSET ( 1, 0, .AHEAD. ) ;
#377 = CALENDAR_DATE ( 2015, 12, 8 ) ;
#378 = DATE_TIME_ROLE ( 'classification_date' ) ;
#379 = DATE_AND_TIME ( #380, #381 ) ;
#380 = CALENDAR_DATE ( 2015, 12, 8 ) ;
#381 = LOCAL_TIME ( 10, 12, 6.000000000000000000, #376 ) ;
#382 = PRODUCT_DEFINITION_SHAPE ( 'NONE', 'NONE',  #20 ) ;
#383 = PRODUCT_RELATED_PRODUCT_CATEGORY ( 'detail', '', ( #354 ) ) ;
#384 = CC_DESIGN_SECURITY_CLASSIFICATION ( #391, ( #370 ) ) ;
#385 = APPROVAL_PERSON_ORGANIZATION ( #399, #405, #386 ) ;
#386 = APPROVAL_ROLE ( '' ) ;
#387 = COORDINATED_UNIVERSAL_TIME_OFFSET ( 1, 0, .AHEAD. ) ;
#388 = CC_DESIGN_PERSON_AND_ORGANIZATION_ASSIGNMENT ( #390, #389, ( #391 ) ) ;
#389 = PERSON_AND_ORGANIZATION_ROLE ( 'classification_officer' ) ;
#390 = PERSON_AND_ORGANIZATION ( #353, #43 ) ;
#391 = SECURITY_CLASSIFICATION ( '', '', #392 ) ;
#392 = SECURITY_CLASSIFICATION_LEVEL ( 'unclassified' ) ;
#393 = CC_DESIGN_APPROVAL ( #375, ( #391 ) ) ;
#394 = APPROVAL_DATE_TIME ( #395, #375 ) ;
#395 = DATE_AND_TIME ( #396, #371 ) ;
#396 = CALENDAR_DATE ( 2015, 12, 8 ) ;
#397 = PERSON_AND_ORGANIZATION_ROLE ( 'design_supplier' ) ;
#398 = PERSON_AND_ORGANIZATION ( #353, #43 ) ;
#399 = PERSON_AND_ORGANIZATION ( #353, #43 ) ;
#400 = DATE_AND_TIME ( #401, #402 ) ;
#401 = CALENDAR_DATE ( 2015, 12, 8 ) ;
#402 = LOCAL_TIME ( 10, 12, 6.000000000000000000, #403 ) ;
#403 = COORDINATED_UNIVERSAL_TIME_OFFSET ( 1, 0, .AHEAD. ) ;
#404 = DATE_TIME_ROLE ( 'creation_date' ) ;
#405 = APPROVAL ( #406, 'UNSPECIFIED' ) ;
#406 = APPROVAL_STATUS ( 'not_yet_approved' ) ;
#407 = CC_DESIGN_PERSON_AND_ORGANIZATION_ASSIGNMENT ( #365, #364, ( #370 ) ) ;
#408 = CC_DESIGN_DATE_AND_TIME_ASSIGNMENT ( #360, #404, ( #20 ) ) ;
#409 = LOCAL_TIME ( 10, 12, 6.000000000000000000, #387 ) ;
ENDSEC;
END-ISO-10303-21;
