ISO-10303-21;
HEADER;
FILE_DESCRIPTION (( 'STEP AP203' ),
    '1' );
FILE_NAME ('3D_R1655_21.3x1.6_17362100.STEP',
    '2024-08-05T08:32:11',
    ( '' ),
    ( '' ),
    'SwSTEP 2.0',
    'SolidWorks 2024',
    '' );
FILE_SCHEMA (( 'CONFIG_CONTROL_DESIGN' ));
ENDSEC;

DATA;
#1 = DIRECTION ( 'NONE',  ( 0.000000000000000000, 1.000000000000000000, 0.000000000000000000 ) ) ;
#2 = APPROVAL_PERSON_ORGANIZATION ( #209, #172, #74 ) ;
#3 = ORIENTED_EDGE ( 'NONE', *, *, #64, .F. ) ;
#4 = CARTESIAN_POINT ( 'NONE',  ( 0.000000000000000000, 0.000000000000000000, 0.000000000000000000 ) ) ;
#5 = DIRECTION ( 'NONE',  ( 0.000000000000000000, 1.000000000000000000, 0.000000000000000000 ) ) ;
#6 = DIRECTION ( 'NONE',  ( -2.259334488757232034E-16, 0.000000000000000000, 1.000000000000000000 ) ) ;
#7 = EDGE_CURVE ( 'NONE', #77, #167, #98, .T. ) ;
#8 = DIRECTION ( 'NONE',  ( 1.000000000000000000, 0.000000000000000000, 0.000000000000000000 ) ) ;
#9 = COORDINATED_UNIVERSAL_TIME_OFFSET ( 1, 0, .AHEAD. ) ;
#10 = LOCAL_TIME ( 10, 32, 11.00000000000000000, #76 ) ;
#11 = APPLICATION_PROTOCOL_DEFINITION ( 'international standard', 'config_control_design', 1994, #50 ) ;
#12 = DIRECTION ( 'NONE',  ( -1.000000000000000000, 0.000000000000000000, 2.943923360032083078E-15 ) ) ;
#13 = AXIS2_PLACEMENT_3D ( 'NONE', #19, #154, #157 ) ;
#14 = CLOSED_SHELL ( 'NONE', ( #210, #223, #37, #18, #175, #45 ) ) ;
#15 = CC_DESIGN_PERSON_AND_ORGANIZATION_ASSIGNMENT ( #208, #56, ( #111 ) ) ;
#16 = ORIENTED_EDGE ( 'NONE', *, *, #92, .T. ) ;
#17 = PERSON_AND_ORGANIZATION ( #22, #107 ) ;
#18 = ADVANCED_FACE ( 'NONE', ( #214, #82 ), #211, .T. ) ;
#19 = CARTESIAN_POINT ( 'NONE',  ( -45.00000000000000000, 0.000000000000000000, -8.266365894244658788E-15 ) ) ;
#20 =( GEOMETRIC_REPRESENTATION_CONTEXT ( 3 ) GLOBAL_UNCERTAINTY_ASSIGNED_CONTEXT ( ( #197 ) ) GLOBAL_UNIT_ASSIGNED_CONTEXT ( ( #30, #71, #104 ) ) REPRESENTATION_CONTEXT ( 'NONE', 'WORKASPACE' ) );
#21 = DIRECTION ( 'NONE',  ( 0.000000000000000000, 1.000000000000000000, 0.000000000000000000 ) ) ;
#22 = PERSON ( 'UNSPECIFIED', 'UNSPECIFIED', 'UNSPECIFIED', ('UNSPECIFIED'), ('UNSPECIFIED'), ('UNSPECIFIED') ) ;
#23 = CARTESIAN_POINT ( 'NONE',  ( -45.00000000000000000, 0.000000000000000000, -1.016700519940754376E-14 ) ) ;
#24 = ORIENTED_EDGE ( 'NONE', *, *, #7, .T. ) ;
#25 = AXIS2_PLACEMENT_3D ( 'NONE', #4, #21, #236 ) ;
#26 = CARTESIAN_POINT ( 'NONE',  ( 0.000000000000000000, 0.000000000000000000, 0.000000000000000000 ) ) ;
#27 = EDGE_CURVE ( 'NONE', #77, #136, #138, .T. ) ;
#28 = DIRECTION ( 'NONE',  ( 0.000000000000000000, 0.000000000000000000, 1.000000000000000000 ) ) ;
#29 = COORDINATED_UNIVERSAL_TIME_OFFSET ( 1, 0, .AHEAD. ) ;
#30 =( LENGTH_UNIT ( ) NAMED_UNIT ( * ) SI_UNIT ( .MILLI., .METRE. ) );
#31 = TOROIDAL_SURFACE ( 'NONE', #165, 45.00000000000000000, 10.65000000000000036 ) ;
#32 = APPROVAL_ROLE ( '' ) ;
#33 = DIRECTION ( 'NONE',  ( 0.000000000000000000, 0.000000000000000000, 1.000000000000000000 ) ) ;
#34 = CIRCLE ( 'NONE', #151, 9.050000000000002487 ) ;
#35 = ORIENTED_EDGE ( 'NONE', *, *, #163, .F. ) ;
#36 = PERSON_AND_ORGANIZATION ( #22, #107 ) ;
#37 = ADVANCED_FACE ( 'NONE', ( #193 ), #103, .T. ) ;
#38 = ORIENTED_EDGE ( 'NONE', *, *, #105, .F. ) ;
#39 = APPROVAL_STATUS ( 'not_yet_approved' ) ;
#40 = CARTESIAN_POINT ( 'NONE',  ( 0.000000000000000000, -1.108305353228354590E-15, 0.000000000000000000 ) ) ;
#41 = AXIS2_PLACEMENT_3D ( 'NONE', #47, #158, #238 ) ;
#42 = VERTEX_POINT ( 'NONE', #60 ) ;
#43 = CARTESIAN_POINT ( 'NONE',  ( 0.000000000000000000, 0.000000000000000000, 0.000000000000000000 ) ) ;
#44 = EDGE_LOOP ( 'NONE', ( #116, #171, #73, #94 ) ) ;
#45 = ADVANCED_FACE ( 'NONE', ( #135 ), #168, .F. ) ;
#46 = CIRCLE ( 'NONE', #78, 10.65000000000000036 ) ;
#47 = CARTESIAN_POINT ( 'NONE',  ( -1.324765512014437259E-13, 0.000000000000000000, -45.00000000000000000 ) ) ;
#48 = CARTESIAN_POINT ( 'NONE',  ( -1.657299742909483442E-13, 0.000000000000000000, -55.64999999999999858 ) ) ;
#49 = CARTESIAN_POINT ( 'NONE',  ( -45.00000000000000000, 0.000000000000000000, -1.016700519940754376E-14 ) ) ;
#50 = APPLICATION_CONTEXT ( 'configuration controlled 3d designs of mechanical parts and assemblies' ) ;
#51 = PERSON_AND_ORGANIZATION_ROLE ( 'design_owner' ) ;
#52 = DIRECTION ( 'NONE',  ( -1.000000000000000000, 0.000000000000000000, 2.943923360032083078E-15 ) ) ;
#53 = EDGE_CURVE ( 'NONE', #167, #96, #201, .T. ) ;
#54 = EDGE_LOOP ( 'NONE', ( #38, #185 ) ) ;
#55 = CIRCLE ( 'NONE', #87, 9.050000000000002487 ) ;
#56 = PERSON_AND_ORGANIZATION_ROLE ( 'classification_officer' ) ;
#57 = ORIENTED_EDGE ( 'NONE', *, *, #163, .T. ) ;
#58 = AXIS2_PLACEMENT_3D ( 'NONE', #176, #233, #192 ) ;
#59 = CALENDAR_DATE ( 2024, 5, 8 ) ;
#60 = CARTESIAN_POINT ( 'NONE',  ( -1.030244067222649532E-13, 0.000000000000000000, -34.35000000000000142 ) ) ;
#61 = CC_DESIGN_PERSON_AND_ORGANIZATION_ASSIGNMENT ( #17, #114, ( #224 ) ) ;
#62 = DIRECTION ( 'NONE',  ( 0.000000000000000000, 1.000000000000000000, 0.000000000000000000 ) ) ;
#63 = DIRECTION ( 'NONE',  ( -1.000000000000000000, 0.000000000000000000, 2.943923360032083078E-15 ) ) ;
#64 = EDGE_CURVE ( 'NONE', #232, #164, #194, .T. ) ;
#65 = DIRECTION ( 'NONE',  ( 2.943923360032083078E-15, 0.000000000000000000, 1.000000000000000000 ) ) ;
#66 = DIRECTION ( 'NONE',  ( 1.000000000000000000, 0.000000000000000000, 2.259334488757231048E-16 ) ) ;
#67 = AXIS2_PLACEMENT_3D ( 'NONE', #83, #63, #84 ) ;
#68 = LOCAL_TIME ( 10, 32, 11.00000000000000000, #9 ) ;
#69 = DATE_TIME_ROLE ( 'creation_date' ) ;
#70 = DIRECTION ( 'NONE',  ( 2.943923360032083078E-15, 0.000000000000000000, 1.000000000000000000 ) ) ;
#71 =( NAMED_UNIT ( * ) PLANE_ANGLE_UNIT ( ) SI_UNIT ( $, .RADIAN. ) );
#72 = EDGE_CURVE ( 'NONE', #42, #232, #245, .T. ) ;
#73 = ORIENTED_EDGE ( 'NONE', *, *, #53, .T. ) ;
#74 = APPROVAL_ROLE ( '' ) ;
#75 = EDGE_LOOP ( 'NONE', ( #129, #16, #3, #155 ) ) ;
#76 = COORDINATED_UNIVERSAL_TIME_OFFSET ( 1, 0, .AHEAD. ) ;
#77 = VERTEX_POINT ( 'NONE', #212 ) ;
#78 = AXIS2_PLACEMENT_3D ( 'NONE', #137, #85, #173 ) ;
#79 = FACE_OUTER_BOUND ( 'NONE', #142, .T. ) ;
#80 = CC_DESIGN_PERSON_AND_ORGANIZATION_ASSIGNMENT ( #130, #147, ( #224 ) ) ;
#81 = MANIFOLD_SOLID_BREP ( 'Wandung1', #14 ) ;
#82 = FACE_OUTER_BOUND ( 'NONE', #230, .T. ) ;
#83 = CARTESIAN_POINT ( 'NONE',  ( -1.343771905066066424E-13, 0.000000000000000000, -45.00000000000000000 ) ) ;
#84 = DIRECTION ( 'NONE',  ( 2.943923360032082289E-15, 0.000000000000000000, 1.000000000000000000 ) ) ;
#85 = DIRECTION ( 'NONE',  ( -2.259334488757232034E-16, 0.000000000000000000, 1.000000000000000000 ) ) ;
#86 = CARTESIAN_POINT ( 'NONE',  ( -1.343771905066066424E-13, 0.000000000000000000, -45.00000000000000000 ) ) ;
#87 = AXIS2_PLACEMENT_3D ( 'NONE', #49, #177, #90 ) ;
#88 = CALENDAR_DATE ( 2024, 5, 8 ) ;
#89 = MECHANICAL_CONTEXT ( 'NONE', #50, 'mechanical' ) ;
#90 = DIRECTION ( 'NONE',  ( 1.000000000000000000, 0.000000000000000000, 2.259334488757231048E-16 ) ) ;
#91 = AXIS2_PLACEMENT_3D ( 'NONE', #43, #215, #195 ) ;
#92 = EDGE_CURVE ( 'NONE', #227, #164, #253, .T. ) ;
#93 = DIRECTION ( 'NONE',  ( 2.943923360032082289E-15, 0.000000000000000000, 1.000000000000000000 ) ) ;
#94 = ORIENTED_EDGE ( 'NONE', *, *, #105, .T. ) ;
#95 = APPROVAL_DATE_TIME ( #186, #172 ) ;
#96 = VERTEX_POINT ( 'NONE', #100 ) ;
#97 = DIRECTION ( 'NONE',  ( 0.000000000000000000, 0.000000000000000000, 1.000000000000000000 ) ) ;
#98 = CIRCLE ( 'NONE', #120, 9.050000000000002487 ) ;
#99 = LOCAL_TIME ( 10, 32, 11.00000000000000000, #206 ) ;
#100 = CARTESIAN_POINT ( 'NONE',  ( -35.94999999999999574, 0.000000000000000000, -8.122307487082248550E-15 ) ) ;
#101 = CARTESIAN_POINT ( 'NONE',  ( -54.05000000000000426, 0.000000000000000000, -1.221170291173283896E-14 ) ) ;
#102 = CARTESIAN_POINT ( 'NONE',  ( -45.00000000000000000, 0.000000000000000000, -8.266365894244658788E-15 ) ) ;
#103 = TOROIDAL_SURFACE ( 'NONE', #91, 45.00000000000000000, 10.65000000000000036 ) ;
#104 =( NAMED_UNIT ( * ) SI_UNIT ( $, .STERADIAN. ) SOLID_ANGLE_UNIT ( ) );
#105 = EDGE_CURVE ( 'NONE', #96, #136, #34, .T. ) ;
#106 = CALENDAR_DATE ( 2024, 5, 8 ) ;
#107 = ORGANIZATION ( 'UNSPECIFIED', 'UNSPECIFIED', '' ) ;
#108 = FACE_OUTER_BOUND ( 'NONE', #75, .T. ) ;
#109 = AXIS2_PLACEMENT_3D ( 'NONE', #102, #169, #217 ) ;
#110 = ORIENTED_EDGE ( 'NONE', *, *, #7, .F. ) ;
#111 = SECURITY_CLASSIFICATION ( '', '', #166 ) ;
#112 = CALENDAR_DATE ( 2024, 5, 8 ) ;
#113 = EDGE_LOOP ( 'NONE', ( #110, #189, #118, #133 ) ) ;
#114 = PERSON_AND_ORGANIZATION_ROLE ( 'design_supplier' ) ;
#115 = DIRECTION ( 'NONE',  ( -1.000000000000000000, 0.000000000000000000, 2.943923360032083078E-15 ) ) ;
#116 = ORIENTED_EDGE ( 'NONE', *, *, #27, .F. ) ;
#117 = AXIS2_PLACEMENT_3D ( 'NONE', #180, #28, #8 ) ;
#118 = ORIENTED_EDGE ( 'NONE', *, *, #243, .T. ) ;
#119 = FACE_BOUND ( 'NONE', #207, .T. ) ;
#120 = AXIS2_PLACEMENT_3D ( 'NONE', #132, #115, #65 ) ;
#121 = CC_DESIGN_PERSON_AND_ORGANIZATION_ASSIGNMENT ( #160, #244, ( #200 ) ) ;
#122 = APPLICATION_PROTOCOL_DEFINITION ( 'international standard', 'config_control_design', 1994, #134 ) ;
#123 = CARTESIAN_POINT ( 'NONE',  ( -1.343771905066066424E-13, 0.000000000000000000, -45.00000000000000000 ) ) ;
#124 = DIRECTION ( 'NONE',  ( 0.000000000000000000, 0.000000000000000000, 1.000000000000000000 ) ) ;
#125 = ORIENTED_EDGE ( 'NONE', *, *, #148, .T. ) ;
#126 = PRODUCT_DEFINITION_SHAPE ( 'NONE', 'NONE',  #200 ) ;
#127 = APPROVAL_DATE_TIME ( #250, #183 ) ;
#128 = AXIS2_PLACEMENT_3D ( 'NONE', #234, #1, #174 ) ;
#129 = ORIENTED_EDGE ( 'NONE', *, *, #239, .T. ) ;
#130 = PERSON_AND_ORGANIZATION ( #22, #107 ) ;
#131 = DATE_AND_TIME ( #112, #10 ) ;
#132 = CARTESIAN_POINT ( 'NONE',  ( -1.324765512014437259E-13, 0.000000000000000000, -45.00000000000000000 ) ) ;
#133 = ORIENTED_EDGE ( 'NONE', *, *, #53, .F. ) ;
#134 = APPLICATION_CONTEXT ( 'configuration controlled 3d designs of mechanical parts and assemblies' ) ;
#135 = FACE_OUTER_BOUND ( 'NONE', #44, .T. ) ;
#136 = VERTEX_POINT ( 'NONE', #101 ) ;
#137 = CARTESIAN_POINT ( 'NONE',  ( -45.00000000000000000, 0.000000000000000000, -8.266365894244658788E-15 ) ) ;
#138 = CIRCLE ( 'NONE', #216, 54.05000000000000426 ) ;
#139 = PLANE ( 'NONE',  #182 ) ;
#140 = APPROVAL ( #196, 'UNSPECIFIED' ) ;
#141 = ADVANCED_BREP_SHAPE_REPRESENTATION ( '3D_R1655_21.3x1.6_17362100', ( #81, #117 ), #20 ) ;
#142 = EDGE_LOOP ( 'NONE', ( #203, #35 ) ) ;
#143 = CC_DESIGN_PERSON_AND_ORGANIZATION_ASSIGNMENT ( #218, #51, ( #205 ) ) ;
#144 = AXIS2_PLACEMENT_3D ( 'NONE', #123, #12, #93 ) ;
#145 = CC_DESIGN_APPROVAL ( #172, ( #111 ) ) ;
#146 = ORIENTED_EDGE ( 'NONE', *, *, #148, .F. ) ;
#147 = PERSON_AND_ORGANIZATION_ROLE ( 'creator' ) ;
#148 = EDGE_CURVE ( 'NONE', #164, #232, #46, .T. ) ;
#149 = ORIENTED_EDGE ( 'NONE', *, *, #92, .F. ) ;
#150 = DATE_TIME_ROLE ( 'classification_date' ) ;
#151 = AXIS2_PLACEMENT_3D ( 'NONE', #23, #6, #66 ) ;
#152 = ORIENTED_EDGE ( 'NONE', *, *, #64, .T. ) ;
#153 = CALENDAR_DATE ( 2024, 5, 8 ) ;
#154 = DIRECTION ( 'NONE',  ( -2.259334488757235978E-16, 0.000000000000000000, 1.000000000000000000 ) ) ;
#155 = ORIENTED_EDGE ( 'NONE', *, *, #72, .F. ) ;
#156 = CARTESIAN_POINT ( 'NONE',  ( -55.64999999999999858, 0.000000000000000000, -1.067255712477111333E-14 ) ) ;
#157 = DIRECTION ( 'NONE',  ( 1.000000000000000000, 0.000000000000000000, 2.259334488757235978E-16 ) ) ;
#158 = DIRECTION ( 'NONE',  ( -1.000000000000000000, 0.000000000000000000, 2.943923360032083078E-15 ) ) ;
#159 = CC_DESIGN_APPROVAL ( #140, ( #200 ) ) ;
#160 = PERSON_AND_ORGANIZATION ( #22, #107 ) ;
#161 = CIRCLE ( 'NONE', #67, 10.65000000000000036 ) ;
#162 = CARTESIAN_POINT ( 'NONE',  ( -34.35000000000000142, 0.000000000000000000, -5.860174663718203458E-15 ) ) ;
#163 = EDGE_CURVE ( 'NONE', #227, #42, #161, .T. ) ;
#164 = VERTEX_POINT ( 'NONE', #156 ) ;
#165 = AXIS2_PLACEMENT_3D ( 'NONE', #220, #242, #124 ) ;
#166 = SECURITY_CLASSIFICATION_LEVEL ( 'unclassified' ) ;
#167 = VERTEX_POINT ( 'NONE', #235 ) ;
#168 = TOROIDAL_SURFACE ( 'NONE', #58, 45.00000000000000000, 9.049999999999998934 ) ;
#169 = DIRECTION ( 'NONE',  ( -2.259334488757232034E-16, 0.000000000000000000, 1.000000000000000000 ) ) ;
#170 = APPROVAL_PERSON_ORGANIZATION ( #199, #140, #32 ) ;
#171 = ORIENTED_EDGE ( 'NONE', *, *, #251, .F. ) ;
#172 = APPROVAL ( #226, 'UNSPECIFIED' ) ;
#173 = DIRECTION ( 'NONE',  ( 1.000000000000000000, 0.000000000000000000, 2.259334488757235485E-16 ) ) ;
#174 = DIRECTION ( 'NONE',  ( 0.000000000000000000, 0.000000000000000000, 1.000000000000000000 ) ) ;
#175 = ADVANCED_FACE ( 'NONE', ( #119, #79 ), #139, .F. ) ;
#176 = CARTESIAN_POINT ( 'NONE',  ( 0.000000000000000000, 0.000000000000000000, 0.000000000000000000 ) ) ;
#177 = DIRECTION ( 'NONE',  ( -2.259334488757232034E-16, 0.000000000000000000, 1.000000000000000000 ) ) ;
#178 = APPROVAL_DATE_TIME ( #181, #140 ) ;
#179 = AXIS2_PLACEMENT_3D ( 'NONE', #222, #198, #33 ) ;
#180 = CARTESIAN_POINT ( 'NONE',  ( 0.000000000000000000, 0.000000000000000000, 0.000000000000000000 ) ) ;
#181 = DATE_AND_TIME ( #106, #190 ) ;
#182 = AXIS2_PLACEMENT_3D ( 'NONE', #86, #52, #70 ) ;
#183 = APPROVAL ( #39, 'UNSPECIFIED' ) ;
#184 = PRODUCT_RELATED_PRODUCT_CATEGORY ( 'detail', '', ( #205 ) ) ;
#185 = ORIENTED_EDGE ( 'NONE', *, *, #243, .F. ) ;
#186 = DATE_AND_TIME ( #153, #191 ) ;
#187 = SHAPE_DEFINITION_REPRESENTATION ( #126, #141 ) ;
#188 = DIRECTION ( 'NONE',  ( 0.000000000000000000, 0.000000000000000000, 1.000000000000000000 ) ) ;
#189 = ORIENTED_EDGE ( 'NONE', *, *, #27, .T. ) ;
#190 = LOCAL_TIME ( 10, 32, 11.00000000000000000, #29 ) ;
#191 = LOCAL_TIME ( 10, 32, 11.00000000000000000, #228 ) ;
#192 = DIRECTION ( 'NONE',  ( 0.000000000000000000, 0.000000000000000000, 1.000000000000000000 ) ) ;
#193 = FACE_OUTER_BOUND ( 'NONE', #247, .T. ) ;
#194 = CIRCLE ( 'NONE', #109, 10.65000000000000036 ) ;
#195 = DIRECTION ( 'NONE',  ( 0.000000000000000000, 0.000000000000000000, 1.000000000000000000 ) ) ;
#196 = APPROVAL_STATUS ( 'not_yet_approved' ) ;
#197 = UNCERTAINTY_MEASURE_WITH_UNIT (LENGTH_MEASURE( 1.000000000000000082E-05 ), #30, 'distance_accuracy_value', 'NONE');
#198 = DIRECTION ( 'NONE',  ( 0.000000000000000000, 1.000000000000000000, 0.000000000000000000 ) ) ;
#199 = PERSON_AND_ORGANIZATION ( #22, #107 ) ;
#200 = PRODUCT_DEFINITION ( 'UNKNOWN', '', #224, #221 ) ;
#201 = CIRCLE ( 'NONE', #229, 35.94999999999999574 ) ;
#202 = APPROVAL_PERSON_ORGANIZATION ( #36, #183, #249 ) ;
#203 = ORIENTED_EDGE ( 'NONE', *, *, #239, .F. ) ;
#204 = CC_DESIGN_SECURITY_CLASSIFICATION ( #111, ( #224 ) ) ;
#205 = PRODUCT ( '3D_R1655_21.3x1.6_17362100', '3D_R1655_21.3x1.6_17362100', '', ( #89 ) ) ;
#206 = COORDINATED_UNIVERSAL_TIME_OFFSET ( 1, 0, .AHEAD. ) ;
#207 = EDGE_LOOP ( 'NONE', ( #252, #24 ) ) ;
#208 = PERSON_AND_ORGANIZATION ( #22, #107 ) ;
#209 = PERSON_AND_ORGANIZATION ( #22, #107 ) ;
#210 = ADVANCED_FACE ( 'NONE', ( #246 ), #237, .F. ) ;
#211 = PLANE ( 'NONE',  #13 ) ;
#212 = CARTESIAN_POINT ( 'NONE',  ( -1.591190576097340898E-13, 0.000000000000000000, -54.05000000000000426 ) ) ;
#213 = CIRCLE ( 'NONE', #144, 10.65000000000000036 ) ;
#214 = FACE_BOUND ( 'NONE', #54, .T. ) ;
#215 = DIRECTION ( 'NONE',  ( 0.000000000000000000, 1.000000000000000000, 0.000000000000000000 ) ) ;
#216 = AXIS2_PLACEMENT_3D ( 'NONE', #26, #5, #188 ) ;
#217 = DIRECTION ( 'NONE',  ( 1.000000000000000000, 0.000000000000000000, 2.259334488757235485E-16 ) ) ;
#218 = PERSON_AND_ORGANIZATION ( #22, #107 ) ;
#219 = CC_DESIGN_DATE_AND_TIME_ASSIGNMENT ( #131, #150, ( #111 ) ) ;
#220 = CARTESIAN_POINT ( 'NONE',  ( 0.000000000000000000, 0.000000000000000000, 0.000000000000000000 ) ) ;
#221 = DESIGN_CONTEXT ( 'detailed design', #134, 'design' ) ;
#222 = CARTESIAN_POINT ( 'NONE',  ( 0.000000000000000000, 0.000000000000000000, 0.000000000000000000 ) ) ;
#223 = ADVANCED_FACE ( 'NONE', ( #108 ), #31, .T. ) ;
#224 = PRODUCT_DEFINITION_FORMATION_WITH_SPECIFIED_SOURCE ( 'ANY', '', #205, .NOT_KNOWN. ) ;
#225 = ORIENTED_EDGE ( 'NONE', *, *, #72, .T. ) ;
#226 = APPROVAL_STATUS ( 'not_yet_approved' ) ;
#227 = VERTEX_POINT ( 'NONE', #48 ) ;
#228 = COORDINATED_UNIVERSAL_TIME_OFFSET ( 1, 0, .AHEAD. ) ;
#229 = AXIS2_PLACEMENT_3D ( 'NONE', #40, #62, #97 ) ;
#230 = EDGE_LOOP ( 'NONE', ( #152, #125 ) ) ;
#231 = CC_DESIGN_DATE_AND_TIME_ASSIGNMENT ( #241, #69, ( #200 ) ) ;
#232 = VERTEX_POINT ( 'NONE', #162 ) ;
#233 = DIRECTION ( 'NONE',  ( 0.000000000000000000, 1.000000000000000000, 0.000000000000000000 ) ) ;
#234 = CARTESIAN_POINT ( 'NONE',  ( 0.000000000000000000, -1.304248841091931261E-15, 0.000000000000000000 ) ) ;
#235 = CARTESIAN_POINT ( 'NONE',  ( -1.058340447931533747E-13, 0.000000000000000000, -35.94999999999999574 ) ) ;
#236 = DIRECTION ( 'NONE',  ( 0.000000000000000000, 0.000000000000000000, 1.000000000000000000 ) ) ;
#237 = TOROIDAL_SURFACE ( 'NONE', #179, 45.00000000000000000, 9.049999999999998934 ) ;
#238 = DIRECTION ( 'NONE',  ( 2.943923360032083078E-15, 0.000000000000000000, 1.000000000000000000 ) ) ;
#239 = EDGE_CURVE ( 'NONE', #42, #227, #213, .T. ) ;
#240 = CC_DESIGN_APPROVAL ( #183, ( #224 ) ) ;
#241 = DATE_AND_TIME ( #88, #68 ) ;
#242 = DIRECTION ( 'NONE',  ( 0.000000000000000000, 1.000000000000000000, 0.000000000000000000 ) ) ;
#243 = EDGE_CURVE ( 'NONE', #136, #96, #55, .T. ) ;
#244 = PERSON_AND_ORGANIZATION_ROLE ( 'creator' ) ;
#245 = CIRCLE ( 'NONE', #128, 34.35000000000000142 ) ;
#246 = FACE_OUTER_BOUND ( 'NONE', #113, .T. ) ;
#247 = EDGE_LOOP ( 'NONE', ( #149, #57, #225, #146 ) ) ;
#248 = CIRCLE ( 'NONE', #41, 9.050000000000002487 ) ;
#249 = APPROVAL_ROLE ( '' ) ;
#250 = DATE_AND_TIME ( #59, #99 ) ;
#251 = EDGE_CURVE ( 'NONE', #167, #77, #248, .T. ) ;
#252 = ORIENTED_EDGE ( 'NONE', *, *, #251, .T. ) ;
#253 = CIRCLE ( 'NONE', #25, 55.64999999999999858 ) ;
ENDSEC;
END-ISO-10303-21;
