ISO-10303-21;
HEADER;
FILE_DESCRIPTION (( 'STEP AP203' ),
    '1' );
FILE_NAME ('3D_M-2030P_100_174774060.STEP',
    '2024-09-10T06:59:37',
    ( '' ),
    ( '' ),
    'SwSTEP 2.0',
    'SolidWorks 2024',
    '' );
FILE_SCHEMA (( 'CONFIG_CONTROL_DESIGN' ));
ENDSEC;

DATA;
#1 = APPROVAL_STATUS ( 'not_yet_approved' ) ;
#2 = VERTEX_POINT ( 'NONE', #3 ) ;
#3 = CARTESIAN_POINT ( 'NONE',  ( 0.000000000000000000, 0.000000000000000000, 56.99999999999996447 ) ) ;
#4 = CIRCLE ( 'NONE', #146, 55.04044648600697798 ) ;
#5 = DIRECTION ( 'NONE',  ( 0.000000000000000000, 0.000000000000000000, 1.000000000000000000 ) ) ;
#6 = LOCAL_TIME ( 8, 59, 37.00000000000000000, #239 ) ;
#7 = DIRECTION ( 'NONE',  ( -1.000000000000000000, -0.000000000000000000, -0.000000000000000000 ) ) ;
#8 = FACE_OUTER_BOUND ( 'NONE', #123, .T. ) ;
#9 = EDGE_CURVE ( 'NONE', #246, #2, #47, .T. ) ;
#10 = DIRECTION ( 'NONE',  ( 0.000000000000000000, 0.000000000000000000, 1.000000000000000000 ) ) ;
#11 = CARTESIAN_POINT ( 'NONE',  ( -4.999999999999990230, 0.000000000000000000, -60.49999999999996447 ) ) ;
#12 = CARTESIAN_POINT ( 'NONE',  ( -4.999999999999990230, 0.000000000000000000, 56.99999999999996447 ) ) ;
#13 = LOCAL_TIME ( 8, 59, 37.00000000000000000, #57 ) ;
#14 = ORIENTED_EDGE ( 'NONE', *, *, #91, .F. ) ;
#15 = CALENDAR_DATE ( 2024, 10, 9 ) ;
#16 = EDGE_CURVE ( 'NONE', #2, #181, #28, .T. ) ;
#17 = CALENDAR_DATE ( 2024, 10, 9 ) ;
#18 = ORIENTED_EDGE ( 'NONE', *, *, #223, .T. ) ;
#19 = PRODUCT_RELATED_PRODUCT_CATEGORY ( 'detail', '', ( #122 ) ) ;
#20 = PERSON_AND_ORGANIZATION ( #154, #22 ) ;
#21 = CARTESIAN_POINT ( 'NONE',  ( -4.999999999999990230, 0.000000000000000000, 0.000000000000000000 ) ) ;
#22 = ORGANIZATION ( 'UNSPECIFIED', 'UNSPECIFIED', '' ) ;
#23 = ADVANCED_FACE ( 'NONE', ( #208 ), #140, .F. ) ;
#24 = ORIENTED_EDGE ( 'NONE', *, *, #196, .F. ) ;
#25 = CYLINDRICAL_SURFACE ( 'NONE', #72, 56.99999999999996447 ) ;
#26 = DIRECTION ( 'NONE',  ( -1.000000000000000000, -0.000000000000000000, -0.000000000000000000 ) ) ;
#27 = APPROVAL ( #1, 'UNSPECIFIED' ) ;
#28 = LINE ( 'NONE', #138, #136 ) ;
#29 = CARTESIAN_POINT ( 'NONE',  ( 0.000000000000000000, 0.000000000000000000, 0.000000000000000000 ) ) ;
#30 = DIRECTION ( 'NONE',  ( 0.000000000000000000, 0.000000000000000000, 1.000000000000000000 ) ) ;
#31 = EDGE_LOOP ( 'NONE', ( #75, #100, #195, #158 ) ) ;
#32 = CARTESIAN_POINT ( 'NONE',  ( -108.2865231617622612, 6.980486755139908967E-15, -56.99999999999996447 ) ) ;
#33 = CALENDAR_DATE ( 2024, 10, 9 ) ;
#34 = VECTOR ( 'NONE', #127, 1000.000000000000000 ) ;
#35 = APPROVAL_ROLE ( '' ) ;
#36 = CIRCLE ( 'NONE', #62, 60.49999999999996447 ) ;
#37 = APPROVAL_ROLE ( '' ) ;
#38 = APPROVAL ( #157, 'UNSPECIFIED' ) ;
#39 = AXIS2_PLACEMENT_3D ( 'NONE', #128, #149, #235 ) ;
#40 = PERSON_AND_ORGANIZATION_ROLE ( 'creator' ) ;
#41 = DIRECTION ( 'NONE',  ( 1.000000000000000000, 0.000000000000000000, 0.000000000000000000 ) ) ;
#42 = VERTEX_POINT ( 'NONE', #245 ) ;
#43 =( GEOMETRIC_REPRESENTATION_CONTEXT ( 3 ) GLOBAL_UNCERTAINTY_ASSIGNED_CONTEXT ( ( #216 ) ) GLOBAL_UNIT_ASSIGNED_CONTEXT ( ( #73, #93, #230 ) ) REPRESENTATION_CONTEXT ( 'NONE', 'WORKASPACE' ) );
#44 = CARTESIAN_POINT ( 'NONE',  ( 8.673617379884035472E-16, 56.99999999999996447, 0.000000000000000000 ) ) ;
#45 = FACE_OUTER_BOUND ( 'NONE', #119, .T. ) ;
#46 = ADVANCED_FACE ( 'NONE', ( #45 ), #120, .F. ) ;
#47 = CIRCLE ( 'NONE', #225, 56.99999999999996447 ) ;
#48 = APPROVAL_PERSON_ORGANIZATION ( #151, #27, #35 ) ;
#49 = DIRECTION ( 'NONE',  ( 0.000000000000000000, 0.000000000000000000, -1.000000000000000000 ) ) ;
#50 = CARTESIAN_POINT ( 'NONE',  ( -4.999999999999990230, 0.000000000000000000, 0.000000000000000000 ) ) ;
#51 = DIRECTION ( 'NONE',  ( 0.000000000000000000, 0.000000000000000000, 1.000000000000000000 ) ) ;
#52 = ADVANCED_FACE ( 'NONE', ( #124 ), #25, .T. ) ;
#53 = ORIENTED_EDGE ( 'NONE', *, *, #111, .F. ) ;
#54 = LOCAL_TIME ( 8, 59, 37.00000000000000000, #90 ) ;
#55 = LINE ( 'NONE', #32, #237 ) ;
#56 = LOCAL_TIME ( 8, 59, 37.00000000000000000, #97 ) ;
#57 = COORDINATED_UNIVERSAL_TIME_OFFSET ( 1, 0, .AHEAD. ) ;
#58 = CC_DESIGN_PERSON_AND_ORGANIZATION_ASSIGNMENT ( #254, #118, ( #174 ) ) ;
#59 = DATE_AND_TIME ( #17, #13 ) ;
#60 = PERSON_AND_ORGANIZATION_ROLE ( 'classification_officer' ) ;
#61 = ORIENTED_EDGE ( 'NONE', *, *, #130, .T. ) ;
#62 = AXIS2_PLACEMENT_3D ( 'NONE', #159, #63, #220 ) ;
#63 = DIRECTION ( 'NONE',  ( -1.000000000000000000, -0.000000000000000000, -0.000000000000000000 ) ) ;
#64 = ADVANCED_FACE ( 'NONE', ( #125, #80 ), #82, .F. ) ;
#65 = CARTESIAN_POINT ( 'NONE',  ( -108.2865231617622612, 0.000000000000000000, 0.000000000000000000 ) ) ;
#66 = EDGE_LOOP ( 'NONE', ( #104, #224, #143, #193 ) ) ;
#67 = PRODUCT_DEFINITION ( 'UNKNOWN', '', #174, #240 ) ;
#68 = AXIS2_PLACEMENT_3D ( 'NONE', #85, #126, #164 ) ;
#69 = CARTESIAN_POINT ( 'NONE',  ( -19.99999999999998934, 0.000000000000000000, 0.000000000000000000 ) ) ;
#70 = VERTEX_POINT ( 'NONE', #161 ) ;
#71 = LINE ( 'NONE', #114, #34 ) ;
#72 = AXIS2_PLACEMENT_3D ( 'NONE', #65, #7, #137 ) ;
#73 =( LENGTH_UNIT ( ) NAMED_UNIT ( * ) SI_UNIT ( .MILLI., .METRE. ) );
#74 = ADVANCED_BREP_SHAPE_REPRESENTATION ( '3D_M-2030P_100_174774060', ( #238, #129 ), #43 ) ;
#75 = ORIENTED_EDGE ( 'NONE', *, *, #91, .T. ) ;
#76 = EDGE_CURVE ( 'NONE', #42, #105, #4, .T. ) ;
#77 = PERSON_AND_ORGANIZATION ( #154, #22 ) ;
#78 = COORDINATED_UNIVERSAL_TIME_OFFSET ( 1, 0, .AHEAD. ) ;
#79 = PERSON_AND_ORGANIZATION_ROLE ( 'design_supplier' ) ;
#80 = FACE_BOUND ( 'NONE', #153, .T. ) ;
#81 = CC_DESIGN_SECURITY_CLASSIFICATION ( #214, ( #174 ) ) ;
#82 = PLANE ( 'NONE',  #68 ) ;
#83 = ORIENTED_EDGE ( 'NONE', *, *, #134, .T. ) ;
#84 = APPLICATION_CONTEXT ( 'configuration controlled 3d designs of mechanical parts and assemblies' ) ;
#85 = CARTESIAN_POINT ( 'NONE',  ( -4.999999999999992895, 60.49999999999996447, 0.000000000000000000 ) ) ;
#86 = VECTOR ( 'NONE', #191, 1000.000000000000000 ) ;
#87 = CC_DESIGN_DATE_AND_TIME_ASSIGNMENT ( #59, #197, ( #214 ) ) ;
#88 = DIRECTION ( 'NONE',  ( -1.000000000000000000, -0.000000000000000000, -0.000000000000000000 ) ) ;
#89 = DIRECTION ( 'NONE',  ( 1.000000000000000000, 0.000000000000000000, 0.000000000000000000 ) ) ;
#90 = COORDINATED_UNIVERSAL_TIME_OFFSET ( 1, 0, .AHEAD. ) ;
#91 = EDGE_CURVE ( 'NONE', #2, #246, #132, .T. ) ;
#92 = CARTESIAN_POINT ( 'NONE',  ( 0.000000000000000000, 6.980486755139908967E-15, -56.99999999999996447 ) ) ;
#93 =( NAMED_UNIT ( * ) PLANE_ANGLE_UNIT ( ) SI_UNIT ( $, .RADIAN. ) );
#94 = CC_DESIGN_APPROVAL ( #27, ( #174 ) ) ;
#95 = DIRECTION ( 'NONE',  ( 0.000000000000000000, 0.000000000000000000, 1.000000000000000000 ) ) ;
#96 = PERSON_AND_ORGANIZATION ( #154, #22 ) ;
#97 = COORDINATED_UNIVERSAL_TIME_OFFSET ( 1, 0, .AHEAD. ) ;
#98 = ORIENTED_EDGE ( 'NONE', *, *, #9, .T. ) ;
#99 = ADVANCED_FACE ( 'NONE', ( #8 ), #165, .T. ) ;
#100 = ORIENTED_EDGE ( 'NONE', *, *, #196, .T. ) ;
#101 = PERSON_AND_ORGANIZATION ( #154, #22 ) ;
#102 = DIRECTION ( 'NONE',  ( -1.000000000000000000, -0.000000000000000000, -0.000000000000000000 ) ) ;
#103 = AXIS2_PLACEMENT_3D ( 'NONE', #21, #192, #30 ) ;
#104 = ORIENTED_EDGE ( 'NONE', *, *, #228, .F. ) ;
#105 = VERTEX_POINT ( 'NONE', #110 ) ;
#106 = APPROVAL_PERSON_ORGANIZATION ( #101, #38, #37 ) ;
#107 = CC_DESIGN_DATE_AND_TIME_ASSIGNMENT ( #135, #255, ( #67 ) ) ;
#108 = DIRECTION ( 'NONE',  ( 0.000000000000000000, 0.000000000000000000, 1.000000000000000000 ) ) ;
#109 = APPROVAL_PERSON_ORGANIZATION ( #112, #203, #190 ) ;
#110 = CARTESIAN_POINT ( 'NONE',  ( -19.99999999999998934, 0.000000000000000000, -55.04044648600697798 ) ) ;
#111 = EDGE_CURVE ( 'NONE', #241, #142, #36, .T. ) ;
#112 = PERSON_AND_ORGANIZATION ( #154, #22 ) ;
#113 = CARTESIAN_POINT ( 'NONE',  ( -4.999999999999990230, 7.409113134841482774E-15, 60.49999999999996447 ) ) ;
#114 = CARTESIAN_POINT ( 'NONE',  ( -4.999999999999990230, 0.000000000000000000, -60.49999999999996447 ) ) ;
#115 = DIRECTION ( 'NONE',  ( 1.000000000000000000, 0.000000000000000000, 0.000000000000000000 ) ) ;
#116 = CARTESIAN_POINT ( 'NONE',  ( -4.999999999999990230, 7.409113134841482774E-15, 60.49999999999996447 ) ) ;
#117 = APPROVAL_DATE_TIME ( #176, #27 ) ;
#118 = PERSON_AND_ORGANIZATION_ROLE ( 'creator' ) ;
#119 = EDGE_LOOP ( 'NONE', ( #14, #218 ) ) ;
#120 = PLANE ( 'NONE',  #150 ) ;
#121 = CIRCLE ( 'NONE', #182, 56.99999999999996447 ) ;
#122 = PRODUCT ( '3D_M-2030P_100_174774060', '3D_M-2030P_100_174774060', '', ( #251 ) ) ;
#123 = EDGE_LOOP ( 'NONE', ( #244, #200, #83, #207 ) ) ;
#124 = FACE_OUTER_BOUND ( 'NONE', #31, .T. ) ;
#125 = FACE_OUTER_BOUND ( 'NONE', #206, .T. ) ;
#126 = DIRECTION ( 'NONE',  ( -1.000000000000000000, 0.000000000000000000, -0.000000000000000000 ) ) ;
#127 = DIRECTION ( 'NONE',  ( 0.9396926207859094271, 0.000000000000000000, -0.3420201433256659929 ) ) ;
#128 = CARTESIAN_POINT ( 'NONE',  ( -19.99999999999998934, 0.000000000000000000, 0.000000000000000000 ) ) ;
#129 = AXIS2_PLACEMENT_3D ( 'NONE', #29, #232, #89 ) ;
#130 = EDGE_CURVE ( 'NONE', #181, #70, #198, .T. ) ;
#131 = CALENDAR_DATE ( 2024, 10, 9 ) ;
#132 = CIRCLE ( 'NONE', #234, 56.99999999999996447 ) ;
#133 = APPLICATION_CONTEXT ( 'configuration controlled 3d designs of mechanical parts and assemblies' ) ;
#134 = EDGE_CURVE ( 'NONE', #142, #241, #141, .T. ) ;
#135 = DATE_AND_TIME ( #15, #56 ) ;
#136 = VECTOR ( 'NONE', #102, 1000.000000000000000 ) ;
#137 = DIRECTION ( 'NONE',  ( 0.000000000000000000, 0.000000000000000000, 1.000000000000000000 ) ) ;
#138 = CARTESIAN_POINT ( 'NONE',  ( -108.2865231617622612, 0.000000000000000000, 56.99999999999996447 ) ) ;
#139 = CC_DESIGN_PERSON_AND_ORGANIZATION_ASSIGNMENT ( #77, #168, ( #122 ) ) ;
#140 = PLANE ( 'NONE',  #160 ) ;
#141 = CIRCLE ( 'NONE', #202, 60.49999999999996447 ) ;
#142 = VERTEX_POINT ( 'NONE', #116 ) ;
#143 = ORIENTED_EDGE ( 'NONE', *, *, #219, .T. ) ;
#144 = APPLICATION_PROTOCOL_DEFINITION ( 'international standard', 'config_control_design', 1994, #133 ) ;
#145 = AXIS2_PLACEMENT_3D ( 'NONE', #247, #115, #194 ) ;
#146 = AXIS2_PLACEMENT_3D ( 'NONE', #69, #26, #108 ) ;
#147 = CC_DESIGN_PERSON_AND_ORGANIZATION_ASSIGNMENT ( #20, #40, ( #67 ) ) ;
#148 = LINE ( 'NONE', #113, #86 ) ;
#149 = DIRECTION ( 'NONE',  ( -1.000000000000000000, -0.000000000000000000, -0.000000000000000000 ) ) ;
#150 = AXIS2_PLACEMENT_3D ( 'NONE', #44, #243, #167 ) ;
#151 = PERSON_AND_ORGANIZATION ( #154, #22 ) ;
#152 = CALENDAR_DATE ( 2024, 10, 9 ) ;
#153 = EDGE_LOOP ( 'NONE', ( #61, #18 ) ) ;
#154 = PERSON ( 'UNSPECIFIED', 'UNSPECIFIED', 'UNSPECIFIED', ('UNSPECIFIED'), ('UNSPECIFIED'), ('UNSPECIFIED') ) ;
#155 = CLOSED_SHELL ( 'NONE', ( #52, #99, #23, #172, #64, #201, #46 ) ) ;
#156 = CC_DESIGN_APPROVAL ( #38, ( #214 ) ) ;
#157 = APPROVAL_STATUS ( 'not_yet_approved' ) ;
#158 = ORIENTED_EDGE ( 'NONE', *, *, #16, .F. ) ;
#159 = CARTESIAN_POINT ( 'NONE',  ( -4.999999999999990230, 0.000000000000000000, 0.000000000000000000 ) ) ;
#160 = AXIS2_PLACEMENT_3D ( 'NONE', #221, #222, #187 ) ;
#161 = CARTESIAN_POINT ( 'NONE',  ( -4.999999999999990230, 6.980486755139908967E-15, -56.99999999999996447 ) ) ;
#162 = EDGE_CURVE ( 'NONE', #105, #42, #250, .T. ) ;
#163 = ORIENTED_EDGE ( 'NONE', *, *, #223, .F. ) ;
#164 = DIRECTION ( 'NONE',  ( -0.000000000000000000, 0.000000000000000000, 1.000000000000000000 ) ) ;
#165 = CONICAL_SURFACE ( 'NONE', #184, 60.49999999999996447, 0.3490658503988630090 ) ;
#166 = CC_DESIGN_PERSON_AND_ORGANIZATION_ASSIGNMENT ( #215, #60, ( #214 ) ) ;
#167 = DIRECTION ( 'NONE',  ( -0.000000000000000000, 0.000000000000000000, 1.000000000000000000 ) ) ;
#168 = PERSON_AND_ORGANIZATION_ROLE ( 'design_owner' ) ;
#169 = DIRECTION ( 'NONE',  ( -1.000000000000000000, -0.000000000000000000, -0.000000000000000000 ) ) ;
#170 = CC_DESIGN_APPROVAL ( #203, ( #67 ) ) ;
#171 = CYLINDRICAL_SURFACE ( 'NONE', #248, 56.99999999999996447 ) ;
#172 = ADVANCED_FACE ( 'NONE', ( #210 ), #231, .T. ) ;
#173 = DIRECTION ( 'NONE',  ( -1.000000000000000000, -0.000000000000000000, -0.000000000000000000 ) ) ;
#174 = PRODUCT_DEFINITION_FORMATION_WITH_SPECIFIED_SOURCE ( 'ANY', '', #122, .NOT_KNOWN. ) ;
#175 = DIRECTION ( 'NONE',  ( -1.000000000000000000, -0.000000000000000000, -0.000000000000000000 ) ) ;
#176 = DATE_AND_TIME ( #152, #6 ) ;
#177 = SECURITY_CLASSIFICATION_LEVEL ( 'unclassified' ) ;
#178 = ORIENTED_EDGE ( 'NONE', *, *, #76, .T. ) ;
#179 = CC_DESIGN_PERSON_AND_ORGANIZATION_ASSIGNMENT ( #96, #79, ( #174 ) ) ;
#180 = APPROVAL_DATE_TIME ( #217, #203 ) ;
#181 = VERTEX_POINT ( 'NONE', #12 ) ;
#182 = AXIS2_PLACEMENT_3D ( 'NONE', #50, #173, #10 ) ;
#183 = EDGE_LOOP ( 'NONE', ( #24, #98, #211, #163 ) ) ;
#184 = AXIS2_PLACEMENT_3D ( 'NONE', #189, #41, #49 ) ;
#185 = ORIENTED_EDGE ( 'NONE', *, *, #162, .T. ) ;
#186 = PRODUCT_DEFINITION_SHAPE ( 'NONE', 'NONE',  #67 ) ;
#187 = DIRECTION ( 'NONE',  ( 0.000000000000000000, 0.000000000000000000, -1.000000000000000000 ) ) ;
#188 = CARTESIAN_POINT ( 'NONE',  ( 0.000000000000000000, 0.000000000000000000, 0.000000000000000000 ) ) ;
#189 = CARTESIAN_POINT ( 'NONE',  ( -4.999999999999990230, 0.000000000000000000, 0.000000000000000000 ) ) ;
#190 = APPROVAL_ROLE ( '' ) ;
#191 = DIRECTION ( 'NONE',  ( 0.9396926207859094271, 4.188538737676958485E-17, 0.3420201433256659929 ) ) ;
#192 = DIRECTION ( 'NONE',  ( -1.000000000000000000, -0.000000000000000000, -0.000000000000000000 ) ) ;
#193 = ORIENTED_EDGE ( 'NONE', *, *, #111, .T. ) ;
#194 = DIRECTION ( 'NONE',  ( 0.000000000000000000, 0.000000000000000000, -1.000000000000000000 ) ) ;
#195 = ORIENTED_EDGE ( 'NONE', *, *, #130, .F. ) ;
#196 = EDGE_CURVE ( 'NONE', #246, #70, #55, .T. ) ;
#197 = DATE_TIME_ROLE ( 'classification_date' ) ;
#198 = CIRCLE ( 'NONE', #103, 56.99999999999996447 ) ;
#199 = APPROVAL_DATE_TIME ( #236, #38 ) ;
#200 = ORIENTED_EDGE ( 'NONE', *, *, #228, .T. ) ;
#201 = ADVANCED_FACE ( 'NONE', ( #253 ), #171, .T. ) ;
#202 = AXIS2_PLACEMENT_3D ( 'NONE', #229, #209, #95 ) ;
#203 = APPROVAL ( #212, 'UNSPECIFIED' ) ;
#204 = DIRECTION ( 'NONE',  ( 0.000000000000000000, 0.000000000000000000, 1.000000000000000000 ) ) ;
#205 = EDGE_LOOP ( 'NONE', ( #185, #178 ) ) ;
#206 = EDGE_LOOP ( 'NONE', ( #53, #233 ) ) ;
#207 = ORIENTED_EDGE ( 'NONE', *, *, #219, .F. ) ;
#208 = FACE_OUTER_BOUND ( 'NONE', #205, .T. ) ;
#209 = DIRECTION ( 'NONE',  ( -1.000000000000000000, -0.000000000000000000, -0.000000000000000000 ) ) ;
#210 = FACE_OUTER_BOUND ( 'NONE', #66, .T. ) ;
#211 = ORIENTED_EDGE ( 'NONE', *, *, #16, .T. ) ;
#212 = APPROVAL_STATUS ( 'not_yet_approved' ) ;
#213 = SHAPE_DEFINITION_REPRESENTATION ( #186, #74 ) ;
#214 = SECURITY_CLASSIFICATION ( '', '', #177 ) ;
#215 = PERSON_AND_ORGANIZATION ( #154, #22 ) ;
#216 = UNCERTAINTY_MEASURE_WITH_UNIT (LENGTH_MEASURE( 1.000000000000000082E-05 ), #73, 'distance_accuracy_value', 'NONE');
#217 = DATE_AND_TIME ( #33, #54 ) ;
#218 = ORIENTED_EDGE ( 'NONE', *, *, #9, .F. ) ;
#219 = EDGE_CURVE ( 'NONE', #105, #241, #71, .T. ) ;
#220 = DIRECTION ( 'NONE',  ( 0.000000000000000000, 0.000000000000000000, 1.000000000000000000 ) ) ;
#221 = CARTESIAN_POINT ( 'NONE',  ( -19.99999999999998934, -3.315318599521195210E-14, 0.000000000000000000 ) ) ;
#222 = DIRECTION ( 'NONE',  ( 1.000000000000000000, 0.000000000000000000, 0.000000000000000000 ) ) ;
#223 = EDGE_CURVE ( 'NONE', #70, #181, #121, .T. ) ;
#224 = ORIENTED_EDGE ( 'NONE', *, *, #162, .F. ) ;
#225 = AXIS2_PLACEMENT_3D ( 'NONE', #242, #88, #5 ) ;
#226 = DIRECTION ( 'NONE',  ( -1.000000000000000000, -0.000000000000000000, -0.000000000000000000 ) ) ;
#227 = APPLICATION_PROTOCOL_DEFINITION ( 'international standard', 'config_control_design', 1994, #84 ) ;
#228 = EDGE_CURVE ( 'NONE', #42, #142, #148, .T. ) ;
#229 = CARTESIAN_POINT ( 'NONE',  ( -4.999999999999990230, 0.000000000000000000, 0.000000000000000000 ) ) ;
#230 =( NAMED_UNIT ( * ) SI_UNIT ( $, .STERADIAN. ) SOLID_ANGLE_UNIT ( ) );
#231 = CONICAL_SURFACE ( 'NONE', #145, 60.49999999999996447, 0.3490658503988630090 ) ;
#232 = DIRECTION ( 'NONE',  ( 0.000000000000000000, 0.000000000000000000, 1.000000000000000000 ) ) ;
#233 = ORIENTED_EDGE ( 'NONE', *, *, #134, .F. ) ;
#234 = AXIS2_PLACEMENT_3D ( 'NONE', #188, #226, #204 ) ;
#235 = DIRECTION ( 'NONE',  ( 0.000000000000000000, 0.000000000000000000, 1.000000000000000000 ) ) ;
#236 = DATE_AND_TIME ( #131, #252 ) ;
#237 = VECTOR ( 'NONE', #169, 1000.000000000000000 ) ;
#238 = MANIFOLD_SOLID_BREP ( 'Rotation1', #155 ) ;
#239 = COORDINATED_UNIVERSAL_TIME_OFFSET ( 1, 0, .AHEAD. ) ;
#240 = DESIGN_CONTEXT ( 'detailed design', #84, 'design' ) ;
#241 = VERTEX_POINT ( 'NONE', #11 ) ;
#242 = CARTESIAN_POINT ( 'NONE',  ( 0.000000000000000000, 0.000000000000000000, 0.000000000000000000 ) ) ;
#243 = DIRECTION ( 'NONE',  ( -1.000000000000000000, 0.000000000000000000, -0.000000000000000000 ) ) ;
#244 = ORIENTED_EDGE ( 'NONE', *, *, #76, .F. ) ;
#245 = CARTESIAN_POINT ( 'NONE',  ( -19.99999999999998934, 7.074811898057224061E-15, 55.04044648600697798 ) ) ;
#246 = VERTEX_POINT ( 'NONE', #92 ) ;
#247 = CARTESIAN_POINT ( 'NONE',  ( -4.999999999999990230, 0.000000000000000000, 0.000000000000000000 ) ) ;
#248 = AXIS2_PLACEMENT_3D ( 'NONE', #249, #175, #51 ) ;
#249 = CARTESIAN_POINT ( 'NONE',  ( -108.2865231617622612, 0.000000000000000000, 0.000000000000000000 ) ) ;
#250 = CIRCLE ( 'NONE', #39, 55.04044648600697798 ) ;
#251 = MECHANICAL_CONTEXT ( 'NONE', #133, 'mechanical' ) ;
#252 = LOCAL_TIME ( 8, 59, 37.00000000000000000, #78 ) ;
#253 = FACE_OUTER_BOUND ( 'NONE', #183, .T. ) ;
#254 = PERSON_AND_ORGANIZATION ( #154, #22 ) ;
#255 = DATE_TIME_ROLE ( 'creation_date' ) ;
ENDSEC;
END-ISO-10303-21;
