ISO-10303-21;
HEADER;
FILE_DESCRIPTION (( 'STEP AP203' ),
    '1' );
FILE_NAME ('3D_GG4062_6 x20_188769900.STEP',
    '2024-11-05T11:52:01',
    ( '' ),
    ( '' ),
    'SwSTEP 2.0',
    'SolidWorks 2023',
    '' );
FILE_SCHEMA (( 'CONFIG_CONTROL_DESIGN' ));
ENDSEC;

DATA;
#1 = PERSON_AND_ORGANIZATION ( #229, #73 ) ;
#2 = CC_DESIGN_DATE_AND_TIME_ASSIGNMENT ( #244, #9, ( #329 ) ) ;
#3 = ORIENTED_EDGE ( 'NONE', *, *, #221, .T. ) ;
#4 = ORIENTED_EDGE ( 'NONE', *, *, #80, .F. ) ;
#5 = CC_DESIGN_APPROVAL ( #161, ( #112 ) ) ;
#6 = AXIS2_PLACEMENT_3D ( 'NONE', #281, #183, #178 ) ;
#7 = PERSON_AND_ORGANIZATION ( #229, #73 ) ;
#8 = CC_DESIGN_DATE_AND_TIME_ASSIGNMENT ( #111, #139, ( #207 ) ) ;
#9 = DATE_TIME_ROLE ( 'creation_date' ) ;
#10 = ORIENTED_EDGE ( 'NONE', *, *, #130, .F. ) ;
#11 = VECTOR ( 'NONE', #135, 1000.000000000000000 ) ;
#12 = APPROVAL_ROLE ( '' ) ;
#13 = DIRECTION ( 'NONE',  ( 0.000000000000000000, 0.000000000000000000, 1.000000000000000000 ) ) ;
#14 = DIRECTION ( 'NONE',  ( -1.000000000000000000, -0.000000000000000000, -0.000000000000000000 ) ) ;
#15 = ADVANCED_FACE ( 'NONE', ( #226 ), #250, .T. ) ;
#16 = DATE_AND_TIME ( #295, #182 ) ;
#17 = VERTEX_POINT ( 'NONE', #169 ) ;
#18 = DIRECTION ( 'NONE',  ( -1.000000000000000000, -0.000000000000000000, -0.000000000000000000 ) ) ;
#19 = CIRCLE ( 'NONE', #299, 3.250000000000000000 ) ;
#20 = EDGE_CURVE ( 'NONE', #268, #296, #176, .T. ) ;
#21 = CARTESIAN_POINT ( 'NONE',  ( 10.00000000000000000, 3.367778697655220519E-16, -2.749999999999999556 ) ) ;
#22 = FACE_OUTER_BOUND ( 'NONE', #142, .T. ) ;
#23 = AXIS2_PLACEMENT_3D ( 'NONE', #164, #209, #310 ) ;
#24 = PLANE ( 'NONE',  #25 ) ;
#25 = AXIS2_PLACEMENT_3D ( 'NONE', #177, #233, #330 ) ;
#26 = DIRECTION ( 'NONE',  ( 0.000000000000000000, 0.000000000000000000, 1.000000000000000000 ) ) ;
#27 = EDGE_CURVE ( 'NONE', #321, #84, #243, .T. ) ;
#28 = DIRECTION ( 'NONE',  ( -1.000000000000000000, -0.000000000000000000, -0.000000000000000000 ) ) ;
#29 = DIRECTION ( 'NONE',  ( 0.000000000000000000, 0.000000000000000000, -1.000000000000000000 ) ) ;
#30 = APPROVAL_PERSON_ORGANIZATION ( #110, #65, #314 ) ;
#31 = AXIS2_PLACEMENT_3D ( 'NONE', #323, #14, #96 ) ;
#32 = CARTESIAN_POINT ( 'NONE',  ( -10.00000000000000000, 0.000000000000000000, 0.000000000000000000 ) ) ;
#33 = VERTEX_POINT ( 'NONE', #196 ) ;
#34 = VERTEX_POINT ( 'NONE', #325 ) ;
#35 = EDGE_CURVE ( 'NONE', #89, #197, #320, .T. ) ;
#36 = COORDINATED_UNIVERSAL_TIME_OFFSET ( 1, 0, .AHEAD. ) ;
#37 = DATE_AND_TIME ( #267, #152 ) ;
#38 = PERSON_AND_ORGANIZATION ( #229, #73 ) ;
#39 = EDGE_LOOP ( 'NONE', ( #4, #61, #289, #189 ) ) ;
#40 = AXIS2_PLACEMENT_3D ( 'NONE', #150, #206, #333 ) ;
#41 = VECTOR ( 'NONE', #301, 1000.000000000000000 ) ;
#42 = CARTESIAN_POINT ( 'NONE',  ( -3.750000000000000000, 0.000000000000000000, 0.000000000000000000 ) ) ;
#43 = VERTEX_POINT ( 'NONE', #223 ) ;
#44 = DIRECTION ( 'NONE',  ( -1.000000000000000000, -0.000000000000000000, -0.000000000000000000 ) ) ;
#45 = EDGE_CURVE ( 'NONE', #43, #248, #172, .T. ) ;
#46 = CARTESIAN_POINT ( 'NONE',  ( -3.750000000000000000, 2.750000000000000888, 0.000000000000000000 ) ) ;
#47 = DIRECTION ( 'NONE',  ( 0.000000000000000000, 0.000000000000000000, 1.000000000000000000 ) ) ;
#48 = CARTESIAN_POINT ( 'NONE',  ( 3.750000000000001776, 3.367778697655221012E-16, -2.750000000000000000 ) ) ;
#49 = CYLINDRICAL_SURFACE ( 'NONE', #144, 2.750000000000000444 ) ;
#50 = CIRCLE ( 'NONE', #193, 3.250000000000000000 ) ;
#51 = CARTESIAN_POINT ( 'NONE',  ( -10.00000000000000000, 0.000000000000000000, 2.750000000000000444 ) ) ;
#52 = EDGE_CURVE ( 'NONE', #197, #89, #230, .T. ) ;
#53 =( NAMED_UNIT ( * ) PLANE_ANGLE_UNIT ( ) SI_UNIT ( $, .RADIAN. ) );
#54 = VECTOR ( 'NONE', #218, 1000.000000000000000 ) ;
#55 = ORIENTED_EDGE ( 'NONE', *, *, #273, .T. ) ;
#56 = CARTESIAN_POINT ( 'NONE',  ( -10.00000000000000000, 0.000000000000000000, 2.750000000000000000 ) ) ;
#57 = EDGE_LOOP ( 'NONE', ( #241, #140 ) ) ;
#58 = CALENDAR_DATE ( 2024, 5, 11 ) ;
#59 = APPLICATION_CONTEXT ( 'configuration controlled 3d designs of mechanical parts and assemblies' ) ;
#60 = APPLICATION_PROTOCOL_DEFINITION ( 'international standard', 'config_control_design', 1994, #109 ) ;
#61 = ORIENTED_EDGE ( 'NONE', *, *, #95, .T. ) ;
#62 = CIRCLE ( 'NONE', #85, 2.750000000000000888 ) ;
#63 = APPROVAL_ROLE ( '' ) ;
#64 = CARTESIAN_POINT ( 'NONE',  ( 3.750000000000001776, 0.000000000000000000, 0.000000000000000000 ) ) ;
#65 = APPROVAL ( #107, 'UNSPECIFIED' ) ;
#66 = CARTESIAN_POINT ( 'NONE',  ( 10.00000000000000000, 0.000000000000000000, 0.000000000000000000 ) ) ;
#67 = SHAPE_DEFINITION_REPRESENTATION ( #94, #255 ) ;
#68 = DIRECTION ( 'NONE',  ( 0.000000000000000000, 0.000000000000000000, 1.000000000000000000 ) ) ;
#69 = APPROVAL_PERSON_ORGANIZATION ( #7, #225, #12 ) ;
#70 = CARTESIAN_POINT ( 'NONE',  ( -10.00000000000000000, 3.980102097228897738E-16, -3.250000000000000000 ) ) ;
#71 = EDGE_CURVE ( 'NONE', #33, #248, #50, .T. ) ;
#72 = DIRECTION ( 'NONE',  ( 0.000000000000000000, 0.000000000000000000, 1.000000000000000000 ) ) ;
#73 = ORGANIZATION ( 'UNSPECIFIED', 'UNSPECIFIED', '' ) ;
#74 = CARTESIAN_POINT ( 'NONE',  ( -10.00000000000000000, 3.367778697655221012E-16, -2.750000000000000000 ) ) ;
#75 = CARTESIAN_POINT ( 'NONE',  ( -10.00000000000000000, 0.000000000000000000, 0.000000000000000000 ) ) ;
#76 = FACE_OUTER_BOUND ( 'NONE', #108, .T. ) ;
#77 = DIRECTION ( 'NONE',  ( 0.000000000000000000, 0.000000000000000000, 1.000000000000000000 ) ) ;
#78 = CARTESIAN_POINT ( 'NONE',  ( -10.00000000000000000, 0.000000000000000000, 0.000000000000000000 ) ) ;
#79 = CC_DESIGN_SECURITY_CLASSIFICATION ( #207, ( #112 ) ) ;
#80 = EDGE_CURVE ( 'NONE', #17, #33, #198, .T. ) ;
#81 =( LENGTH_UNIT ( ) NAMED_UNIT ( * ) SI_UNIT ( .MILLI., .METRE. ) );
#82 = PERSON_AND_ORGANIZATION_ROLE ( 'classification_officer' ) ;
#83 = AXIS2_PLACEMENT_3D ( 'NONE', #102, #100, #279 ) ;
#84 = VERTEX_POINT ( 'NONE', #275 ) ;
#85 = AXIS2_PLACEMENT_3D ( 'NONE', #125, #174, #91 ) ;
#86 = ORIENTED_EDGE ( 'NONE', *, *, #149, .T. ) ;
#87 = ADVANCED_FACE ( 'NONE', ( #146, #124 ), #227, .F. ) ;
#88 = APPROVAL_DATE_TIME ( #316, #65 ) ;
#89 = VERTEX_POINT ( 'NONE', #21 ) ;
#90 = AXIS2_PLACEMENT_3D ( 'NONE', #261, #131, #127 ) ;
#91 = DIRECTION ( 'NONE',  ( 0.000000000000000000, 0.000000000000000000, 1.000000000000000000 ) ) ;
#92 = EDGE_LOOP ( 'NONE', ( #162, #119 ) ) ;
#93 = CARTESIAN_POINT ( 'NONE',  ( -3.750000000000000000, 0.000000000000000000, 0.000000000000000000 ) ) ;
#94 = PRODUCT_DEFINITION_SHAPE ( 'NONE', 'NONE',  #329 ) ;
#95 = EDGE_CURVE ( 'NONE', #17, #43, #19, .T. ) ;
#96 = DIRECTION ( 'NONE',  ( 0.000000000000000000, 0.000000000000000000, 1.000000000000000000 ) ) ;
#97 = DIRECTION ( 'NONE',  ( 0.000000000000000000, 0.000000000000000000, -1.000000000000000000 ) ) ;
#98 = DIRECTION ( 'NONE',  ( -1.000000000000000000, -0.000000000000000000, -0.000000000000000000 ) ) ;
#99 = AXIS2_PLACEMENT_3D ( 'NONE', #307, #260, #29 ) ;
#100 = DIRECTION ( 'NONE',  ( -1.000000000000000000, -0.000000000000000000, -0.000000000000000000 ) ) ;
#101 = FACE_OUTER_BOUND ( 'NONE', #39, .T. ) ;
#102 = CARTESIAN_POINT ( 'NONE',  ( -10.00000000000000000, 0.000000000000000000, 0.000000000000000000 ) ) ;
#103 = PRODUCT_RELATED_PRODUCT_CATEGORY ( 'detail', '', ( #136 ) ) ;
#104 = CARTESIAN_POINT ( 'NONE',  ( 10.00000000000000000, 0.000000000000000000, 2.749999999999999556 ) ) ;
#105 = DIRECTION ( 'NONE',  ( 0.000000000000000000, 0.000000000000000000, 1.000000000000000000 ) ) ;
#106 = CC_DESIGN_APPROVAL ( #225, ( #207 ) ) ;
#107 = APPROVAL_STATUS ( 'not_yet_approved' ) ;
#108 = EDGE_LOOP ( 'NONE', ( #238, #286, #291, #188 ) ) ;
#109 = APPLICATION_CONTEXT ( 'configuration controlled 3d designs of mechanical parts and assemblies' ) ;
#110 = PERSON_AND_ORGANIZATION ( #229, #73 ) ;
#111 = DATE_AND_TIME ( #240, #232 ) ;
#112 = PRODUCT_DEFINITION_FORMATION_WITH_SPECIFIED_SOURCE ( 'ANY', '', #136, .NOT_KNOWN. ) ;
#113 = EDGE_LOOP ( 'NONE', ( #55, #270 ) ) ;
#114 = CC_DESIGN_PERSON_AND_ORGANIZATION_ASSIGNMENT ( #38, #163, ( #112 ) ) ;
#115 = MANIFOLD_SOLID_BREP ( 'Rotation1', #276 ) ;
#116 = PERSON_AND_ORGANIZATION ( #229, #73 ) ;
#117 = ORIENTED_EDGE ( 'NONE', *, *, #27, .F. ) ;
#118 = CC_DESIGN_PERSON_AND_ORGANIZATION_ASSIGNMENT ( #1, #186, ( #136 ) ) ;
#119 = ORIENTED_EDGE ( 'NONE', *, *, #95, .F. ) ;
#120 = AXIS2_PLACEMENT_3D ( 'NONE', #306, #283, #257 ) ;
#121 = DIRECTION ( 'NONE',  ( 0.000000000000000000, 0.000000000000000000, 1.000000000000000000 ) ) ;
#122 = EDGE_LOOP ( 'NONE', ( #165, #192 ) ) ;
#123 = CARTESIAN_POINT ( 'NONE',  ( -10.00000000000000000, 0.000000000000000000, 3.250000000000000000 ) ) ;
#124 = FACE_OUTER_BOUND ( 'NONE', #113, .T. ) ;
#125 = CARTESIAN_POINT ( 'NONE',  ( -3.750000000000000000, 0.000000000000000000, 0.000000000000000000 ) ) ;
#126 = LINE ( 'NONE', #74, #214 ) ;
#127 = DIRECTION ( 'NONE',  ( 0.000000000000000000, 0.000000000000000000, 1.000000000000000000 ) ) ;
#128 = UNCERTAINTY_MEASURE_WITH_UNIT (LENGTH_MEASURE( 1.000000000000000082E-05 ), #81, 'distance_accuracy_value', 'NONE');
#129 = CARTESIAN_POINT ( 'NONE',  ( -3.750000000000000000, 0.000000000000000000, 3.250000000000000000 ) ) ;
#130 = EDGE_CURVE ( 'NONE', #84, #321, #62, .T. ) ;
#131 = DIRECTION ( 'NONE',  ( -1.000000000000000000, -0.000000000000000000, -0.000000000000000000 ) ) ;
#132 =( GEOMETRIC_REPRESENTATION_CONTEXT ( 3 ) GLOBAL_UNCERTAINTY_ASSIGNED_CONTEXT ( ( #128 ) ) GLOBAL_UNIT_ASSIGNED_CONTEXT ( ( #81, #53, #242 ) ) REPRESENTATION_CONTEXT ( 'NONE', 'WORKASPACE' ) );
#133 = DIRECTION ( 'NONE',  ( 0.000000000000000000, 0.000000000000000000, 1.000000000000000000 ) ) ;
#134 = AXIS2_PLACEMENT_3D ( 'NONE', #254, #168, #173 ) ;
#135 = DIRECTION ( 'NONE',  ( -1.000000000000000000, -0.000000000000000000, -0.000000000000000000 ) ) ;
#136 = PRODUCT ( '3D_GG4062_6 x20_188769900', '3D_GG4062_6 x20_188769900', '', ( #317 ) ) ;
#137 = ORIENTED_EDGE ( 'NONE', *, *, #155, .T. ) ;
#138 = ORIENTED_EDGE ( 'NONE', *, *, #20, .T. ) ;
#139 = DATE_TIME_ROLE ( 'classification_date' ) ;
#140 = ORIENTED_EDGE ( 'NONE', *, *, #35, .F. ) ;
#141 = ADVANCED_FACE ( 'NONE', ( #204, #277 ), #24, .F. ) ;
#142 = EDGE_LOOP ( 'NONE', ( #220, #293, #211, #195 ) ) ;
#143 = EDGE_LOOP ( 'NONE', ( #215, #86, #160, #284 ) ) ;
#144 = AXIS2_PLACEMENT_3D ( 'NONE', #75, #278, #77 ) ;
#145 = DIRECTION ( 'NONE',  ( -1.000000000000000000, -0.000000000000000000, -0.000000000000000000 ) ) ;
#146 = FACE_BOUND ( 'NONE', #245, .T. ) ;
#147 = AXIS2_PLACEMENT_3D ( 'NONE', #64, #18, #13 ) ;
#148 = AXIS2_PLACEMENT_3D ( 'NONE', #46, #327, #97 ) ;
#149 = EDGE_CURVE ( 'NONE', #89, #268, #126, .T. ) ;
#150 = CARTESIAN_POINT ( 'NONE',  ( 3.750000000000000000, 0.000000000000000000, 0.000000000000000000 ) ) ;
#151 = DIRECTION ( 'NONE',  ( -1.000000000000000000, -0.000000000000000000, -0.000000000000000000 ) ) ;
#152 = LOCAL_TIME ( 12, 52, 1.000000000000000000, #167 ) ;
#153 = CIRCLE ( 'NONE', #6, 2.750000000000000000 ) ;
#154 = DIRECTION ( 'NONE',  ( 0.000000000000000000, 0.000000000000000000, 1.000000000000000000 ) ) ;
#155 = EDGE_CURVE ( 'NONE', #296, #268, #153, .T. ) ;
#156 = CARTESIAN_POINT ( 'NONE',  ( -10.00000000000000000, 0.000000000000000000, 0.000000000000000000 ) ) ;
#157 = PLANE ( 'NONE',  #99 ) ;
#158 = AXIS2_PLACEMENT_3D ( 'NONE', #32, #239, #105 ) ;
#159 = CARTESIAN_POINT ( 'NONE',  ( -3.750000000000000000, 0.000000000000000000, 2.750000000000000888 ) ) ;
#160 = ORIENTED_EDGE ( 'NONE', *, *, #155, .F. ) ;
#161 = APPROVAL ( #292, 'UNSPECIFIED' ) ;
#162 = ORIENTED_EDGE ( 'NONE', *, *, #221, .F. ) ;
#163 = PERSON_AND_ORGANIZATION_ROLE ( 'design_supplier' ) ;
#164 = CARTESIAN_POINT ( 'NONE',  ( 0.000000000000000000, 0.000000000000000000, 0.000000000000000000 ) ) ;
#165 = ORIENTED_EDGE ( 'NONE', *, *, #282, .T. ) ;
#166 = ADVANCED_FACE ( 'NONE', ( #234 ), #334, .T. ) ;
#167 = COORDINATED_UNIVERSAL_TIME_OFFSET ( 1, 0, .AHEAD. ) ;
#168 = DIRECTION ( 'NONE',  ( -1.000000000000000000, -0.000000000000000000, -0.000000000000000000 ) ) ;
#169 = CARTESIAN_POINT ( 'NONE',  ( 3.750000000000000000, 3.980102097228897738E-16, -3.250000000000000000 ) ) ;
#170 = AXIS2_PLACEMENT_3D ( 'NONE', #66, #44, #249 ) ;
#171 = EDGE_CURVE ( 'NONE', #34, #294, #280, .T. ) ;
#172 = LINE ( 'NONE', #123, #41 ) ;
#173 = DIRECTION ( 'NONE',  ( 0.000000000000000000, 0.000000000000000000, 1.000000000000000000 ) ) ;
#174 = DIRECTION ( 'NONE',  ( -1.000000000000000000, -0.000000000000000000, -0.000000000000000000 ) ) ;
#175 = CIRCLE ( 'NONE', #40, 3.250000000000000000 ) ;
#176 = CIRCLE ( 'NONE', #147, 2.750000000000000000 ) ;
#177 = CARTESIAN_POINT ( 'NONE',  ( 3.750000000000000444, 3.250000000000000000, 0.000000000000000000 ) ) ;
#178 = DIRECTION ( 'NONE',  ( 0.000000000000000000, 0.000000000000000000, 1.000000000000000000 ) ) ;
#179 = DESIGN_CONTEXT ( 'detailed design', #109, 'design' ) ;
#180 = DIRECTION ( 'NONE',  ( -1.000000000000000000, -0.000000000000000000, -0.000000000000000000 ) ) ;
#181 = CARTESIAN_POINT ( 'NONE',  ( -10.00000000000000000, 0.000000000000000000, 0.000000000000000000 ) ) ;
#182 = LOCAL_TIME ( 12, 52, 1.000000000000000000, #199 ) ;
#183 = DIRECTION ( 'NONE',  ( -1.000000000000000000, -0.000000000000000000, -0.000000000000000000 ) ) ;
#184 = LINE ( 'NONE', #285, #11 ) ;
#185 = CIRCLE ( 'NONE', #90, 3.250000000000000000 ) ;
#186 = PERSON_AND_ORGANIZATION_ROLE ( 'design_owner' ) ;
#187 = COORDINATED_UNIVERSAL_TIME_OFFSET ( 1, 0, .AHEAD. ) ;
#188 = ORIENTED_EDGE ( 'NONE', *, *, #171, .F. ) ;
#189 = ORIENTED_EDGE ( 'NONE', *, *, #71, .F. ) ;
#190 = PERSON_AND_ORGANIZATION ( #229, #73 ) ;
#191 = PERSON_AND_ORGANIZATION ( #229, #73 ) ;
#192 = ORIENTED_EDGE ( 'NONE', *, *, #171, .T. ) ;
#193 = AXIS2_PLACEMENT_3D ( 'NONE', #93, #298, #68 ) ;
#194 = SECURITY_CLASSIFICATION_LEVEL ( 'unclassified' ) ;
#195 = ORIENTED_EDGE ( 'NONE', *, *, #20, .F. ) ;
#196 = CARTESIAN_POINT ( 'NONE',  ( -3.750000000000000000, 3.980102097228897738E-16, -3.250000000000000000 ) ) ;
#197 = VERTEX_POINT ( 'NONE', #104 ) ;
#198 = LINE ( 'NONE', #70, #265 ) ;
#199 = COORDINATED_UNIVERSAL_TIME_OFFSET ( 1, 0, .AHEAD. ) ;
#200 = CARTESIAN_POINT ( 'NONE',  ( 3.750000000000000000, 0.000000000000000000, 0.000000000000000000 ) ) ;
#201 = ADVANCED_FACE ( 'NONE', ( #76 ), #202, .T. ) ;
#202 = CYLINDRICAL_SURFACE ( 'NONE', #246, 2.750000000000000444 ) ;
#203 = PLANE ( 'NONE',  #120 ) ;
#204 = FACE_OUTER_BOUND ( 'NONE', #92, .T. ) ;
#205 = FACE_OUTER_BOUND ( 'NONE', #57, .T. ) ;
#206 = DIRECTION ( 'NONE',  ( -1.000000000000000000, -0.000000000000000000, -0.000000000000000000 ) ) ;
#207 = SECURITY_CLASSIFICATION ( '', '', #194 ) ;
#208 = EDGE_CURVE ( 'NONE', #321, #294, #259, .T. ) ;
#209 = DIRECTION ( 'NONE',  ( 0.000000000000000000, 0.000000000000000000, 1.000000000000000000 ) ) ;
#210 = PERSON_AND_ORGANIZATION_ROLE ( 'creator' ) ;
#211 = ORIENTED_EDGE ( 'NONE', *, *, #305, .T. ) ;
#212 = LOCAL_TIME ( 12, 52, 1.000000000000000000, #217 ) ;
#213 = CYLINDRICAL_SURFACE ( 'NONE', #158, 3.250000000000000000 ) ;
#214 = VECTOR ( 'NONE', #180, 1000.000000000000000 ) ;
#215 = ORIENTED_EDGE ( 'NONE', *, *, #52, .T. ) ;
#216 = ADVANCED_FACE ( 'NONE', ( #256 ), #157, .F. ) ;
#217 = COORDINATED_UNIVERSAL_TIME_OFFSET ( 1, 0, .AHEAD. ) ;
#218 = DIRECTION ( 'NONE',  ( -1.000000000000000000, -0.000000000000000000, -0.000000000000000000 ) ) ;
#219 = CIRCLE ( 'NONE', #303, 2.750000000000000000 ) ;
#220 = ORIENTED_EDGE ( 'NONE', *, *, #149, .F. ) ;
#221 = EDGE_CURVE ( 'NONE', #43, #17, #175, .T. ) ;
#222 = ORIENTED_EDGE ( 'NONE', *, *, #332, .T. ) ;
#223 = CARTESIAN_POINT ( 'NONE',  ( 3.750000000000000000, 0.000000000000000000, 3.250000000000000000 ) ) ;
#224 = AXIS2_PLACEMENT_3D ( 'NONE', #181, #151, #154 ) ;
#225 = APPROVAL ( #326, 'UNSPECIFIED' ) ;
#226 = FACE_OUTER_BOUND ( 'NONE', #143, .T. ) ;
#227 = PLANE ( 'NONE',  #148 ) ;
#228 = DIRECTION ( 'NONE',  ( -1.000000000000000000, -0.000000000000000000, -0.000000000000000000 ) ) ;
#229 = PERSON ( 'UNSPECIFIED', 'UNSPECIFIED', 'UNSPECIFIED', ('UNSPECIFIED'), ('UNSPECIFIED'), ('UNSPECIFIED') ) ;
#230 = CIRCLE ( 'NONE', #31, 2.749999999999999556 ) ;
#231 = CARTESIAN_POINT ( 'NONE',  ( -10.00000000000000000, 0.000000000000000000, 2.750000000000000000 ) ) ;
#232 = LOCAL_TIME ( 12, 52, 1.000000000000000000, #187 ) ;
#233 = DIRECTION ( 'NONE',  ( -1.000000000000000000, 0.000000000000000000, -0.000000000000000000 ) ) ;
#234 = FACE_OUTER_BOUND ( 'NONE', #271, .T. ) ;
#235 = ADVANCED_FACE ( 'NONE', ( #22 ), #309, .T. ) ;
#236 = APPROVAL_DATE_TIME ( #37, #161 ) ;
#237 = LINE ( 'NONE', #56, #54 ) ;
#238 = ORIENTED_EDGE ( 'NONE', *, *, #332, .F. ) ;
#239 = DIRECTION ( 'NONE',  ( -1.000000000000000000, -0.000000000000000000, -0.000000000000000000 ) ) ;
#240 = CALENDAR_DATE ( 2024, 5, 11 ) ;
#241 = ORIENTED_EDGE ( 'NONE', *, *, #52, .F. ) ;
#242 =( NAMED_UNIT ( * ) SI_UNIT ( $, .STERADIAN. ) SOLID_ANGLE_UNIT ( ) );
#243 = CIRCLE ( 'NONE', #335, 2.750000000000000888 ) ;
#244 = DATE_AND_TIME ( #290, #258 ) ;
#245 = EDGE_LOOP ( 'NONE', ( #117, #10 ) ) ;
#246 = AXIS2_PLACEMENT_3D ( 'NONE', #304, #328, #47 ) ;
#247 = ADVANCED_FACE ( 'NONE', ( #205 ), #203, .F. ) ;
#248 = VERTEX_POINT ( 'NONE', #129 ) ;
#249 = DIRECTION ( 'NONE',  ( 0.000000000000000000, 0.000000000000000000, 1.000000000000000000 ) ) ;
#250 = CYLINDRICAL_SURFACE ( 'NONE', #134, 2.750000000000000000 ) ;
#251 = ADVANCED_FACE ( 'NONE', ( #308 ), #49, .T. ) ;
#252 = DIRECTION ( 'NONE',  ( -1.000000000000000000, -0.000000000000000000, -0.000000000000000000 ) ) ;
#253 = AXIS2_PLACEMENT_3D ( 'NONE', #156, #228, #26 ) ;
#254 = CARTESIAN_POINT ( 'NONE',  ( -10.00000000000000000, 0.000000000000000000, 0.000000000000000000 ) ) ;
#255 = ADVANCED_BREP_SHAPE_REPRESENTATION ( '3D_GG4062_6 x20_188769900', ( #115, #23 ), #132 ) ;
#256 = FACE_OUTER_BOUND ( 'NONE', #122, .T. ) ;
#257 = DIRECTION ( 'NONE',  ( -0.000000000000000000, 0.000000000000000000, 1.000000000000000000 ) ) ;
#258 = LOCAL_TIME ( 12, 52, 1.000000000000000000, #36 ) ;
#259 = LINE ( 'NONE', #51, #313 ) ;
#260 = DIRECTION ( 'NONE',  ( 1.000000000000000000, 0.000000000000000000, 0.000000000000000000 ) ) ;
#261 = CARTESIAN_POINT ( 'NONE',  ( -3.750000000000000000, 0.000000000000000000, 0.000000000000000000 ) ) ;
#262 = ORIENTED_EDGE ( 'NONE', *, *, #45, .F. ) ;
#263 = ORIENTED_EDGE ( 'NONE', *, *, #27, .T. ) ;
#264 = PERSON_AND_ORGANIZATION_ROLE ( 'creator' ) ;
#265 = VECTOR ( 'NONE', #252, 1000.000000000000000 ) ;
#266 = ORIENTED_EDGE ( 'NONE', *, *, #80, .T. ) ;
#267 = CALENDAR_DATE ( 2024, 5, 11 ) ;
#268 = VERTEX_POINT ( 'NONE', #48 ) ;
#269 = CC_DESIGN_PERSON_AND_ORGANIZATION_ASSIGNMENT ( #190, #264, ( #329 ) ) ;
#270 = ORIENTED_EDGE ( 'NONE', *, *, #71, .T. ) ;
#271 = EDGE_LOOP ( 'NONE', ( #3, #266, #318, #262 ) ) ;
#272 = ORIENTED_EDGE ( 'NONE', *, *, #208, .F. ) ;
#273 = EDGE_CURVE ( 'NONE', #248, #33, #185, .T. ) ;
#274 = APPROVAL_DATE_TIME ( #16, #225 ) ;
#275 = CARTESIAN_POINT ( 'NONE',  ( -3.750000000000000000, 3.367778697655222491E-16, -2.750000000000000888 ) ) ;
#276 = CLOSED_SHELL ( 'NONE', ( #15, #166, #251, #216, #201, #87, #300, #141, #235, #247 ) ) ;
#277 = FACE_BOUND ( 'NONE', #315, .T. ) ;
#278 = DIRECTION ( 'NONE',  ( -1.000000000000000000, -0.000000000000000000, -0.000000000000000000 ) ) ;
#279 = DIRECTION ( 'NONE',  ( 0.000000000000000000, 0.000000000000000000, 1.000000000000000000 ) ) ;
#280 = CIRCLE ( 'NONE', #224, 2.750000000000000000 ) ;
#281 = CARTESIAN_POINT ( 'NONE',  ( 3.750000000000001776, 0.000000000000000000, 0.000000000000000000 ) ) ;
#282 = EDGE_CURVE ( 'NONE', #294, #34, #219, .T. ) ;
#283 = DIRECTION ( 'NONE',  ( -1.000000000000000000, 0.000000000000000000, -0.000000000000000000 ) ) ;
#284 = ORIENTED_EDGE ( 'NONE', *, *, #305, .F. ) ;
#285 = CARTESIAN_POINT ( 'NONE',  ( -10.00000000000000000, 3.367778697655221505E-16, -2.750000000000000444 ) ) ;
#286 = ORIENTED_EDGE ( 'NONE', *, *, #130, .T. ) ;
#287 = CC_DESIGN_PERSON_AND_ORGANIZATION_ASSIGNMENT ( #116, #210, ( #112 ) ) ;
#288 = APPLICATION_PROTOCOL_DEFINITION ( 'international standard', 'config_control_design', 1994, #59 ) ;
#289 = ORIENTED_EDGE ( 'NONE', *, *, #45, .T. ) ;
#290 = CALENDAR_DATE ( 2024, 5, 11 ) ;
#291 = ORIENTED_EDGE ( 'NONE', *, *, #208, .T. ) ;
#292 = APPROVAL_STATUS ( 'not_yet_approved' ) ;
#293 = ORIENTED_EDGE ( 'NONE', *, *, #35, .T. ) ;
#294 = VERTEX_POINT ( 'NONE', #231 ) ;
#295 = CALENDAR_DATE ( 2024, 5, 11 ) ;
#296 = VERTEX_POINT ( 'NONE', #331 ) ;
#297 = APPROVAL_PERSON_ORGANIZATION ( #191, #161, #63 ) ;
#298 = DIRECTION ( 'NONE',  ( -1.000000000000000000, -0.000000000000000000, -0.000000000000000000 ) ) ;
#299 = AXIS2_PLACEMENT_3D ( 'NONE', #200, #302, #72 ) ;
#300 = ADVANCED_FACE ( 'NONE', ( #101 ), #213, .T. ) ;
#301 = DIRECTION ( 'NONE',  ( -1.000000000000000000, -0.000000000000000000, -0.000000000000000000 ) ) ;
#302 = DIRECTION ( 'NONE',  ( -1.000000000000000000, -0.000000000000000000, -0.000000000000000000 ) ) ;
#303 = AXIS2_PLACEMENT_3D ( 'NONE', #78, #28, #133 ) ;
#304 = CARTESIAN_POINT ( 'NONE',  ( -10.00000000000000000, 0.000000000000000000, 0.000000000000000000 ) ) ;
#305 = EDGE_CURVE ( 'NONE', #197, #296, #237, .T. ) ;
#306 = CARTESIAN_POINT ( 'NONE',  ( 10.00000000000000000, 2.749999999999999556, 0.000000000000000000 ) ) ;
#307 = CARTESIAN_POINT ( 'NONE',  ( -10.00000000000000000, 0.000000000000000000, 0.000000000000000000 ) ) ;
#308 = FACE_OUTER_BOUND ( 'NONE', #322, .T. ) ;
#309 = CYLINDRICAL_SURFACE ( 'NONE', #83, 2.750000000000000000 ) ;
#310 = DIRECTION ( 'NONE',  ( 1.000000000000000000, 0.000000000000000000, 0.000000000000000000 ) ) ;
#311 = PERSON_AND_ORGANIZATION ( #229, #73 ) ;
#312 = ORIENTED_EDGE ( 'NONE', *, *, #282, .F. ) ;
#313 = VECTOR ( 'NONE', #98, 1000.000000000000000 ) ;
#314 = APPROVAL_ROLE ( '' ) ;
#315 = EDGE_LOOP ( 'NONE', ( #137, #138 ) ) ;
#316 = DATE_AND_TIME ( #58, #212 ) ;
#317 = MECHANICAL_CONTEXT ( 'NONE', #59, 'mechanical' ) ;
#318 = ORIENTED_EDGE ( 'NONE', *, *, #273, .F. ) ;
#319 = CC_DESIGN_APPROVAL ( #65, ( #329 ) ) ;
#320 = CIRCLE ( 'NONE', #170, 2.749999999999999556 ) ;
#321 = VERTEX_POINT ( 'NONE', #159 ) ;
#322 = EDGE_LOOP ( 'NONE', ( #263, #222, #312, #272 ) ) ;
#323 = CARTESIAN_POINT ( 'NONE',  ( 10.00000000000000000, 0.000000000000000000, 0.000000000000000000 ) ) ;
#324 = CC_DESIGN_PERSON_AND_ORGANIZATION_ASSIGNMENT ( #311, #82, ( #207 ) ) ;
#325 = CARTESIAN_POINT ( 'NONE',  ( -10.00000000000000000, 3.367778697655221505E-16, -2.750000000000000000 ) ) ;
#326 = APPROVAL_STATUS ( 'not_yet_approved' ) ;
#327 = DIRECTION ( 'NONE',  ( 1.000000000000000000, 0.000000000000000000, 0.000000000000000000 ) ) ;
#328 = DIRECTION ( 'NONE',  ( -1.000000000000000000, -0.000000000000000000, -0.000000000000000000 ) ) ;
#329 = PRODUCT_DEFINITION ( 'UNKNOWN', '', #112, #179 ) ;
#330 = DIRECTION ( 'NONE',  ( -0.000000000000000000, 0.000000000000000000, 1.000000000000000000 ) ) ;
#331 = CARTESIAN_POINT ( 'NONE',  ( 3.750000000000001776, 0.000000000000000000, 2.750000000000000000 ) ) ;
#332 = EDGE_CURVE ( 'NONE', #84, #34, #184, .T. ) ;
#333 = DIRECTION ( 'NONE',  ( 0.000000000000000000, 0.000000000000000000, 1.000000000000000000 ) ) ;
#334 = CYLINDRICAL_SURFACE ( 'NONE', #253, 3.250000000000000000 ) ;
#335 = AXIS2_PLACEMENT_3D ( 'NONE', #42, #145, #121 ) ;
ENDSEC;
END-ISO-10303-21;
