ISO-10303-21;
HEADER;
FILE_DESCRIPTION (( 'STEP AP203' ),
    '1' );
FILE_NAME ('3D_GG4072_24x22x2_188769940.STEP',
    '2024-11-05T11:58:25',
    ( '' ),
    ( '' ),
    'SwSTEP 2.0',
    'SolidWorks 2023',
    '' );
FILE_SCHEMA (( 'CONFIG_CONTROL_DESIGN' ));
ENDSEC;

DATA;
#1 = ORIENTED_EDGE ( 'NONE', *, *, #297, .T. ) ;
#2 = AXIS2_PLACEMENT_3D ( 'NONE', #53, #181, #10 ) ;
#3 = AXIS2_PLACEMENT_3D ( 'NONE', #205, #30, #134 ) ;
#4 = ORIENTED_EDGE ( 'NONE', *, *, #109, .T. ) ;
#5 = ORIENTED_EDGE ( 'NONE', *, *, #109, .F. ) ;
#6 = VERTEX_POINT ( 'NONE', #129 ) ;
#7 = DIRECTION ( 'NONE',  ( 0.000000000000000000, 1.000000000000000000, 0.000000000000000000 ) ) ;
#8 = DIRECTION ( 'NONE',  ( 1.577021341797097560E-16, 0.000000000000000000, 1.000000000000000000 ) ) ;
#9 = ADVANCED_FACE ( 'NONE', ( #219 ), #71, .F. ) ;
#10 = DIRECTION ( 'NONE',  ( -1.577021341797097560E-16, 0.000000000000000000, -1.000000000000000000 ) ) ;
#11 = CC_DESIGN_SECURITY_CLASSIFICATION ( #21, ( #169 ) ) ;
#12 = CARTESIAN_POINT ( 'NONE',  ( -12.00000000000000000, 2.000000000000000000, 11.00000000000000178 ) ) ;
#13 = CARTESIAN_POINT ( 'NONE',  ( 12.00000000000000000, 0.000000000000000000, 11.00000000000000178 ) ) ;
#14 = PERSON_AND_ORGANIZATION ( #47, #128 ) ;
#15 = ORIENTED_EDGE ( 'NONE', *, *, #220, .T. ) ;
#16 = EDGE_CURVE ( 'NONE', #27, #317, #99, .T. ) ;
#17 = APPLICATION_PROTOCOL_DEFINITION ( 'international standard', 'config_control_design', 1994, #69 ) ;
#18 = ORIENTED_EDGE ( 'NONE', *, *, #322, .T. ) ;
#19 = LINE ( 'NONE', #244, #78 ) ;
#20 = VERTEX_POINT ( 'NONE', #45 ) ;
#21 = SECURITY_CLASSIFICATION ( '', '', #254 ) ;
#22 = ORIENTED_EDGE ( 'NONE', *, *, #200, .F. ) ;
#23 = ORIENTED_EDGE ( 'NONE', *, *, #180, .F. ) ;
#24 = CARTESIAN_POINT ( 'NONE',  ( 11.99999999999999289, 2.000000000000000000, -10.99999999999999822 ) ) ;
#25 = LOCAL_TIME ( 12, 58, 25.00000000000000000, #150 ) ;
#26 = VECTOR ( 'NONE', #70, 1000.000000000000000 ) ;
#27 = VERTEX_POINT ( 'NONE', #154 ) ;
#28 = DATE_AND_TIME ( #323, #79 ) ;
#29 = DIRECTION ( 'NONE',  ( 0.000000000000000000, -0.000000000000000000, 1.000000000000000000 ) ) ;
#30 = DIRECTION ( 'NONE',  ( 0.000000000000000000, 0.000000000000000000, 1.000000000000000000 ) ) ;
#31 = LINE ( 'NONE', #186, #153 ) ;
#32 = DIRECTION ( 'NONE',  ( -1.000000000000000000, -0.000000000000000000, -0.000000000000000000 ) ) ;
#33 = CARTESIAN_POINT ( 'NONE',  ( 11.99999999999999289, 0.000000000000000000, -10.99999999999999822 ) ) ;
#34 = PERSON_AND_ORGANIZATION_ROLE ( 'creator' ) ;
#35 = PERSON_AND_ORGANIZATION_ROLE ( 'design_owner' ) ;
#36 = MECHANICAL_CONTEXT ( 'NONE', #52, 'mechanical' ) ;
#37 = ORIENTED_EDGE ( 'NONE', *, *, #214, .T. ) ;
#38 = CC_DESIGN_APPROVAL ( #293, ( #169 ) ) ;
#39 = ADVANCED_FACE ( 'NONE', ( #197 ), #193, .T. ) ;
#40 = APPROVAL_STATUS ( 'not_yet_approved' ) ;
#41 = ORIENTED_EDGE ( 'NONE', *, *, #274, .T. ) ;
#42 = PERSON_AND_ORGANIZATION ( #47, #128 ) ;
#43 = DIRECTION ( 'NONE',  ( 0.000000000000000000, 0.000000000000000000, 1.000000000000000000 ) ) ;
#44 = ADVANCED_FACE ( 'NONE', ( #155 ), #152, .F. ) ;
#45 = CARTESIAN_POINT ( 'NONE',  ( -12.00000000000000355, 2.000000000000000000, -10.99999999999999822 ) ) ;
#46 = EDGE_CURVE ( 'NONE', #165, #319, #252, .T. ) ;
#47 = PERSON ( 'UNSPECIFIED', 'UNSPECIFIED', 'UNSPECIFIED', ('UNSPECIFIED'), ('UNSPECIFIED'), ('UNSPECIFIED') ) ;
#48 = DIRECTION ( 'NONE',  ( -0.000000000000000000, -1.000000000000000000, -0.000000000000000000 ) ) ;
#49 = FACE_OUTER_BOUND ( 'NONE', #243, .T. ) ;
#50 = DIRECTION ( 'NONE',  ( 1.577021341797097560E-16, 0.000000000000000000, 1.000000000000000000 ) ) ;
#51 = CARTESIAN_POINT ( 'NONE',  ( -12.00000000000000000, 0.000000000000000000, 11.00000000000000178 ) ) ;
#52 = APPLICATION_CONTEXT ( 'configuration controlled 3d designs of mechanical parts and assemblies' ) ;
#53 = CARTESIAN_POINT ( 'NONE',  ( -12.00000000000000355, 2.000000000000000000, -10.99999999999999822 ) ) ;
#54 = CARTESIAN_POINT ( 'NONE',  ( -12.00000000000000355, 2.000000000000000000, -10.99999999999999822 ) ) ;
#55 = PRODUCT_DEFINITION_SHAPE ( 'NONE', 'NONE',  #232 ) ;
#56 = APPROVAL_DATE_TIME ( #286, #293 ) ;
#57 = ORIENTED_EDGE ( 'NONE', *, *, #104, .F. ) ;
#58 = DIRECTION ( 'NONE',  ( 0.000000000000000000, 0.000000000000000000, 1.000000000000000000 ) ) ;
#59 = ORIENTED_EDGE ( 'NONE', *, *, #16, .F. ) ;
#60 = CARTESIAN_POINT ( 'NONE',  ( 0.000000000000000000, 3.199999999999999734, 0.000000000000000000 ) ) ;
#61 = ORIENTED_EDGE ( 'NONE', *, *, #65, .T. ) ;
#62 = CARTESIAN_POINT ( 'NONE',  ( 11.99999999999999289, 2.000000000000000000, -10.99999999999999822 ) ) ;
#63 = ORIENTED_EDGE ( 'NONE', *, *, #180, .T. ) ;
#64 = CARTESIAN_POINT ( 'NONE',  ( -12.00000000000000000, 2.000000000000000000, 11.00000000000000178 ) ) ;
#65 = EDGE_CURVE ( 'NONE', #84, #6, #130, .T. ) ;
#66 = APPROVAL_DATE_TIME ( #102, #234 ) ;
#67 = CARTESIAN_POINT ( 'NONE',  ( 0.000000000000000000, 2.000000000000000000, 0.000000000000000000 ) ) ;
#68 = DIRECTION ( 'NONE',  ( -0.000000000000000000, -1.000000000000000000, -0.000000000000000000 ) ) ;
#69 = APPLICATION_CONTEXT ( 'configuration controlled 3d designs of mechanical parts and assemblies' ) ;
#70 = DIRECTION ( 'NONE',  ( -0.000000000000000000, -1.000000000000000000, -0.000000000000000000 ) ) ;
#71 = PLANE ( 'NONE',  #170 ) ;
#72 =( GEOMETRIC_REPRESENTATION_CONTEXT ( 3 ) GLOBAL_UNCERTAINTY_ASSIGNED_CONTEXT ( ( #136 ) ) GLOBAL_UNIT_ASSIGNED_CONTEXT ( ( #115, #140, #215 ) ) REPRESENTATION_CONTEXT ( 'NONE', 'WORKASPACE' ) );
#73 = DIRECTION ( 'NONE',  ( 0.000000000000000000, 1.000000000000000000, 0.000000000000000000 ) ) ;
#74 = APPROVAL_STATUS ( 'not_yet_approved' ) ;
#75 = DIRECTION ( 'NONE',  ( -0.000000000000000000, -1.000000000000000000, -0.000000000000000000 ) ) ;
#76 = ADVANCED_FACE ( 'NONE', ( #302 ), #95, .F. ) ;
#77 = DIRECTION ( 'NONE',  ( 0.000000000000000000, 0.000000000000000000, 1.000000000000000000 ) ) ;
#78 = VECTOR ( 'NONE', #167, 1000.000000000000000 ) ;
#79 = LOCAL_TIME ( 12, 58, 25.00000000000000000, #93 ) ;
#80 = PLANE ( 'NONE',  #260 ) ;
#81 = CC_DESIGN_DATE_AND_TIME_ASSIGNMENT ( #171, #316, ( #232 ) ) ;
#82 = DIRECTION ( 'NONE',  ( -1.000000000000000000, 0.000000000000000000, -0.000000000000000000 ) ) ;
#83 = PERSON_AND_ORGANIZATION_ROLE ( 'design_supplier' ) ;
#84 = VERTEX_POINT ( 'NONE', #224 ) ;
#85 = PERSON_AND_ORGANIZATION ( #47, #128 ) ;
#86 = VERTEX_POINT ( 'NONE', #246 ) ;
#87 = COORDINATED_UNIVERSAL_TIME_OFFSET ( 1, 0, .AHEAD. ) ;
#88 = APPROVAL ( #295, 'UNSPECIFIED' ) ;
#89 = EDGE_LOOP ( 'NONE', ( #96, #59, #211, #218 ) ) ;
#90 = VECTOR ( 'NONE', #259, 1000.000000000000000 ) ;
#91 = CARTESIAN_POINT ( 'NONE',  ( 0.000000000000000000, 0.000000000000000000, 0.000000000000000000 ) ) ;
#92 = MANIFOLD_SOLID_BREP ( 'Aufsatz-Linear austragen2', #196 ) ;
#93 = COORDINATED_UNIVERSAL_TIME_OFFSET ( 1, 0, .AHEAD. ) ;
#94 = EDGE_CURVE ( 'NONE', #27, #320, #250, .T. ) ;
#95 = PLANE ( 'NONE',  #306 ) ;
#96 = ORIENTED_EDGE ( 'NONE', *, *, #200, .T. ) ;
#97 = VECTOR ( 'NONE', #189, 1000.000000000000000 ) ;
#98 = ADVANCED_FACE ( 'NONE', ( #175 ), #272, .T. ) ;
#99 = LINE ( 'NONE', #303, #26 ) ;
#100 = PRODUCT_RELATED_PRODUCT_CATEGORY ( 'detail', '', ( #261 ) ) ;
#101 = CARTESIAN_POINT ( 'NONE',  ( 0.000000000000000000, 2.000000000000000000, 0.000000000000000000 ) ) ;
#102 = DATE_AND_TIME ( #247, #25 ) ;
#103 = PLANE ( 'NONE',  #266 ) ;
#104 = EDGE_CURVE ( 'NONE', #6, #275, #31, .T. ) ;
#105 = LINE ( 'NONE', #313, #251 ) ;
#106 = FACE_OUTER_BOUND ( 'NONE', #290, .T. ) ;
#107 = AXIS2_PLACEMENT_3D ( 'NONE', #60, #191, #164 ) ;
#108 = LINE ( 'NONE', #137, #268 ) ;
#109 = EDGE_CURVE ( 'NONE', #320, #20, #139, .T. ) ;
#110 = CARTESIAN_POINT ( 'NONE',  ( -12.00000000000000355, 2.000000000000000000, -10.99999999999999822 ) ) ;
#111 = CC_DESIGN_PERSON_AND_ORGANIZATION_ASSIGNMENT ( #299, #270, ( #21 ) ) ;
#112 = COORDINATED_UNIVERSAL_TIME_OFFSET ( 1, 0, .AHEAD. ) ;
#113 = ORIENTED_EDGE ( 'NONE', *, *, #289, .F. ) ;
#114 = VERTEX_POINT ( 'NONE', #233 ) ;
#115 =( LENGTH_UNIT ( ) NAMED_UNIT ( * ) SI_UNIT ( .MILLI., .METRE. ) );
#116 = ORIENTED_EDGE ( 'NONE', *, *, #104, .T. ) ;
#117 = CARTESIAN_POINT ( 'NONE',  ( -12.00000000000000000, 0.000000000000000000, 11.00000000000000178 ) ) ;
#118 = ORIENTED_EDGE ( 'NONE', *, *, #297, .F. ) ;
#119 = APPROVAL_PERSON_ORGANIZATION ( #42, #88, #212 ) ;
#120 = AXIS2_PLACEMENT_3D ( 'NONE', #126, #48, #179 ) ;
#121 = ORIENTED_EDGE ( 'NONE', *, *, #274, .F. ) ;
#122 = SHAPE_DEFINITION_REPRESENTATION ( #55, #125 ) ;
#123 = DIRECTION ( 'NONE',  ( -1.000000000000000000, 0.000000000000000000, 3.154042683594195121E-16 ) ) ;
#124 = CC_DESIGN_PERSON_AND_ORGANIZATION_ASSIGNMENT ( #147, #207, ( #232 ) ) ;
#125 = ADVANCED_BREP_SHAPE_REPRESENTATION ( '3D_GG4072_24x22x2_188769940', ( #199, #92, #310 ), #72 ) ;
#126 = CARTESIAN_POINT ( 'NONE',  ( 0.000000000000000000, 3.199999999999999734, 0.000000000000000000 ) ) ;
#127 = EDGE_CURVE ( 'NONE', #165, #27, #279, .T. ) ;
#128 = ORGANIZATION ( 'UNSPECIFIED', 'UNSPECIFIED', '' ) ;
#129 = CARTESIAN_POINT ( 'NONE',  ( 0.000000000000000000, 3.199999999999999734, -5.000000000000000000 ) ) ;
#130 = CIRCLE ( 'NONE', #277, 5.000000000000000000 ) ;
#131 = CC_DESIGN_APPROVAL ( #234, ( #21 ) ) ;
#132 = ORIENTED_EDGE ( 'NONE', *, *, #208, .T. ) ;
#133 = LINE ( 'NONE', #157, #276 ) ;
#134 = DIRECTION ( 'NONE',  ( 1.000000000000000000, 0.000000000000000000, -0.000000000000000000 ) ) ;
#135 = DIRECTION ( 'NONE',  ( 0.000000000000000000, 1.000000000000000000, 0.000000000000000000 ) ) ;
#136 = UNCERTAINTY_MEASURE_WITH_UNIT (LENGTH_MEASURE( 1.000000000000000082E-05 ), #115, 'distance_accuracy_value', 'NONE');
#137 = CARTESIAN_POINT ( 'NONE',  ( -12.00000000000000355, 2.000000000000000000, -10.99999999999999822 ) ) ;
#138 = AXIS2_PLACEMENT_3D ( 'NONE', #256, #135, #202 ) ;
#139 = LINE ( 'NONE', #54, #142 ) ;
#140 =( NAMED_UNIT ( * ) PLANE_ANGLE_UNIT ( ) SI_UNIT ( $, .RADIAN. ) );
#141 = ORIENTED_EDGE ( 'NONE', *, *, #220, .F. ) ;
#142 = VECTOR ( 'NONE', #32, 1000.000000000000000 ) ;
#143 = DIRECTION ( 'NONE',  ( -0.000000000000000000, -1.000000000000000000, -0.000000000000000000 ) ) ;
#144 = EDGE_LOOP ( 'NONE', ( #63, #113, #5, #18 ) ) ;
#145 = CARTESIAN_POINT ( 'NONE',  ( 0.000000000000000000, 2.000000000000000000, -5.000000000000000000 ) ) ;
#146 = ORIENTED_EDGE ( 'NONE', *, *, #46, .F. ) ;
#147 = PERSON_AND_ORGANIZATION ( #47, #128 ) ;
#148 = ORIENTED_EDGE ( 'NONE', *, *, #172, .F. ) ;
#149 = DIRECTION ( 'NONE',  ( 3.154042683594195121E-16, 0.000000000000000000, 1.000000000000000000 ) ) ;
#150 = COORDINATED_UNIVERSAL_TIME_OFFSET ( 1, 0, .AHEAD. ) ;
#151 = CARTESIAN_POINT ( 'NONE',  ( 0.000000000000000000, 3.199999999999999734, 0.000000000000000000 ) ) ;
#152 = PLANE ( 'NONE',  #241 ) ;
#153 = VECTOR ( 'NONE', #75, 1000.000000000000000 ) ;
#154 = CARTESIAN_POINT ( 'NONE',  ( 12.00000000000000000, 2.000000000000000000, 11.00000000000000178 ) ) ;
#155 = FACE_OUTER_BOUND ( 'NONE', #213, .T. ) ;
#156 = ADVANCED_FACE ( 'NONE', ( #237 ), #103, .T. ) ;
#157 = CARTESIAN_POINT ( 'NONE',  ( -12.00000000000000355, 0.000000000000000000, -10.99999999999999822 ) ) ;
#158 = PLANE ( 'NONE',  #2 ) ;
#159 = LOCAL_TIME ( 12, 58, 25.00000000000000000, #87 ) ;
#160 = LINE ( 'NONE', #206, #283 ) ;
#161 = FACE_OUTER_BOUND ( 'NONE', #144, .T. ) ;
#162 = LINE ( 'NONE', #33, #97 ) ;
#163 = LOCAL_TIME ( 12, 58, 25.00000000000000000, #112 ) ;
#164 = DIRECTION ( 'NONE',  ( 0.000000000000000000, 0.000000000000000000, 1.000000000000000000 ) ) ;
#165 = VERTEX_POINT ( 'NONE', #12 ) ;
#166 = PERSON_AND_ORGANIZATION ( #47, #128 ) ;
#167 = DIRECTION ( 'NONE',  ( -0.000000000000000000, -1.000000000000000000, -0.000000000000000000 ) ) ;
#168 = ORIENTED_EDGE ( 'NONE', *, *, #208, .F. ) ;
#169 = PRODUCT_DEFINITION_FORMATION_WITH_SPECIFIED_SOURCE ( 'ANY', '', #261, .NOT_KNOWN. ) ;
#170 = AXIS2_PLACEMENT_3D ( 'NONE', #278, #248, #198 ) ;
#171 = DATE_AND_TIME ( #318, #163 ) ;
#172 = EDGE_CURVE ( 'NONE', #20, #165, #108, .T. ) ;
#173 = DIRECTION ( 'NONE',  ( 0.000000000000000000, 1.000000000000000000, 0.000000000000000000 ) ) ;
#174 = PERSON_AND_ORGANIZATION ( #47, #128 ) ;
#175 = FACE_OUTER_BOUND ( 'NONE', #263, .T. ) ;
#176 = DIRECTION ( 'NONE',  ( 0.000000000000000000, 1.000000000000000000, 0.000000000000000000 ) ) ;
#177 = ADVANCED_FACE ( 'NONE', ( #49 ), #158, .F. ) ;
#178 = ORIENTED_EDGE ( 'NONE', *, *, #289, .T. ) ;
#179 = DIRECTION ( 'NONE',  ( 0.000000000000000000, 0.000000000000000000, -1.000000000000000000 ) ) ;
#180 = EDGE_CURVE ( 'NONE', #86, #114, #160, .T. ) ;
#181 = DIRECTION ( 'NONE',  ( 1.000000000000000000, 0.000000000000000000, -1.577021341797097560E-16 ) ) ;
#182 = CARTESIAN_POINT ( 'NONE',  ( 0.000000000000000000, 3.199999999999999734, 0.000000000000000000 ) ) ;
#183 = AXIS2_PLACEMENT_3D ( 'NONE', #182, #307, #281 ) ;
#184 = CIRCLE ( 'NONE', #107, 5.000000000000000000 ) ;
#185 = CARTESIAN_POINT ( 'NONE',  ( -12.00000000000000000, 2.000000000000000000, 11.00000000000000178 ) ) ;
#186 = CARTESIAN_POINT ( 'NONE',  ( 0.000000000000000000, 3.199999999999999734, -5.000000000000000000 ) ) ;
#187 = EDGE_CURVE ( 'NONE', #114, #319, #133, .T. ) ;
#188 = CALENDAR_DATE ( 2024, 5, 11 ) ;
#189 = DIRECTION ( 'NONE',  ( -3.154042683594195121E-16, -0.000000000000000000, -1.000000000000000000 ) ) ;
#190 = ORIENTED_EDGE ( 'NONE', *, *, #187, .T. ) ;
#191 = DIRECTION ( 'NONE',  ( 0.000000000000000000, 1.000000000000000000, 0.000000000000000000 ) ) ;
#192 = ORIENTED_EDGE ( 'NONE', *, *, #16, .T. ) ;
#193 = CYLINDRICAL_SURFACE ( 'NONE', #120, 5.000000000000000000 ) ;
#194 = CARTESIAN_POINT ( 'NONE',  ( 11.99999999999999289, 2.000000000000000000, -10.99999999999999822 ) ) ;
#195 = CC_DESIGN_PERSON_AND_ORGANIZATION_ASSIGNMENT ( #166, #35, ( #261 ) ) ;
#196 = CLOSED_SHELL ( 'NONE', ( #39, #98, #255, #44 ) ) ;
#197 = FACE_OUTER_BOUND ( 'NONE', #216, .T. ) ;
#198 = DIRECTION ( 'NONE',  ( 0.000000000000000000, -0.000000000000000000, 1.000000000000000000 ) ) ;
#199 = MANIFOLD_SOLID_BREP ( 'Aufsatz-Linear austragen1', #294 ) ;
#200 = EDGE_CURVE ( 'NONE', #319, #317, #253, .T. ) ;
#201 = APPROVAL_PERSON_ORGANIZATION ( #174, #234, #229 ) ;
#202 = DIRECTION ( 'NONE',  ( 0.000000000000000000, 0.000000000000000000, 1.000000000000000000 ) ) ;
#203 = PLANE ( 'NONE',  #3 ) ;
#204 = DIRECTION ( 'NONE',  ( -0.000000000000000000, -1.000000000000000000, -0.000000000000000000 ) ) ;
#205 = CARTESIAN_POINT ( 'NONE',  ( -12.00000000000000355, 2.000000000000000000, -10.99999999999999822 ) ) ;
#206 = CARTESIAN_POINT ( 'NONE',  ( -12.00000000000000355, 0.000000000000000000, -10.99999999999999822 ) ) ;
#207 = PERSON_AND_ORGANIZATION_ROLE ( 'creator' ) ;
#208 = EDGE_CURVE ( 'NONE', #275, #226, #301, .T. ) ;
#209 = CALENDAR_DATE ( 2024, 5, 11 ) ;
#210 = VECTOR ( 'NONE', #285, 1000.000000000000000 ) ;
#211 = ORIENTED_EDGE ( 'NONE', *, *, #127, .F. ) ;
#212 = APPROVAL_ROLE ( '' ) ;
#213 = EDGE_LOOP ( 'NONE', ( #168, #245 ) ) ;
#214 = EDGE_CURVE ( 'NONE', #226, #275, #321, .T. ) ;
#215 =( NAMED_UNIT ( * ) SI_UNIT ( $, .STERADIAN. ) SOLID_ANGLE_UNIT ( ) );
#216 = EDGE_LOOP ( 'NONE', ( #271, #15, #37, #57 ) ) ;
#217 = CC_DESIGN_PERSON_AND_ORGANIZATION_ASSIGNMENT ( #262, #34, ( #169 ) ) ;
#218 = ORIENTED_EDGE ( 'NONE', *, *, #46, .T. ) ;
#219 = FACE_OUTER_BOUND ( 'NONE', #287, .T. ) ;
#220 = EDGE_CURVE ( 'NONE', #84, #226, #105, .T. ) ;
#221 = CARTESIAN_POINT ( 'NONE',  ( 0.000000000000000000, 3.199999999999999734, 0.000000000000000000 ) ) ;
#222 = AXIS2_PLACEMENT_3D ( 'NONE', #101, #7, #77 ) ;
#223 = APPROVAL_PERSON_ORGANIZATION ( #85, #293, #238 ) ;
#224 = CARTESIAN_POINT ( 'NONE',  ( 6.123233995736766282E-16, 3.199999999999999734, 5.000000000000000000 ) ) ;
#225 = ADVANCED_FACE ( 'NONE', ( #161 ), #203, .F. ) ;
#226 = VERTEX_POINT ( 'NONE', #257 ) ;
#227 = ORIENTED_EDGE ( 'NONE', *, *, #322, .F. ) ;
#228 = CC_DESIGN_PERSON_AND_ORGANIZATION_ASSIGNMENT ( #14, #83, ( #169 ) ) ;
#229 = APPROVAL_ROLE ( '' ) ;
#230 = DIRECTION ( 'NONE',  ( -1.000000000000000000, -0.000000000000000000, -0.000000000000000000 ) ) ;
#231 = DIRECTION ( 'NONE',  ( 0.000000000000000000, 0.000000000000000000, -1.000000000000000000 ) ) ;
#232 = PRODUCT_DEFINITION ( 'UNKNOWN', '', #169, #249 ) ;
#233 = CARTESIAN_POINT ( 'NONE',  ( -12.00000000000000355, 0.000000000000000000, -10.99999999999999822 ) ) ;
#234 = APPROVAL ( #74, 'UNSPECIFIED' ) ;
#235 = CARTESIAN_POINT ( 'NONE',  ( 0.000000000000000000, 2.000000000000000000, 0.000000000000000000 ) ) ;
#236 = AXIS2_PLACEMENT_3D ( 'NONE', #151, #68, #231 ) ;
#237 = FACE_OUTER_BOUND ( 'NONE', #296, .T. ) ;
#238 = APPROVAL_ROLE ( '' ) ;
#239 = ORIENTED_EDGE ( 'NONE', *, *, #187, .F. ) ;
#240 = DIRECTION ( 'NONE',  ( 1.000000000000000000, 0.000000000000000000, 0.000000000000000000 ) ) ;
#241 = AXIS2_PLACEMENT_3D ( 'NONE', #67, #176, #298 ) ;
#242 = CC_DESIGN_APPROVAL ( #88, ( #232 ) ) ;
#243 = EDGE_LOOP ( 'NONE', ( #190, #146, #148, #178 ) ) ;
#244 = CARTESIAN_POINT ( 'NONE',  ( 11.99999999999999289, 2.000000000000000000, -10.99999999999999822 ) ) ;
#245 = ORIENTED_EDGE ( 'NONE', *, *, #214, .F. ) ;
#246 = CARTESIAN_POINT ( 'NONE',  ( 11.99999999999999289, 0.000000000000000000, -10.99999999999999822 ) ) ;
#247 = CALENDAR_DATE ( 2024, 5, 11 ) ;
#248 = DIRECTION ( 'NONE',  ( 0.000000000000000000, 1.000000000000000000, 0.000000000000000000 ) ) ;
#249 = DESIGN_CONTEXT ( 'detailed design', #69, 'design' ) ;
#250 = LINE ( 'NONE', #194, #288 ) ;
#251 = VECTOR ( 'NONE', #204, 1000.000000000000000 ) ;
#252 = LINE ( 'NONE', #64, #282 ) ;
#253 = LINE ( 'NONE', #51, #210 ) ;
#254 = SECURITY_CLASSIFICATION_LEVEL ( 'unclassified' ) ;
#255 = ADVANCED_FACE ( 'NONE', ( #106 ), #309, .T. ) ;
#256 = CARTESIAN_POINT ( 'NONE',  ( 0.000000000000000000, 2.000000000000000000, 0.000000000000000000 ) ) ;
#257 = CARTESIAN_POINT ( 'NONE',  ( 6.123233995736766282E-16, 2.000000000000000000, 5.000000000000000000 ) ) ;
#258 = ADVANCED_FACE ( 'NONE', ( #311 ), #80, .F. ) ;
#259 = DIRECTION ( 'NONE',  ( 1.000000000000000000, 0.000000000000000000, 0.000000000000000000 ) ) ;
#260 = AXIS2_PLACEMENT_3D ( 'NONE', #185, #284, #82 ) ;
#261 = PRODUCT ( '3D_GG4072_24x22x2_188769940', '3D_GG4072_24x22x2_188769940', '', ( #36 ) ) ;
#262 = PERSON_AND_ORGANIZATION ( #47, #128 ) ;
#263 = EDGE_LOOP ( 'NONE', ( #141, #118, #116, #132 ) ) ;
#264 = APPROVAL_DATE_TIME ( #291, #88 ) ;
#265 = APPLICATION_PROTOCOL_DEFINITION ( 'international standard', 'config_control_design', 1994, #52 ) ;
#266 = AXIS2_PLACEMENT_3D ( 'NONE', #235, #73, #29 ) ;
#267 = ORIENTED_EDGE ( 'NONE', *, *, #94, .T. ) ;
#268 = VECTOR ( 'NONE', #8, 1000.000000000000000 ) ;
#269 = LINE ( 'NONE', #110, #305 ) ;
#270 = PERSON_AND_ORGANIZATION_ROLE ( 'classification_officer' ) ;
#271 = ORIENTED_EDGE ( 'NONE', *, *, #65, .F. ) ;
#272 = CYLINDRICAL_SURFACE ( 'NONE', #236, 5.000000000000000000 ) ;
#273 = DIRECTION ( 'NONE',  ( -0.000000000000000000, -1.000000000000000000, -0.000000000000000000 ) ) ;
#274 = EDGE_CURVE ( 'NONE', #317, #86, #162, .T. ) ;
#275 = VERTEX_POINT ( 'NONE', #145 ) ;
#276 = VECTOR ( 'NONE', #50, 1000.000000000000000 ) ;
#277 = AXIS2_PLACEMENT_3D ( 'NONE', #221, #173, #43 ) ;
#278 = CARTESIAN_POINT ( 'NONE',  ( 0.000000000000000000, 0.000000000000000000, 0.000000000000000000 ) ) ;
#279 = LINE ( 'NONE', #280, #90 ) ;
#280 = CARTESIAN_POINT ( 'NONE',  ( -12.00000000000000000, 2.000000000000000000, 11.00000000000000178 ) ) ;
#281 = DIRECTION ( 'NONE',  ( 0.000000000000000000, -0.000000000000000000, 1.000000000000000000 ) ) ;
#282 = VECTOR ( 'NONE', #273, 1000.000000000000000 ) ;
#283 = VECTOR ( 'NONE', #230, 1000.000000000000000 ) ;
#284 = DIRECTION ( 'NONE',  ( 0.000000000000000000, 0.000000000000000000, -1.000000000000000000 ) ) ;
#285 = DIRECTION ( 'NONE',  ( 1.000000000000000000, 0.000000000000000000, 0.000000000000000000 ) ) ;
#286 = DATE_AND_TIME ( #188, #312 ) ;
#287 = EDGE_LOOP ( 'NONE', ( #121, #22, #239, #23 ) ) ;
#288 = VECTOR ( 'NONE', #300, 1000.000000000000000 ) ;
#289 = EDGE_CURVE ( 'NONE', #20, #114, #269, .T. ) ;
#290 = EDGE_LOOP ( 'NONE', ( #1, #61 ) ) ;
#291 = DATE_AND_TIME ( #209, #159 ) ;
#292 = ORIENTED_EDGE ( 'NONE', *, *, #172, .T. ) ;
#293 = APPROVAL ( #40, 'UNSPECIFIED' ) ;
#294 = CLOSED_SHELL ( 'NONE', ( #76, #225, #177, #258, #156, #9 ) ) ;
#295 = APPROVAL_STATUS ( 'not_yet_approved' ) ;
#296 = EDGE_LOOP ( 'NONE', ( #267, #4, #292, #304 ) ) ;
#297 = EDGE_CURVE ( 'NONE', #6, #84, #184, .T. ) ;
#298 = DIRECTION ( 'NONE',  ( 0.000000000000000000, -0.000000000000000000, 1.000000000000000000 ) ) ;
#299 = PERSON_AND_ORGANIZATION ( #47, #128 ) ;
#300 = DIRECTION ( 'NONE',  ( -3.154042683594195121E-16, -0.000000000000000000, -1.000000000000000000 ) ) ;
#301 = CIRCLE ( 'NONE', #222, 5.000000000000000000 ) ;
#302 = FACE_OUTER_BOUND ( 'NONE', #324, .T. ) ;
#303 = CARTESIAN_POINT ( 'NONE',  ( 12.00000000000000000, 2.000000000000000000, 11.00000000000000178 ) ) ;
#304 = ORIENTED_EDGE ( 'NONE', *, *, #127, .T. ) ;
#305 = VECTOR ( 'NONE', #143, 1000.000000000000000 ) ;
#306 = AXIS2_PLACEMENT_3D ( 'NONE', #24, #123, #149 ) ;
#307 = DIRECTION ( 'NONE',  ( 0.000000000000000000, 1.000000000000000000, 0.000000000000000000 ) ) ;
#308 = DATE_TIME_ROLE ( 'classification_date' ) ;
#309 = PLANE ( 'NONE',  #183 ) ;
#310 = AXIS2_PLACEMENT_3D ( 'NONE', #91, #58, #240 ) ;
#311 = FACE_OUTER_BOUND ( 'NONE', #89, .T. ) ;
#312 = LOCAL_TIME ( 12, 58, 25.00000000000000000, #315 ) ;
#313 = CARTESIAN_POINT ( 'NONE',  ( 6.123233995736766282E-16, 3.199999999999999734, 5.000000000000000000 ) ) ;
#314 = CC_DESIGN_DATE_AND_TIME_ASSIGNMENT ( #28, #308, ( #21 ) ) ;
#315 = COORDINATED_UNIVERSAL_TIME_OFFSET ( 1, 0, .AHEAD. ) ;
#316 = DATE_TIME_ROLE ( 'creation_date' ) ;
#317 = VERTEX_POINT ( 'NONE', #13 ) ;
#318 = CALENDAR_DATE ( 2024, 5, 11 ) ;
#319 = VERTEX_POINT ( 'NONE', #117 ) ;
#320 = VERTEX_POINT ( 'NONE', #62 ) ;
#321 = CIRCLE ( 'NONE', #138, 5.000000000000000000 ) ;
#322 = EDGE_CURVE ( 'NONE', #320, #86, #19, .T. ) ;
#323 = CALENDAR_DATE ( 2024, 5, 11 ) ;
#324 = EDGE_LOOP ( 'NONE', ( #41, #227, #325, #192 ) ) ;
#325 = ORIENTED_EDGE ( 'NONE', *, *, #94, .F. ) ;
ENDSEC;
END-ISO-10303-21;
