ISO-10303-21;
HEADER;
FILE_DESCRIPTION (( 'STEP AP203' ),
    '1' );
FILE_NAME ('OT200-40-48_3x2_6_OSTP.step',
    '2020-12-16T02:17:44',
    ( '' ),
    ( '' ),
    'SwSTEP 2.0',
    'SolidWorks 2014',
    '' );
FILE_SCHEMA (( 'CONFIG_CONTROL_DESIGN' ));
ENDSEC;

DATA;
#1 = DIRECTION ( 'NONE',  ( 0.0000000000000000000, -0.0000000000000000000, 1.000000000000000000 ) ) ;
#2 = CARTESIAN_POINT ( 'NONE',  ( 56.99999999999998600, 32.85000000000000100, -2.957522019940857900E-015 ) ) ;
#3 = DIRECTION ( 'NONE',  ( 1.000000000000000000, 0.0000000000000000000, 0.0000000000000000000 ) ) ;
#4 = AXIS2_PLACEMENT_3D ( 'NONE', #131, #17, #214 ) ;
#5 = CIRCLE ( 'NONE', #246, 24.14999999999999900 ) ;
#6 = ADVANCED_FACE ( 'NONE', ( #247 ), #67, .F. ) ;
#7 = AXIS2_PLACEMENT_3D ( 'NONE', #223, #81, #122 ) ;
#8 = DIRECTION ( 'NONE',  ( 1.000000000000000000, 0.0000000000000000000, 0.0000000000000000000 ) ) ;
#9 = ORIENTED_EDGE ( 'NONE', *, *, #99, .F. ) ;
#10 =( NAMED_UNIT ( * ) PLANE_ANGLE_UNIT ( ) SI_UNIT ( $, .RADIAN. ) );
#11 = AXIS2_PLACEMENT_3D ( 'NONE', #180, #101, #219 ) ;
#12 = APPLICATION_CONTEXT ( 'configuration controlled 3d designs of mechanical parts and assemblies' ) ;
#13 = CIRCLE ( 'NONE', #225, 32.85000000000000900 ) ;
#14 = CIRCLE ( 'NONE', #4, 21.55000000000000800 ) ;
#15 = FACE_OUTER_BOUND ( 'NONE', #209, .T. ) ;
#16 = EDGE_CURVE ( 'NONE', #161, #248, #169, .T. ) ;
#17 = DIRECTION ( 'NONE',  ( 1.000000000000000000, 2.832769448823989800E-016, 0.0000000000000000000 ) ) ;
#18 = DIRECTION ( 'NONE',  ( 1.000000000000000000, 0.0000000000000000000, 0.0000000000000000000 ) ) ;
#19 = PERSON_AND_ORGANIZATION ( #133, #194 ) ;
#20 = ORIENTED_EDGE ( 'NONE', *, *, #82, .T. ) ;
#21 = AXIS2_PLACEMENT_3D ( 'NONE', #238, #221, #243 ) ;
#22 = APPROVAL_DATE_TIME ( #141, #94 ) ;
#23 = EDGE_LOOP ( 'NONE', ( #213, #168, #212, #50 ) ) ;
#24 = DIRECTION ( 'NONE',  ( 0.0000000000000000000, 1.000000000000000000, 0.0000000000000000000 ) ) ;
#25 = CARTESIAN_POINT ( 'NONE',  ( 57.00000000000000000, 0.0000000000000000000, -2.957522019940857900E-015 ) ) ;
#26 = CARTESIAN_POINT ( 'NONE',  ( -24.14999999999999900, 0.0000000000000000000, 0.0000000000000000000 ) ) ;
#27 = CC_DESIGN_PERSON_AND_ORGANIZATION_ASSIGNMENT ( #19, #189, ( #70 ) ) ;
#28 = PRODUCT_DEFINITION_SHAPE ( 'NONE', 'NONE',  #181 ) ;
#29 = ORIENTED_EDGE ( 'NONE', *, *, #16, .T. ) ;
#30 = APPLICATION_PROTOCOL_DEFINITION ( 'international standard', 'config_control_design', 1994, #12 ) ;
#31 =( LENGTH_UNIT ( ) NAMED_UNIT ( * ) SI_UNIT ( .MILLI., .METRE. ) );
#32 = FACE_BOUND ( 'NONE', #66, .T. ) ;
#33 = APPROVAL_STATUS ( 'not_yet_approved' ) ;
#34 = PERSON_AND_ORGANIZATION ( #133, #194 ) ;
#35 = ORIENTED_EDGE ( 'NONE', *, *, #237, .T. ) ;
#36 = CIRCLE ( 'NONE', #142, 24.14999999999999900 ) ;
#37 = CARTESIAN_POINT ( 'NONE',  ( 0.0000000000000000000, 0.0000000000000000000, 0.0000000000000000000 ) ) ;
#38 = CC_DESIGN_PERSON_AND_ORGANIZATION_ASSIGNMENT ( #227, #163, ( #70 ) ) ;
#39 = DIRECTION ( 'NONE',  ( 1.000000000000000000, 0.0000000000000000000, 0.0000000000000000000 ) ) ;
#40 = CIRCLE ( 'NONE', #7, 21.55000000000000100 ) ;
#41 = TOROIDAL_SURFACE ( 'NONE', #11, 57.00000000000000000, 24.14999999999999900 ) ;
#42 = CARTESIAN_POINT ( 'NONE',  ( 56.99999999999997900, 57.00000000000000000, 0.0000000000000000000 ) ) ;
#43 = DIRECTION ( 'NONE',  ( 0.0000000000000000000, 0.0000000000000000000, 1.000000000000000000 ) ) ;
#44 = DIRECTION ( 'NONE',  ( 1.000000000000000000, 0.0000000000000000000, 0.0000000000000000000 ) ) ;
#45 = EDGE_CURVE ( 'NONE', #109, #161, #14, .T. ) ;
#46 = EDGE_LOOP ( 'NONE', ( #47, #192, #29, #228 ) ) ;
#47 = ORIENTED_EDGE ( 'NONE', *, *, #110, .F. ) ;
#48 = ORIENTED_EDGE ( 'NONE', *, *, #185, .T. ) ;
#49 = CC_DESIGN_PERSON_AND_ORGANIZATION_ASSIGNMENT ( #198, #149, ( #181 ) ) ;
#50 = ORIENTED_EDGE ( 'NONE', *, *, #244, .T. ) ;
#51 = APPROVAL_STATUS ( 'not_yet_approved' ) ;
#52 = CC_DESIGN_APPROVAL ( #203, ( #132 ) ) ;
#53 = APPROVAL_PERSON_ORGANIZATION ( #125, #94, #107 ) ;
#54 = CC_DESIGN_APPROVAL ( #222, ( #181 ) ) ;
#55 = CARTESIAN_POINT ( 'NONE',  ( 24.14999999999999900, 0.0000000000000000000, -2.957522019940857900E-015 ) ) ;
#56 = FACE_OUTER_BOUND ( 'NONE', #23, .T. ) ;
#57 = DIRECTION ( 'NONE',  ( 0.0000000000000000000, 0.0000000000000000000, 1.000000000000000000 ) ) ;
#58 = AXIS2_PLACEMENT_3D ( 'NONE', #121, #43, #44 ) ;
#59 = VERTEX_POINT ( 'NONE', #55 ) ;
#60 = DESIGN_CONTEXT ( 'detailed design', #12, 'design' ) ;
#61 = CARTESIAN_POINT ( 'NONE',  ( -21.55000000000000400, 0.0000000000000000000, 0.0000000000000000000 ) ) ;
#62 = CARTESIAN_POINT ( 'NONE',  ( 0.0000000000000000000, 0.0000000000000000000, 0.0000000000000000000 ) ) ;
#63 = CC_DESIGN_SECURITY_CLASSIFICATION ( #132, ( #70 ) ) ;
#64 = FACE_OUTER_BOUND ( 'NONE', #46, .T. ) ;
#65 = ORIENTED_EDGE ( 'NONE', *, *, #82, .F. ) ;
#66 = EDGE_LOOP ( 'NONE', ( #234, #120 ) ) ;
#67 = TOROIDAL_SURFACE ( 'NONE', #250, 57.00000000000000000, 21.55000000000000100 ) ;
#68 =( NAMED_UNIT ( * ) SI_UNIT ( $, .STERADIAN. ) SOLID_ANGLE_UNIT ( ) );
#69 = UNCERTAINTY_MEASURE_WITH_UNIT (LENGTH_MEASURE( 1.000000000000000100E-005 ), #31, 'distance_accuracy_value', 'NONE');
#70 = PRODUCT_DEFINITION_FORMATION_WITH_SPECIFIED_SOURCE ( 'ANY', '', #75, .NOT_KNOWN. ) ;
#71 = PERSON_AND_ORGANIZATION_ROLE ( 'design_owner' ) ;
#72 = APPLICATION_CONTEXT ( 'configuration controlled 3d designs of mechanical parts and assemblies' ) ;
#73 = PERSON_AND_ORGANIZATION ( #133, #194 ) ;
#74 = CALENDAR_DATE ( 2020, 16, 12 ) ;
#75 = PRODUCT ( 'OT200-40-48_3x2_6_OSTP', 'OT200-40-48_3x2_6_OSTP', '', ( #164 ) ) ;
#76 = ORIENTED_EDGE ( 'NONE', *, *, #167, .T. ) ;
#77 = PRODUCT_RELATED_PRODUCT_CATEGORY ( 'detail', '', ( #75 ) ) ;
#78 = CARTESIAN_POINT ( 'NONE',  ( 56.99999999999997200, 81.15000000000000600, 0.0000000000000000000 ) ) ;
#79 = TOROIDAL_SURFACE ( 'NONE', #102, 57.00000000000000000, 24.14999999999999900 ) ;
#80 = DIRECTION ( 'NONE',  ( 0.0000000000000000000, 0.0000000000000000000, 1.000000000000000000 ) ) ;
#81 = DIRECTION ( 'NONE',  ( 0.0000000000000000000, 1.000000000000000000, 0.0000000000000000000 ) ) ;
#82 = EDGE_CURVE ( 'NONE', #248, #249, #224, .T. ) ;
#83 = DIRECTION ( 'NONE',  ( 0.0000000000000000000, 1.000000000000000000, 0.0000000000000000000 ) ) ;
#84 = APPROVAL_PERSON_ORGANIZATION ( #129, #203, #90 ) ;
#85 = SHAPE_DEFINITION_REPRESENTATION ( #28, #143 ) ;
#86 = VERTEX_POINT ( 'NONE', #78 ) ;
#87 = MANIFOLD_SOLID_BREP ( 'cut-body', #208 ) ;
#88 = DIRECTION ( 'NONE',  ( 0.0000000000000000000, 0.0000000000000000000, 1.000000000000000000 ) ) ;
#89 = DATE_TIME_ROLE ( 'classification_date' ) ;
#90 = APPROVAL_ROLE ( '' ) ;
#91 = APPROVAL_DATE_TIME ( #165, #203 ) ;
#92 = TOROIDAL_SURFACE ( 'NONE', #207, 57.00000000000000000, 21.55000000000000100 ) ;
#93 = ADVANCED_FACE ( 'NONE', ( #64 ), #92, .F. ) ;
#94 = APPROVAL ( #51, 'UNSPECIFIED' ) ;
#95 = EDGE_LOOP ( 'NONE', ( #151, #35 ) ) ;
#96 = LOCAL_TIME ( 3, 17, 44.00000000000000000, #124 ) ;
#97 = CARTESIAN_POINT ( 'NONE',  ( 57.00000000000000000, 0.0000000000000000000, 0.0000000000000000000 ) ) ;
#98 = PLANE ( 'NONE',  #150 ) ;
#99 = EDGE_CURVE ( 'NONE', #241, #59, #13, .T. ) ;
#100 = PLANE ( 'NONE',  #226 ) ;
#101 = DIRECTION ( 'NONE',  ( 0.0000000000000000000, 0.0000000000000000000, 1.000000000000000000 ) ) ;
#102 = AXIS2_PLACEMENT_3D ( 'NONE', #97, #80, #3 ) ;
#103 = COORDINATED_UNIVERSAL_TIME_OFFSET ( 1, 0, .AHEAD. ) ;
#104 = CIRCLE ( 'NONE', #58, 78.55000000000001100 ) ;
#105 = EDGE_LOOP ( 'NONE', ( #48, #153, #65, #115 ) ) ;
#106 = CC_DESIGN_APPROVAL ( #94, ( #70 ) ) ;
#107 = APPROVAL_ROLE ( '' ) ;
#108 = CIRCLE ( 'NONE', #239, 24.14999999999999900 ) ;
#109 = VERTEX_POINT ( 'NONE', #204 ) ;
#110 = EDGE_CURVE ( 'NONE', #109, #249, #104, .T. ) ;
#111 = CARTESIAN_POINT ( 'NONE',  ( 57.00000000000000000, 0.0000000000000000000, 0.0000000000000000000 ) ) ;
#112 = ADVANCED_FACE ( 'NONE', ( #56 ), #41, .T. ) ;
#113 = AXIS2_PLACEMENT_3D ( 'NONE', #37, #174, #195 ) ;
#114 = APPROVAL_DATE_TIME ( #119, #222 ) ;
#115 = ORIENTED_EDGE ( 'NONE', *, *, #16, .F. ) ;
#116 = DIRECTION ( 'NONE',  ( 0.0000000000000000000, 0.0000000000000000000, 1.000000000000000000 ) ) ;
#117 = DIRECTION ( 'NONE',  ( 1.000000000000000000, 0.0000000000000000000, 0.0000000000000000000 ) ) ;
#118 = DIRECTION ( 'NONE',  ( 1.000000000000000000, 2.832769448823989800E-016, -0.0000000000000000000 ) ) ;
#119 = DATE_AND_TIME ( #220, #178 ) ;
#120 = ORIENTED_EDGE ( 'NONE', *, *, #45, .F. ) ;
#121 = CARTESIAN_POINT ( 'NONE',  ( 57.00000000000000000, 0.0000000000000000000, 0.0000000000000000000 ) ) ;
#122 = DIRECTION ( 'NONE',  ( 0.0000000000000000000, 0.0000000000000000000, 1.000000000000000000 ) ) ;
#123 = DIRECTION ( 'NONE',  ( 0.0000000000000000000, 0.0000000000000000000, 1.000000000000000000 ) ) ;
#124 = COORDINATED_UNIVERSAL_TIME_OFFSET ( 1, 0, .AHEAD. ) ;
#125 = PERSON_AND_ORGANIZATION ( #133, #194 ) ;
#126 =( GEOMETRIC_REPRESENTATION_CONTEXT ( 3 ) GLOBAL_UNCERTAINTY_ASSIGNED_CONTEXT ( ( #69 ) ) GLOBAL_UNIT_ASSIGNED_CONTEXT ( ( #31, #10, #68 ) ) REPRESENTATION_CONTEXT ( 'NONE', 'WORKASPACE' ) );
#127 = APPROVAL_STATUS ( 'not_yet_approved' ) ;
#128 = APPROVAL_ROLE ( '' ) ;
#129 = PERSON_AND_ORGANIZATION ( #133, #194 ) ;
#130 = LOCAL_TIME ( 3, 17, 44.00000000000000000, #253 ) ;
#131 = CARTESIAN_POINT ( 'NONE',  ( 56.99999999999998600, 57.00000000000000000, 0.0000000000000000000 ) ) ;
#132 = SECURITY_CLASSIFICATION ( '', '', #146 ) ;
#133 = PERSON ( 'UNSPECIFIED', 'UNSPECIFIED', 'UNSPECIFIED', ('UNSPECIFIED'), ('UNSPECIFIED'), ('UNSPECIFIED') ) ;
#134 = DIRECTION ( 'NONE',  ( 0.0000000000000000000, 0.0000000000000000000, 1.000000000000000000 ) ) ;
#135 = DATE_AND_TIME ( #144, #170 ) ;
#136 = ADVANCED_FACE ( 'NONE', ( #160 ), #79, .T. ) ;
#137 = ADVANCED_FACE ( 'NONE', ( #245, #15 ), #98, .F. ) ;
#138 = CIRCLE ( 'NONE', #172, 24.14999999999999900 ) ;
#139 = DIRECTION ( 'NONE',  ( 1.000000000000000000, 2.832769448823989800E-016, 0.0000000000000000000 ) ) ;
#140 = CARTESIAN_POINT ( 'NONE',  ( 56.99999999999999300, 35.45000000000000300, -2.639113852162546300E-015 ) ) ;
#141 = DATE_AND_TIME ( #74, #130 ) ;
#142 = AXIS2_PLACEMENT_3D ( 'NONE', #42, #154, #177 ) ;
#143 = ADVANCED_BREP_SHAPE_REPRESENTATION ( 'OT200-40-48_3x2_6_OSTP', ( #87, #252 ), #126 ) ;
#144 = CALENDAR_DATE ( 2020, 16, 12 ) ;
#145 = ORIENTED_EDGE ( 'NONE', *, *, #199, .T. ) ;
#146 = SECURITY_CLASSIFICATION_LEVEL ( 'unclassified' ) ;
#147 = ORIENTED_EDGE ( 'NONE', *, *, #197, .T. ) ;
#148 = AXIS2_PLACEMENT_3D ( 'NONE', #202, #159, #117 ) ;
#149 = PERSON_AND_ORGANIZATION_ROLE ( 'creator' ) ;
#150 = AXIS2_PLACEMENT_3D ( 'NONE', #182, #24, #1 ) ;
#151 = ORIENTED_EDGE ( 'NONE', *, *, #184, .T. ) ;
#152 = PERSON_AND_ORGANIZATION ( #133, #194 ) ;
#153 = ORIENTED_EDGE ( 'NONE', *, *, #110, .T. ) ;
#154 = DIRECTION ( 'NONE',  ( 1.000000000000000000, 2.832769448823989800E-016, 0.0000000000000000000 ) ) ;
#155 = DIRECTION ( 'NONE',  ( 0.0000000000000000000, 0.0000000000000000000, 1.000000000000000000 ) ) ;
#156 = CARTESIAN_POINT ( 'NONE',  ( 56.99999999999997900, 57.00000000000000000, 0.0000000000000000000 ) ) ;
#157 = CARTESIAN_POINT ( 'NONE',  ( 21.55000000000000100, 0.0000000000000000000, -2.639113852162546300E-015 ) ) ;
#158 = CC_DESIGN_PERSON_AND_ORGANIZATION_ASSIGNMENT ( #73, #231, ( #132 ) ) ;
#159 = DIRECTION ( 'NONE',  ( 0.0000000000000000000, 0.0000000000000000000, 1.000000000000000000 ) ) ;
#160 = FACE_OUTER_BOUND ( 'NONE', #251, .T. ) ;
#161 = VERTEX_POINT ( 'NONE', #140 ) ;
#162 = CC_DESIGN_PERSON_AND_ORGANIZATION_ASSIGNMENT ( #34, #71, ( #75 ) ) ;
#163 = PERSON_AND_ORGANIZATION_ROLE ( 'design_supplier' ) ;
#164 = MECHANICAL_CONTEXT ( 'NONE', #72, 'mechanical' ) ;
#165 = DATE_AND_TIME ( #215, #96 ) ;
#166 = APPROVAL_PERSON_ORGANIZATION ( #152, #222, #128 ) ;
#167 = EDGE_CURVE ( 'NONE', #249, #248, #40, .T. ) ;
#168 = ORIENTED_EDGE ( 'NONE', *, *, #184, .F. ) ;
#169 = CIRCLE ( 'NONE', #193, 35.45000000000000300 ) ;
#170 = LOCAL_TIME ( 3, 17, 44.00000000000000000, #205 ) ;
#171 = VERTEX_POINT ( 'NONE', #26 ) ;
#172 = AXIS2_PLACEMENT_3D ( 'NONE', #62, #83, #123 ) ;
#173 = ADVANCED_FACE ( 'NONE', ( #32, #217 ), #100, .T. ) ;
#174 = DIRECTION ( 'NONE',  ( 0.0000000000000000000, 1.000000000000000000, 0.0000000000000000000 ) ) ;
#175 = DIRECTION ( 'NONE',  ( 0.0000000000000000000, 0.0000000000000000000, 1.000000000000000000 ) ) ;
#176 = CARTESIAN_POINT ( 'NONE',  ( 57.00000000000000000, 0.0000000000000000000, -2.639113852162546300E-015 ) ) ;
#177 = DIRECTION ( 'NONE',  ( 0.0000000000000000000, 0.0000000000000000000, 1.000000000000000000 ) ) ;
#178 = LOCAL_TIME ( 3, 17, 44.00000000000000000, #190 ) ;
#179 = ORIENTED_EDGE ( 'NONE', *, *, #244, .F. ) ;
#180 = CARTESIAN_POINT ( 'NONE',  ( 57.00000000000000000, 0.0000000000000000000, 0.0000000000000000000 ) ) ;
#181 = PRODUCT_DEFINITION ( 'UNKNOWN', '', #70, #60 ) ;
#182 = CARTESIAN_POINT ( 'NONE',  ( 0.0000000000000000000, 0.0000000000000000000, 0.0000000000000000000 ) ) ;
#183 = CIRCLE ( 'NONE', #148, 81.15000000000000600 ) ;
#184 = EDGE_CURVE ( 'NONE', #241, #86, #108, .T. ) ;
#185 = EDGE_CURVE ( 'NONE', #161, #109, #232, .T. ) ;
#186 = LOCAL_TIME ( 3, 17, 44.00000000000000000, #103 ) ;
#187 = DIRECTION ( 'NONE',  ( 0.0000000000000000000, 0.0000000000000000000, 1.000000000000000000 ) ) ;
#188 = CC_DESIGN_DATE_AND_TIME_ASSIGNMENT ( #135, #89, ( #132 ) ) ;
#189 = PERSON_AND_ORGANIZATION_ROLE ( 'creator' ) ;
#190 = COORDINATED_UNIVERSAL_TIME_OFFSET ( 1, 0, .AHEAD. ) ;
#191 = CARTESIAN_POINT ( 'NONE',  ( 0.0000000000000000000, 0.0000000000000000000, 0.0000000000000000000 ) ) ;
#192 = ORIENTED_EDGE ( 'NONE', *, *, #45, .T. ) ;
#193 = AXIS2_PLACEMENT_3D ( 'NONE', #176, #134, #18 ) ;
#194 = ORGANIZATION ( 'UNSPECIFIED', 'UNSPECIFIED', '' ) ;
#195 = DIRECTION ( 'NONE',  ( 0.0000000000000000000, 0.0000000000000000000, 1.000000000000000000 ) ) ;
#196 = CARTESIAN_POINT ( 'NONE',  ( 57.00000000000000000, 0.0000000000000000000, 0.0000000000000000000 ) ) ;
#197 = EDGE_CURVE ( 'NONE', #171, #59, #138, .T. ) ;
#198 = PERSON_AND_ORGANIZATION ( #133, #194 ) ;
#199 = EDGE_CURVE ( 'NONE', #86, #171, #183, .T. ) ;
#200 = CARTESIAN_POINT ( 'NONE',  ( 56.99999999999997900, 57.00000000000000000, 0.0000000000000000000 ) ) ;
#201 = DIRECTION ( 'NONE',  ( 0.0000000000000000000, 0.0000000000000000000, 1.000000000000000000 ) ) ;
#202 = CARTESIAN_POINT ( 'NONE',  ( 57.00000000000000000, 0.0000000000000000000, 0.0000000000000000000 ) ) ;
#203 = APPROVAL ( #33, 'UNSPECIFIED' ) ;
#204 = CARTESIAN_POINT ( 'NONE',  ( 56.99999999999997900, 78.55000000000001100, 0.0000000000000000000 ) ) ;
#205 = COORDINATED_UNIVERSAL_TIME_OFFSET ( 1, 0, .AHEAD. ) ;
#206 = ORIENTED_EDGE ( 'NONE', *, *, #197, .F. ) ;
#207 = AXIS2_PLACEMENT_3D ( 'NONE', #196, #116, #39 ) ;
#208 = CLOSED_SHELL ( 'NONE', ( #6, #136, #112, #173, #137, #93 ) ) ;
#209 = EDGE_LOOP ( 'NONE', ( #179, #206 ) ) ;
#210 = DATE_TIME_ROLE ( 'creation_date' ) ;
#211 = DIRECTION ( 'NONE',  ( 0.0000000000000000000, 1.000000000000000000, 0.0000000000000000000 ) ) ;
#212 = ORIENTED_EDGE ( 'NONE', *, *, #99, .T. ) ;
#213 = ORIENTED_EDGE ( 'NONE', *, *, #199, .F. ) ;
#214 = DIRECTION ( 'NONE',  ( -3.219904363762053700E-016, 1.000000000000000000, 0.0000000000000000000 ) ) ;
#215 = CALENDAR_DATE ( 2020, 16, 12 ) ;
#216 = DIRECTION ( 'NONE',  ( 1.000000000000000000, 0.0000000000000000000, 0.0000000000000000000 ) ) ;
#217 = FACE_OUTER_BOUND ( 'NONE', #95, .T. ) ;
#218 = EDGE_LOOP ( 'NONE', ( #20, #76 ) ) ;
#219 = DIRECTION ( 'NONE',  ( 1.000000000000000000, 0.0000000000000000000, 0.0000000000000000000 ) ) ;
#220 = CALENDAR_DATE ( 2020, 16, 12 ) ;
#221 = DIRECTION ( 'NONE',  ( 1.000000000000000000, 2.832769448823989800E-016, 0.0000000000000000000 ) ) ;
#222 = APPROVAL ( #127, 'UNSPECIFIED' ) ;
#223 = CARTESIAN_POINT ( 'NONE',  ( 0.0000000000000000000, 0.0000000000000000000, 0.0000000000000000000 ) ) ;
#224 = CIRCLE ( 'NONE', #113, 21.55000000000000100 ) ;
#225 = AXIS2_PLACEMENT_3D ( 'NONE', #25, #155, #242 ) ;
#226 = AXIS2_PLACEMENT_3D ( 'NONE', #200, #118, #57 ) ;
#227 = PERSON_AND_ORGANIZATION ( #133, #194 ) ;
#228 = ORIENTED_EDGE ( 'NONE', *, *, #167, .F. ) ;
#229 = ORIENTED_EDGE ( 'NONE', *, *, #237, .F. ) ;
#230 = CARTESIAN_POINT ( 'NONE',  ( 0.0000000000000000000, 0.0000000000000000000, 0.0000000000000000000 ) ) ;
#231 = PERSON_AND_ORGANIZATION_ROLE ( 'classification_officer' ) ;
#232 = CIRCLE ( 'NONE', #21, 21.55000000000000800 ) ;
#233 = APPLICATION_PROTOCOL_DEFINITION ( 'international standard', 'config_control_design', 1994, #72 ) ;
#234 = ORIENTED_EDGE ( 'NONE', *, *, #185, .F. ) ;
#235 = CC_DESIGN_DATE_AND_TIME_ASSIGNMENT ( #236, #210, ( #181 ) ) ;
#236 = DATE_AND_TIME ( #240, #186 ) ;
#237 = EDGE_CURVE ( 'NONE', #86, #241, #36, .T. ) ;
#238 = CARTESIAN_POINT ( 'NONE',  ( 56.99999999999998600, 57.00000000000000000, 0.0000000000000000000 ) ) ;
#239 = AXIS2_PLACEMENT_3D ( 'NONE', #156, #139, #201 ) ;
#240 = CALENDAR_DATE ( 2020, 16, 12 ) ;
#241 = VERTEX_POINT ( 'NONE', #2 ) ;
#242 = DIRECTION ( 'NONE',  ( 1.000000000000000000, 0.0000000000000000000, 0.0000000000000000000 ) ) ;
#243 = DIRECTION ( 'NONE',  ( -3.219904363762053700E-016, 1.000000000000000000, 0.0000000000000000000 ) ) ;
#244 = EDGE_CURVE ( 'NONE', #59, #171, #5, .T. ) ;
#245 = FACE_BOUND ( 'NONE', #218, .T. ) ;
#246 = AXIS2_PLACEMENT_3D ( 'NONE', #191, #211, #187 ) ;
#247 = FACE_OUTER_BOUND ( 'NONE', #105, .T. ) ;
#248 = VERTEX_POINT ( 'NONE', #157 ) ;
#249 = VERTEX_POINT ( 'NONE', #61 ) ;
#250 = AXIS2_PLACEMENT_3D ( 'NONE', #111, #175, #216 ) ;
#251 = EDGE_LOOP ( 'NONE', ( #229, #145, #147, #9 ) ) ;
#252 = AXIS2_PLACEMENT_3D ( 'NONE', #230, #88, #8 ) ;
#253 = COORDINATED_UNIVERSAL_TIME_OFFSET ( 1, 0, .AHEAD. ) ;
ENDSEC;
END-ISO-10303-21;
