ISO-10303-21;
HEADER;
FILE_DESCRIPTION (( 'STEP AP203' ),
    '1' );
FILE_NAME ('3D_R169-K_42-26_17325250.STEP',
    '2024-07-11T10:20:34',
    ( '' ),
    ( '' ),
    'SwSTEP 2.0',
    'SolidWorks 2024',
    '' );
FILE_SCHEMA (( 'CONFIG_CONTROL_DESIGN' ));
ENDSEC;

DATA;
#1 = DIRECTION ( 'NONE',  ( 0.000000000000000000, 0.000000000000000000, 1.000000000000000000 ) ) ;
#2 = CALENDAR_DATE ( 2024, 11, 7 ) ;
#3 = ORIENTED_EDGE ( 'NONE', *, *, #217, .F. ) ;
#4 = EDGE_CURVE ( 'NONE', #119, #128, #201, .T. ) ;
#5 = CIRCLE ( 'NONE', #149, 21.19999999999999929 ) ;
#6 = AXIS2_PLACEMENT_3D ( 'NONE', #171, #156, #214 ) ;
#7 = PERSON_AND_ORGANIZATION_ROLE ( 'creator' ) ;
#8 = ORIENTED_EDGE ( 'NONE', *, *, #137, .F. ) ;
#9 = PRODUCT ( '3D_R169-K_42-26_17325250', '3D_R169-K_42-26_17325250', '', ( #136 ) ) ;
#10 = CIRCLE ( 'NONE', #218, 11.37981357862081033 ) ;
#11 = VERTEX_POINT ( 'NONE', #116 ) ;
#12 = APPROVAL ( #106, 'UNSPECIFIED' ) ;
#13 = ORIENTED_EDGE ( 'NONE', *, *, #226, .F. ) ;
#14 = DIRECTION ( 'NONE',  ( 0.000000000000000000, 0.000000000000000000, -1.000000000000000000 ) ) ;
#15 = DIRECTION ( 'NONE',  ( 0.000000000000000000, 0.000000000000000000, 1.000000000000000000 ) ) ;
#16 = DIRECTION ( 'NONE',  ( 1.000000000000000000, 0.000000000000000000, 0.000000000000000000 ) ) ;
#17 = DIRECTION ( 'NONE',  ( 0.000000000000000000, 0.000000000000000000, 1.000000000000000000 ) ) ;
#18 = FACE_BOUND ( 'NONE', #54, .T. ) ;
#19 = VECTOR ( 'NONE', #193, 1000.000000000000227 ) ;
#20 = PRODUCT_DEFINITION_FORMATION_WITH_SPECIFIED_SOURCE ( 'ANY', '', #9, .NOT_KNOWN. ) ;
#21 = FACE_OUTER_BOUND ( 'NONE', #224, .T. ) ;
#22 = FACE_OUTER_BOUND ( 'NONE', #236, .T. ) ;
#23 =( NAMED_UNIT ( * ) PLANE_ANGLE_UNIT ( ) SI_UNIT ( $, .RADIAN. ) );
#24 = DATE_TIME_ROLE ( 'classification_date' ) ;
#25 = PERSON_AND_ORGANIZATION ( #112, #60 ) ;
#26 = APPROVAL_ROLE ( '' ) ;
#27 = CC_DESIGN_APPROVAL ( #71, ( #150 ) ) ;
#28 = DATE_AND_TIME ( #238, #82 ) ;
#29 = CC_DESIGN_PERSON_AND_ORGANIZATION_ASSIGNMENT ( #61, #235, ( #20 ) ) ;
#30 = CARTESIAN_POINT ( 'NONE',  ( 29.00000000000000000, 0.000000000000000000, 0.000000000000000000 ) ) ;
#31 = AXIS2_PLACEMENT_3D ( 'NONE', #56, #146, #134 ) ;
#32 = DIRECTION ( 'NONE',  ( 1.000000000000000000, 0.000000000000000000, 0.000000000000000000 ) ) ;
#33 = FACE_BOUND ( 'NONE', #225, .T. ) ;
#34 = DIRECTION ( 'NONE',  ( 1.000000000000000000, 0.000000000000000000, 0.000000000000000000 ) ) ;
#35 = DIRECTION ( 'NONE',  ( -1.000000000000000000, -0.000000000000000000, -0.000000000000000000 ) ) ;
#36 = CC_DESIGN_APPROVAL ( #101, ( #20 ) ) ;
#37 = CARTESIAN_POINT ( 'NONE',  ( 0.000000000000000000, 0.000000000000000000, 0.000000000000000000 ) ) ;
#38 = PERSON_AND_ORGANIZATION_ROLE ( 'design_owner' ) ;
#39 = CONICAL_SURFACE ( 'NONE', #181, 13.44999999999999929, 0.2611388723825678326 ) ;
#40 = DIRECTION ( 'NONE',  ( 0.000000000000000000, 0.000000000000000000, 1.000000000000000000 ) ) ;
#41 = DIRECTION ( 'NONE',  ( 1.000000000000000000, 0.000000000000000000, 0.000000000000000000 ) ) ;
#42 = CARTESIAN_POINT ( 'NONE',  ( 0.000000000000000000, 0.000000000000000000, 0.000000000000000000 ) ) ;
#43 = AXIS2_PLACEMENT_3D ( 'NONE', #240, #243, #151 ) ;
#44 = VECTOR ( 'NONE', #155, 1000.000000000000227 ) ;
#45 = DATE_AND_TIME ( #182, #79 ) ;
#46 = ADVANCED_FACE ( 'NONE', ( #132 ), #125, .T. ) ;
#47 = PERSON_AND_ORGANIZATION ( #112, #60 ) ;
#48 = ADVANCED_BREP_SHAPE_REPRESENTATION ( '3D_R169-K_42-26_17325250', ( #174, #135 ), #192 ) ;
#49 = ORIENTED_EDGE ( 'NONE', *, *, #162, .T. ) ;
#50 = VERTEX_POINT ( 'NONE', #203 ) ;
#51 = PRODUCT_RELATED_PRODUCT_CATEGORY ( 'detail', '', ( #9 ) ) ;
#52 = AXIS2_PLACEMENT_3D ( 'NONE', #30, #16, #92 ) ;
#53 = AXIS2_PLACEMENT_3D ( 'NONE', #37, #172, #190 ) ;
#54 = EDGE_LOOP ( 'NONE', ( #76, #117 ) ) ;
#55 = DIRECTION ( 'NONE',  ( 0.000000000000000000, 0.000000000000000000, -1.000000000000000000 ) ) ;
#56 = CARTESIAN_POINT ( 'NONE',  ( 29.00000000000000000, 0.000000000000000000, 0.000000000000000000 ) ) ;
#57 = APPLICATION_PROTOCOL_DEFINITION ( 'international standard', 'config_control_design', 1994, #141 ) ;
#58 = DIRECTION ( 'NONE',  ( 0.000000000000000000, 0.000000000000000000, -1.000000000000000000 ) ) ;
#59 = DIRECTION ( 'NONE',  ( 1.000000000000000000, 0.000000000000000000, 0.000000000000000000 ) ) ;
#60 = ORGANIZATION ( 'UNSPECIFIED', 'UNSPECIFIED', '' ) ;
#61 = PERSON_AND_ORGANIZATION ( #112, #60 ) ;
#62 = CLOSED_SHELL ( 'NONE', ( #246, #46, #83, #199, #142, #233 ) ) ;
#63 = LOCAL_TIME ( 12, 20, 34.00000000000000000, #64 ) ;
#64 = COORDINATED_UNIVERSAL_TIME_OFFSET ( 1, 0, .AHEAD. ) ;
#65 = EDGE_CURVE ( 'NONE', #128, #119, #97, .T. ) ;
#66 = PERSON_AND_ORGANIZATION ( #112, #60 ) ;
#67 = ORIENTED_EDGE ( 'NONE', *, *, #96, .T. ) ;
#68 = APPROVAL_DATE_TIME ( #88, #71 ) ;
#69 = AXIS2_PLACEMENT_3D ( 'NONE', #124, #122, #17 ) ;
#70 = ORIENTED_EDGE ( 'NONE', *, *, #242, .F. ) ;
#71 = APPROVAL ( #180, 'UNSPECIFIED' ) ;
#72 = PLANE ( 'NONE',  #31 ) ;
#73 = ORIENTED_EDGE ( 'NONE', *, *, #96, .F. ) ;
#74 = CARTESIAN_POINT ( 'NONE',  ( 29.00000000000000000, 0.000000000000000000, 0.000000000000000000 ) ) ;
#75 = CC_DESIGN_PERSON_AND_ORGANIZATION_ASSIGNMENT ( #197, #7, ( #20 ) ) ;
#76 = ORIENTED_EDGE ( 'NONE', *, *, #178, .T. ) ;
#77 = ORIENTED_EDGE ( 'NONE', *, *, #4, .F. ) ;
#78 = LINE ( 'NONE', #84, #44 ) ;
#79 = LOCAL_TIME ( 12, 20, 34.00000000000000000, #87 ) ;
#80 = FACE_OUTER_BOUND ( 'NONE', #244, .T. ) ;
#81 = CARTESIAN_POINT ( 'NONE',  ( 29.00000000000000000, 0.000000000000000000, 13.44999999999999929 ) ) ;
#82 = LOCAL_TIME ( 12, 20, 34.00000000000000000, #127 ) ;
#83 = ADVANCED_FACE ( 'NONE', ( #33, #185 ), #72, .T. ) ;
#84 = CARTESIAN_POINT ( 'NONE',  ( 29.00000000000000000, 1.647149944853189991E-15, -13.44999999999999929 ) ) ;
#85 = SHAPE_DEFINITION_REPRESENTATION ( #95, #48 ) ;
#86 = CONICAL_SURFACE ( 'NONE', #69, 11.51780686092263295, 0.2611388723825678326 ) ;
#87 = COORDINATED_UNIVERSAL_TIME_OFFSET ( 1, 0, .AHEAD. ) ;
#88 = DATE_AND_TIME ( #232, #114 ) ;
#89 = ORIENTED_EDGE ( 'NONE', *, *, #137, .T. ) ;
#90 = CONICAL_SURFACE ( 'NONE', #176, 11.51780686092263295, 0.2611388723825678326 ) ;
#91 = PRODUCT_DEFINITION ( 'UNKNOWN', '', #20, #196 ) ;
#92 = DIRECTION ( 'NONE',  ( 0.000000000000000000, 0.000000000000000000, -1.000000000000000000 ) ) ;
#93 = VERTEX_POINT ( 'NONE', #186 ) ;
#94 = CARTESIAN_POINT ( 'NONE',  ( 0.000000000000000000, 0.000000000000000000, 0.000000000000000000 ) ) ;
#95 = PRODUCT_DEFINITION_SHAPE ( 'NONE', 'NONE',  #91 ) ;
#96 = EDGE_CURVE ( 'NONE', #165, #11, #10, .T. ) ;
#97 = CIRCLE ( 'NONE', #43, 13.44999999999999929 ) ;
#98 = FACE_OUTER_BOUND ( 'NONE', #129, .T. ) ;
#99 = EDGE_LOOP ( 'NONE', ( #205, #154 ) ) ;
#100 = DIRECTION ( 'NONE',  ( -0.9660965695386833918, 0.000000000000000000, 0.2581809797905101900 ) ) ;
#101 = APPROVAL ( #158, 'UNSPECIFIED' ) ;
#102 = CARTESIAN_POINT ( 'NONE',  ( 29.00000000000000000, 0.000000000000000000, 0.000000000000000000 ) ) ;
#103 = DIRECTION ( 'NONE',  ( 0.000000000000000000, 0.000000000000000000, 1.000000000000000000 ) ) ;
#104 = CC_DESIGN_DATE_AND_TIME_ASSIGNMENT ( #45, #108, ( #91 ) ) ;
#105 = CARTESIAN_POINT ( 'NONE',  ( 0.000000000000000000, 0.000000000000000000, 0.000000000000000000 ) ) ;
#106 = APPROVAL_STATUS ( 'not_yet_approved' ) ;
#107 = ORIENTED_EDGE ( 'NONE', *, *, #65, .F. ) ;
#108 = DATE_TIME_ROLE ( 'creation_date' ) ;
#109 = DATE_AND_TIME ( #198, #63 ) ;
#110 = AXIS2_PLACEMENT_3D ( 'NONE', #102, #194, #123 ) ;
#111 = SECURITY_CLASSIFICATION_LEVEL ( 'unclassified' ) ;
#112 = PERSON ( 'UNSPECIFIED', 'UNSPECIFIED', 'UNSPECIFIED', ('UNSPECIFIED'), ('UNSPECIFIED'), ('UNSPECIFIED') ) ;
#113 = ORIENTED_EDGE ( 'NONE', *, *, #212, .F. ) ;
#114 = LOCAL_TIME ( 12, 20, 34.00000000000000000, #231 ) ;
#115 = CARTESIAN_POINT ( 'NONE',  ( 29.00000000000000000, 8.235749724265949955E-16, 13.44999999999999929 ) ) ;
#116 = CARTESIAN_POINT ( 'NONE',  ( 29.00000000000000000, 0.000000000000000000, 11.37981357862081033 ) ) ;
#117 = ORIENTED_EDGE ( 'NONE', *, *, #121, .T. ) ;
#118 = VECTOR ( 'NONE', #100, 1000.000000000000227 ) ;
#119 = VERTEX_POINT ( 'NONE', #115 ) ;
#120 = PERSON_AND_ORGANIZATION ( #112, #60 ) ;
#121 = EDGE_CURVE ( 'NONE', #50, #167, #209, .T. ) ;
#122 = DIRECTION ( 'NONE',  ( -1.000000000000000000, -0.000000000000000000, -0.000000000000000000 ) ) ;
#123 = DIRECTION ( 'NONE',  ( 0.000000000000000000, 0.000000000000000000, -1.000000000000000000 ) ) ;
#124 = CARTESIAN_POINT ( 'NONE',  ( 28.48363804041898106, 0.000000000000000000, 0.000000000000000000 ) ) ;
#125 = CONICAL_SURFACE ( 'NONE', #204, 13.44999999999999929, 0.2611388723825678326 ) ;
#126 = APPLICATION_PROTOCOL_DEFINITION ( 'international standard', 'config_control_design', 1994, #237 ) ;
#127 = COORDINATED_UNIVERSAL_TIME_OFFSET ( 1, 0, .AHEAD. ) ;
#128 = VERTEX_POINT ( 'NONE', #133 ) ;
#129 = EDGE_LOOP ( 'NONE', ( #70, #77, #49, #89 ) ) ;
#130 = CIRCLE ( 'NONE', #53, 19.12981357862080500 ) ;
#131 = CC_DESIGN_SECURITY_CLASSIFICATION ( #150, ( #20 ) ) ;
#132 = FACE_OUTER_BOUND ( 'NONE', #239, .T. ) ;
#133 = CARTESIAN_POINT ( 'NONE',  ( 29.00000000000000000, 8.235749724265949955E-16, -13.44999999999999929 ) ) ;
#134 = DIRECTION ( 'NONE',  ( 0.000000000000000000, 0.000000000000000000, -1.000000000000000000 ) ) ;
#135 = AXIS2_PLACEMENT_3D ( 'NONE', #105, #1, #41 ) ;
#136 = MECHANICAL_CONTEXT ( 'NONE', #141, 'mechanical' ) ;
#137 = EDGE_CURVE ( 'NONE', #169, #93, #5, .T. ) ;
#138 = LINE ( 'NONE', #81, #195 ) ;
#139 = LINE ( 'NONE', #191, #118 ) ;
#140 = CARTESIAN_POINT ( 'NONE',  ( 28.48363804041898106, 0.000000000000000000, 0.000000000000000000 ) ) ;
#141 = APPLICATION_CONTEXT ( 'configuration controlled 3d designs of mechanical parts and assemblies' ) ;
#142 = ADVANCED_FACE ( 'NONE', ( #98 ), #39, .T. ) ;
#143 = PERSON_AND_ORGANIZATION_ROLE ( 'classification_officer' ) ;
#144 = COORDINATED_UNIVERSAL_TIME_OFFSET ( 1, 0, .AHEAD. ) ;
#145 = APPROVAL_PERSON_ORGANIZATION ( #200, #12, #234 ) ;
#146 = DIRECTION ( 'NONE',  ( 1.000000000000000000, 0.000000000000000000, 0.000000000000000000 ) ) ;
#147 = CC_DESIGN_PERSON_AND_ORGANIZATION_ASSIGNMENT ( #120, #38, ( #9 ) ) ;
#148 = ORIENTED_EDGE ( 'NONE', *, *, #226, .T. ) ;
#149 = AXIS2_PLACEMENT_3D ( 'NONE', #208, #34, #187 ) ;
#150 = SECURITY_CLASSIFICATION ( '', '', #111 ) ;
#151 = DIRECTION ( 'NONE',  ( 0.000000000000000000, 0.000000000000000000, -1.000000000000000000 ) ) ;
#152 = DIRECTION ( 'NONE',  ( -1.000000000000000000, -0.000000000000000000, -0.000000000000000000 ) ) ;
#153 = EDGE_CURVE ( 'NONE', #11, #165, #247, .T. ) ;
#154 = ORIENTED_EDGE ( 'NONE', *, *, #65, .T. ) ;
#155 = DIRECTION ( 'NONE',  ( -0.9660965695386833918, 3.161805105011758184E-17, -0.2581809797905101900 ) ) ;
#156 = DIRECTION ( 'NONE',  ( 1.000000000000000000, 0.000000000000000000, 0.000000000000000000 ) ) ;
#157 = DIRECTION ( 'NONE',  ( -0.9660965695386833918, 0.000000000000000000, 0.2581809797905101900 ) ) ;
#158 = APPROVAL_STATUS ( 'not_yet_approved' ) ;
#159 = APPROVAL_ROLE ( '' ) ;
#160 = APPROVAL_PERSON_ORGANIZATION ( #25, #71, #159 ) ;
#161 = PERSON_AND_ORGANIZATION_ROLE ( 'creator' ) ;
#162 = EDGE_CURVE ( 'NONE', #119, #169, #138, .T. ) ;
#163 = DATE_AND_TIME ( #2, #183 ) ;
#164 = ORIENTED_EDGE ( 'NONE', *, *, #242, .T. ) ;
#165 = VERTEX_POINT ( 'NONE', #177 ) ;
#166 = CC_DESIGN_PERSON_AND_ORGANIZATION_ASSIGNMENT ( #202, #161, ( #91 ) ) ;
#167 = VERTEX_POINT ( 'NONE', #229 ) ;
#168 = DIRECTION ( 'NONE',  ( 1.000000000000000000, 0.000000000000000000, 0.000000000000000000 ) ) ;
#169 = VERTEX_POINT ( 'NONE', #249 ) ;
#170 = ORIENTED_EDGE ( 'NONE', *, *, #178, .F. ) ;
#171 = CARTESIAN_POINT ( 'NONE',  ( 0.000000000000000000, 0.000000000000000000, 0.000000000000000000 ) ) ;
#172 = DIRECTION ( 'NONE',  ( 1.000000000000000000, 0.000000000000000000, 0.000000000000000000 ) ) ;
#173 =( LENGTH_UNIT ( ) NAMED_UNIT ( * ) SI_UNIT ( .MILLI., .METRE. ) );
#174 = MANIFOLD_SOLID_BREP ( 'Wandung2', #62 ) ;
#175 = DIRECTION ( 'NONE',  ( -1.000000000000000000, -0.000000000000000000, -0.000000000000000000 ) ) ;
#176 = AXIS2_PLACEMENT_3D ( 'NONE', #140, #175, #40 ) ;
#177 = CARTESIAN_POINT ( 'NONE',  ( 29.00000000000000000, 1.868175862064755731E-15, -11.37981357862081033 ) ) ;
#178 = EDGE_CURVE ( 'NONE', #167, #50, #130, .T. ) ;
#179 = APPROVAL_DATE_TIME ( #28, #101 ) ;
#180 = APPROVAL_STATUS ( 'not_yet_approved' ) ;
#181 = AXIS2_PLACEMENT_3D ( 'NONE', #210, #35, #103 ) ;
#182 = CALENDAR_DATE ( 2024, 11, 7 ) ;
#183 = LOCAL_TIME ( 12, 20, 34.00000000000000000, #144 ) ;
#184 = ORIENTED_EDGE ( 'NONE', *, *, #212, .T. ) ;
#185 = FACE_OUTER_BOUND ( 'NONE', #99, .T. ) ;
#186 = CARTESIAN_POINT ( 'NONE',  ( 0.000000000000000000, 3.894376821288582760E-15, -21.19999999999999929 ) ) ;
#187 = DIRECTION ( 'NONE',  ( 0.000000000000000000, 0.000000000000000000, -1.000000000000000000 ) ) ;
#188 = APPROVAL_PERSON_ORGANIZATION ( #47, #101, #26 ) ;
#189 = ORIENTED_EDGE ( 'NONE', *, *, #153, .T. ) ;
#190 = DIRECTION ( 'NONE',  ( 0.000000000000000000, 0.000000000000000000, -1.000000000000000000 ) ) ;
#191 = CARTESIAN_POINT ( 'NONE',  ( 28.48363804041898106, 0.000000000000000000, 11.51780686092263295 ) ) ;
#192 =( GEOMETRIC_REPRESENTATION_CONTEXT ( 3 ) GLOBAL_UNCERTAINTY_ASSIGNED_CONTEXT ( ( #228 ) ) GLOBAL_UNIT_ASSIGNED_CONTEXT ( ( #173, #23, #248 ) ) REPRESENTATION_CONTEXT ( 'NONE', 'WORKASPACE' ) );
#193 = DIRECTION ( 'NONE',  ( -0.9660965695386833918, 3.161805105011758184E-17, -0.2581809797905101900 ) ) ;
#194 = DIRECTION ( 'NONE',  ( 1.000000000000000000, 0.000000000000000000, 0.000000000000000000 ) ) ;
#195 = VECTOR ( 'NONE', #157, 1000.000000000000227 ) ;
#196 = DESIGN_CONTEXT ( 'detailed design', #237, 'design' ) ;
#197 = PERSON_AND_ORGANIZATION ( #112, #60 ) ;
#198 = CALENDAR_DATE ( 2024, 11, 7 ) ;
#199 = ADVANCED_FACE ( 'NONE', ( #18, #80 ), #213, .F. ) ;
#200 = PERSON_AND_ORGANIZATION ( #112, #60 ) ;
#201 = CIRCLE ( 'NONE', #52, 13.44999999999999929 ) ;
#202 = PERSON_AND_ORGANIZATION ( #112, #60 ) ;
#203 = CARTESIAN_POINT ( 'NONE',  ( 0.000000000000000000, 2.342726496734354824E-15, -19.12981357862080856 ) ) ;
#204 = AXIS2_PLACEMENT_3D ( 'NONE', #74, #152, #15 ) ;
#205 = ORIENTED_EDGE ( 'NONE', *, *, #4, .T. ) ;
#206 = CC_DESIGN_APPROVAL ( #12, ( #91 ) ) ;
#207 = ORIENTED_EDGE ( 'NONE', *, *, #162, .F. ) ;
#208 = CARTESIAN_POINT ( 'NONE',  ( 0.000000000000000000, 0.000000000000000000, 0.000000000000000000 ) ) ;
#209 = CIRCLE ( 'NONE', #216, 19.12981357862080500 ) ;
#210 = CARTESIAN_POINT ( 'NONE',  ( 29.00000000000000000, 0.000000000000000000, 0.000000000000000000 ) ) ;
#211 = CARTESIAN_POINT ( 'NONE',  ( 28.48363804041898106, 1.410524530542632631E-15, -11.51780686092263295 ) ) ;
#212 = EDGE_CURVE ( 'NONE', #165, #50, #227, .T. ) ;
#213 = PLANE ( 'NONE',  #6 ) ;
#214 = DIRECTION ( 'NONE',  ( 0.000000000000000000, 0.000000000000000000, -1.000000000000000000 ) ) ;
#215 = APPROVAL_DATE_TIME ( #109, #12 ) ;
#216 = AXIS2_PLACEMENT_3D ( 'NONE', #94, #168, #55 ) ;
#217 = EDGE_CURVE ( 'NONE', #93, #169, #219, .T. ) ;
#218 = AXIS2_PLACEMENT_3D ( 'NONE', #221, #32, #14 ) ;
#219 = CIRCLE ( 'NONE', #223, 21.19999999999999929 ) ;
#220 = CC_DESIGN_DATE_AND_TIME_ASSIGNMENT ( #163, #24, ( #150 ) ) ;
#221 = CARTESIAN_POINT ( 'NONE',  ( 29.00000000000000000, 0.000000000000000000, 0.000000000000000000 ) ) ;
#222 = ORIENTED_EDGE ( 'NONE', *, *, #153, .F. ) ;
#223 = AXIS2_PLACEMENT_3D ( 'NONE', #42, #59, #58 ) ;
#224 = EDGE_LOOP ( 'NONE', ( #113, #67, #148, #245 ) ) ;
#225 = EDGE_LOOP ( 'NONE', ( #222, #73 ) ) ;
#226 = EDGE_CURVE ( 'NONE', #11, #167, #139, .T. ) ;
#227 = LINE ( 'NONE', #211, #19 ) ;
#228 = UNCERTAINTY_MEASURE_WITH_UNIT (LENGTH_MEASURE( 1.000000000000000082E-05 ), #173, 'distance_accuracy_value', 'NONE');
#229 = CARTESIAN_POINT ( 'NONE',  ( 0.000000000000000000, 0.000000000000000000, 19.12981357862080856 ) ) ;
#230 = CC_DESIGN_PERSON_AND_ORGANIZATION_ASSIGNMENT ( #66, #143, ( #150 ) ) ;
#231 = COORDINATED_UNIVERSAL_TIME_OFFSET ( 1, 0, .AHEAD. ) ;
#232 = CALENDAR_DATE ( 2024, 11, 7 ) ;
#233 = ADVANCED_FACE ( 'NONE', ( #21 ), #90, .F. ) ;
#234 = APPROVAL_ROLE ( '' ) ;
#235 = PERSON_AND_ORGANIZATION_ROLE ( 'design_supplier' ) ;
#236 = EDGE_LOOP ( 'NONE', ( #189, #184, #170, #13 ) ) ;
#237 = APPLICATION_CONTEXT ( 'configuration controlled 3d designs of mechanical parts and assemblies' ) ;
#238 = CALENDAR_DATE ( 2024, 11, 7 ) ;
#239 = EDGE_LOOP ( 'NONE', ( #107, #164, #241, #207 ) ) ;
#240 = CARTESIAN_POINT ( 'NONE',  ( 29.00000000000000000, 0.000000000000000000, 0.000000000000000000 ) ) ;
#241 = ORIENTED_EDGE ( 'NONE', *, *, #217, .T. ) ;
#242 = EDGE_CURVE ( 'NONE', #128, #93, #78, .T. ) ;
#243 = DIRECTION ( 'NONE',  ( 1.000000000000000000, 0.000000000000000000, 0.000000000000000000 ) ) ;
#244 = EDGE_LOOP ( 'NONE', ( #8, #3 ) ) ;
#245 = ORIENTED_EDGE ( 'NONE', *, *, #121, .F. ) ;
#246 = ADVANCED_FACE ( 'NONE', ( #22 ), #86, .F. ) ;
#247 = CIRCLE ( 'NONE', #110, 11.37981357862081033 ) ;
#248 =( NAMED_UNIT ( * ) SI_UNIT ( $, .STERADIAN. ) SOLID_ANGLE_UNIT ( ) );
#249 = CARTESIAN_POINT ( 'NONE',  ( 0.000000000000000000, -1.298125607096194385E-15, 21.19999999999999929 ) ) ;
ENDSEC;
END-ISO-10303-21;
