ISO-10303-21;
HEADER;
FILE_DESCRIPTION (( 'STEP AP203' ),
    '1' );
FILE_NAME ('11-0206-11_outokumpu.step',
    '2015-08-11T09:47:45',
    ( '' ),
    ( '' ),
    'SwSTEP 2.0',
    'SolidWorks 2008',
    '' );
FILE_SCHEMA (( 'CONFIG_CONTROL_DESIGN' ));
ENDSEC;

DATA;
#1 = APPLICATION_CONTEXT ( 'configuration controlled 3d designs of mechanical parts and assemblies' ) ;
#2 = ORGANIZATION ( 'UNSPECIFIED', 'UNSPECIFIED', '' ) ;
#3 = APPLICATION_PROTOCOL_DEFINITION ( 'international standard', 'config_control_design', 1994, #1 ) ;
#4 = PRODUCT_DEFINITION ( 'UNKNOWN', '', #48, #5 ) ;
#5 = DESIGN_CONTEXT ( 'detailed design', #1, 'design' ) ;
#6 = PERSON_AND_ORGANIZATION ( #26, #2 ) ;
#7 = AXIS2_PLACEMENT_3D ( 'NONE', #10, #11, #12 ) ;
#8 = CC_DESIGN_PERSON_AND_ORGANIZATION_ASSIGNMENT ( #6, #9, ( #27 ) ) ;
#9 = PERSON_AND_ORGANIZATION_ROLE ( 'design_owner' ) ;
#10 = CARTESIAN_POINT ( 'NONE',  ( 0.0000000000000000000, 0.0000000000000000000, 0.0000000000000000000 ) ) ;
#11 = DIRECTION ( 'NONE',  ( 0.0000000000000000000, 0.0000000000000000000, 1.000000000000000000 ) ) ;
#12 = DIRECTION ( 'NONE',  ( 1.000000000000000000, 0.0000000000000000000, 0.0000000000000000000 ) ) ;
#13 = PERSON_AND_ORGANIZATION ( #26, #2 ) ;
#14 = APPROVAL_STATUS ( 'not_yet_approved' ) ;
#15 = APPROVAL ( #14, 'UNSPECIFIED' ) ;
#16 = APPROVAL_ROLE ( '' ) ;
#17 = APPROVAL_DATE_TIME ( #20, #15 ) ;
#18 = COORDINATED_UNIVERSAL_TIME_OFFSET ( 1, 0, .AHEAD. ) ;
#19 = APPROVAL_PERSON_ORGANIZATION ( #13, #15, #16 ) ;
#20 = DATE_AND_TIME ( #22, #21 ) ;
#21 = LOCAL_TIME ( 11, 47, 45.00000000000000000, #18 ) ;
#22 = CALENDAR_DATE ( 2015, 11, 8 ) ;
#23 = CC_DESIGN_APPROVAL ( #46, ( #48 ) ) ;
#24 = CC_DESIGN_APPROVAL ( #15, ( #4 ) ) ;
#25 = APPLICATION_CONTEXT ( 'configuration controlled 3d designs of mechanical parts and assemblies' ) ;
#26 = PERSON ( 'UNSPECIFIED', 'UNSPECIFIED', 'UNSPECIFIED', ('UNSPECIFIED'), ('UNSPECIFIED'), ('UNSPECIFIED') ) ;
#27 = PRODUCT ( '11-0206-11_outokumpu', '11-0206-11_outokumpu', '', ( #28 ) ) ;
#28 = MECHANICAL_CONTEXT ( 'NONE', #25, 'mechanical' ) ;
#29 = APPLICATION_PROTOCOL_DEFINITION ( 'international standard', 'config_control_design', 1994, #25 ) ;
#30 = CC_DESIGN_PERSON_AND_ORGANIZATION_ASSIGNMENT ( #38, #36, ( #4 ) ) ;
#31 = COORDINATED_UNIVERSAL_TIME_OFFSET ( 1, 0, .AHEAD. ) ;
#32 = DATE_TIME_ROLE ( 'creation_date' ) ;
#33 = LOCAL_TIME ( 11, 47, 45.00000000000000000, #31 ) ;
#34 = DATE_AND_TIME ( #35, #33 ) ;
#35 = CALENDAR_DATE ( 2015, 11, 8 ) ;
#36 = PERSON_AND_ORGANIZATION_ROLE ( 'creator' ) ;
#37 = CC_DESIGN_DATE_AND_TIME_ASSIGNMENT ( #34, #32, ( #4 ) ) ;
#38 = PERSON_AND_ORGANIZATION ( #26, #2 ) ;
#39 = COORDINATED_UNIVERSAL_TIME_OFFSET ( 1, 0, .AHEAD. ) ;
#40 = APPROVAL_PERSON_ORGANIZATION ( #49, #46, #41 ) ;
#41 = APPROVAL_ROLE ( '' ) ;
#42 = APPROVAL_DATE_TIME ( #43, #46 ) ;
#43 = DATE_AND_TIME ( #44, #45 ) ;
#44 = CALENDAR_DATE ( 2015, 11, 8 ) ;
#45 = LOCAL_TIME ( 11, 47, 45.00000000000000000, #39 ) ;
#46 = APPROVAL ( #47, 'UNSPECIFIED' ) ;
#47 = APPROVAL_STATUS ( 'not_yet_approved' ) ;
#48 = PRODUCT_DEFINITION_FORMATION_WITH_SPECIFIED_SOURCE ( 'ANY', '', #27, .NOT_KNOWN. ) ;
#49 = PERSON_AND_ORGANIZATION ( #26, #2 ) ;
#50 = EDGE_LOOP ( 'NONE', ( #55, #252, #237, #246 ) ) ;
#51 = VERTEX_POINT ( 'NONE', #92 ) ;
#52 = EDGE_CURVE ( 'NONE', #61, #51, #97, .T. ) ;
#53 = ORIENTED_EDGE ( 'NONE', *, *, #52, .F. ) ;
#54 = ADVANCED_FACE ( 'NONE', ( #83 ), #94, .T. ) ;
#55 = ORIENTED_EDGE ( 'NONE', *, *, #235, .F. ) ;
#56 = VERTEX_POINT ( 'NONE', #151 ) ;
#57 = ORIENTED_EDGE ( 'NONE', *, *, #58, .F. ) ;
#58 = EDGE_CURVE ( 'NONE', #51, #56, #118, .T. ) ;
#59 = ORIENTED_EDGE ( 'NONE', *, *, #60, .T. ) ;
#60 = EDGE_CURVE ( 'NONE', #61, #62, #100, .T. ) ;
#61 = VERTEX_POINT ( 'NONE', #101 ) ;
#62 = VERTEX_POINT ( 'NONE', #128 ) ;
#63 = ORIENTED_EDGE ( 'NONE', *, *, #64, .T. ) ;
#64 = EDGE_CURVE ( 'NONE', #62, #56, #127, .T. ) ;
#65 = ADVANCED_FACE ( 'NONE', ( #140 ), #119, .T. ) ;
#66 = EDGE_LOOP ( 'NONE', ( #59, #63, #57, #53 ) ) ;
#67 = EDGE_CURVE ( 'NONE', #79, #68, #139, .T. ) ;
#68 = VERTEX_POINT ( 'NONE', #134 ) ;
#69 = ORIENTED_EDGE ( 'NONE', *, *, #74, .F. ) ;
#70 = MANIFOLD_SOLID_BREP ( 'NONE', #258 ) ;
#71 = EDGE_LOOP ( 'NONE', ( #81, #82, #80, #78 ) ) ;
#72 = ORIENTED_EDGE ( 'NONE', *, *, #67, .T. ) ;
#73 = ADVANCED_FACE ( 'NONE', ( #133 ), #166, .T. ) ;
#74 = EDGE_CURVE ( 'NONE', #56, #245, #162, .T. ) ;
#75 = ORIENTED_EDGE ( 'NONE', *, *, #77, .F. ) ;
#76 = EDGE_CURVE ( 'NONE', #240, #79, #115, .T. ) ;
#77 = EDGE_CURVE ( 'NONE', #251, #68, #148, .T. ) ;
#78 = ORIENTED_EDGE ( 'NONE', *, *, #93, .F. ) ;
#79 = VERTEX_POINT ( 'NONE', #144 ) ;
#80 = ORIENTED_EDGE ( 'NONE', *, *, #244, .F. ) ;
#81 = ORIENTED_EDGE ( 'NONE', *, *, #58, .T. ) ;
#82 = ORIENTED_EDGE ( 'NONE', *, *, #74, .T. ) ;
#83 = FACE_OUTER_BOUND ( 'NONE', #50, .T. ) ;
#84 = DIRECTION ( 'NONE',  ( 0.7071067811865491300, 0.0000000000000000000, 0.7071067811865459100 ) ) ;
#85 = DIRECTION ( 'NONE',  ( -0.0000000000000000000, -0.0000000000000000000, 1.000000000000000000 ) ) ;
#86 = CARTESIAN_POINT ( 'NONE',  ( 0.0000000000000000000, 0.0000000000000000000, -3.256934338464609700E-017 ) ) ;
#87 = AXIS2_PLACEMENT_3D ( 'NONE', #86, #85, #152 ) ;
#88 = PERSON_AND_ORGANIZATION ( #26, #2 ) ;
#89 = CC_DESIGN_PERSON_AND_ORGANIZATION_ASSIGNMENT ( #91, #90, ( #48 ) ) ;
#90 = PERSON_AND_ORGANIZATION_ROLE ( 'design_supplier' ) ;
#91 = PERSON_AND_ORGANIZATION ( #26, #2 ) ;
#92 = CARTESIAN_POINT ( 'NONE',  ( 42.46300000000001500, 0.0000000000000000000, -58.51715936507187600 ) ) ;
#93 = EDGE_CURVE ( 'NONE', #51, #236, #143, .T. ) ;
#94 = CONICAL_SURFACE ( 'NONE', #95, 40.98015936507219700, 0.7853981633974568300 ) ;
#95 = AXIS2_PLACEMENT_3D ( 'NONE', #149, #111, #150 ) ;
#96 = VECTOR ( 'NONE', #84, 1000.000000000000000 ) ;
#97 = LINE ( 'NONE', #98, #96 ) ;
#98 = CARTESIAN_POINT ( 'NONE',  ( 42.46300000000001500, 0.0000000000000000000, -58.51715936507187600 ) ) ;
#99 = CARTESIAN_POINT ( 'NONE',  ( 0.0000000000000000000, 0.0000000000000000000, -4.336808689942017700E-016 ) ) ;
#100 = CIRCLE ( 'NONE', #169, 40.98015936507187000 ) ;
#101 = CARTESIAN_POINT ( 'NONE',  ( 40.98015936507187000, 0.0000000000000000000, -60.00000000000001400 ) ) ;
#102 = DIRECTION ( 'NONE',  ( 0.0000000000000000000, 1.000000000000000000, 1.715424945341712700E-016 ) ) ;
#103 = DIRECTION ( 'NONE',  ( -0.0000000000000000000, 1.476315478033659900E-016, -1.000000000000000000 ) ) ;
#104 = CARTESIAN_POINT ( 'NONE',  ( 0.0000000000000000000, 5.388445916248367000E-015, -60.00000000000014900 ) ) ;
#105 = AXIS2_PLACEMENT_3D ( 'NONE', #104, #103, #102 ) ;
#106 = FACE_OUTER_BOUND ( 'NONE', #282, .T. ) ;
#107 = FACE_BOUND ( 'NONE', #284, .T. ) ;
#108 = CYLINDRICAL_SURFACE ( 'NONE', #105, 40.45000000000000300 ) ;
#109 = FACE_OUTER_BOUND ( 'NONE', #224, .T. ) ;
#110 = VECTOR ( 'NONE', #141, 1000.000000000000000 ) ;
#111 = DIRECTION ( 'NONE',  ( 0.0000000000000000000, 0.0000000000000000000, -1.000000000000000000 ) ) ;
#112 = DIRECTION ( 'NONE',  ( -0.0000000000000000000, 1.476315478033659900E-016, -1.000000000000000000 ) ) ;
#113 = VECTOR ( 'NONE', #112, 1000.000000000000000 ) ;
#114 = CARTESIAN_POINT ( 'NONE',  ( 4.953532701211515400E-015, -40.44999999999999600, -60.00000000000015600 ) ) ;
#115 = LINE ( 'NONE', #114, #113 ) ;
#116 = DIRECTION ( 'NONE',  ( -0.0000000000000000000, -0.0000000000000000000, 1.000000000000000000 ) ) ;
#117 = AXIS2_PLACEMENT_3D ( 'NONE', #123, #122, #121 ) ;
#118 = CIRCLE ( 'NONE', #117, 42.46300000000001500 ) ;
#119 = CONICAL_SURFACE ( 'NONE', #132, 42.46300000000001500, 0.7853981633974506100 ) ;
#120 = DIRECTION ( 'NONE',  ( 1.000000000000000000, 0.0000000000000000000, 0.0000000000000000000 ) ) ;
#121 = DIRECTION ( 'NONE',  ( 1.000000000000000000, 0.0000000000000000000, 0.0000000000000000000 ) ) ;
#122 = DIRECTION ( 'NONE',  ( -0.0000000000000000000, -0.0000000000000000000, 1.000000000000000000 ) ) ;
#123 = CARTESIAN_POINT ( 'NONE',  ( 0.0000000000000000000, 0.0000000000000000000, -58.51715936507187600 ) ) ;
#124 = DIRECTION ( 'NONE',  ( -0.7071067811865491300, 8.659274570719375100E-017, 0.7071067811865459100 ) ) ;
#125 = VECTOR ( 'NONE', #124, 1000.000000000000000 ) ;
#126 = CARTESIAN_POINT ( 'NONE',  ( -42.46300000000001500, 5.200045960235962200E-015, -58.51715936507187600 ) ) ;
#127 = LINE ( 'NONE', #126, #125 ) ;
#128 = CARTESIAN_POINT ( 'NONE',  ( -40.98015936507187000, 5.109251157074011300E-015, -60.00000000000001400 ) ) ;
#129 = DIRECTION ( 'NONE',  ( 1.000000000000000000, 0.0000000000000000000, 0.0000000000000000000 ) ) ;
#130 = DIRECTION ( 'NONE',  ( -0.0000000000000000000, -0.0000000000000000000, 1.000000000000000000 ) ) ;
#131 = CARTESIAN_POINT ( 'NONE',  ( 0.0000000000000000000, 0.0000000000000000000, -58.51715936507187600 ) ) ;
#132 = AXIS2_PLACEMENT_3D ( 'NONE', #131, #130, #129 ) ;
#133 = FACE_OUTER_BOUND ( 'NONE', #71, .T. ) ;
#134 = CARTESIAN_POINT ( 'NONE',  ( 0.0000000000000000000, 40.45000000000001700, -59.99999999999999300 ) ) ;
#135 = DIRECTION ( 'NONE',  ( 0.0000000000000000000, 1.000000000000000000, 1.715424945341712400E-016 ) ) ;
#136 = DIRECTION ( 'NONE',  ( -0.0000000000000000000, 1.476315478033659900E-016, -1.000000000000000000 ) ) ;
#137 = CARTESIAN_POINT ( 'NONE',  ( 0.0000000000000000000, 5.388445916248344200E-015, -60.00000000000000000 ) ) ;
#138 = AXIS2_PLACEMENT_3D ( 'NONE', #137, #136, #135 ) ;
#139 = CIRCLE ( 'NONE', #138, 40.45000000000001000 ) ;
#140 = FACE_OUTER_BOUND ( 'NONE', #66, .T. ) ;
#141 = DIRECTION ( 'NONE',  ( -0.0000000000000000000, -0.0000000000000000000, 1.000000000000000000 ) ) ;
#142 = CARTESIAN_POINT ( 'NONE',  ( 42.46300000000000100, 0.0000000000000000000, -4.336808689942017700E-016 ) ) ;
#143 = LINE ( 'NONE', #142, #110 ) ;
#144 = CARTESIAN_POINT ( 'NONE',  ( 4.953532701211515400E-015, -40.45000000000000300, -60.00000000000000700 ) ) ;
#145 = DIRECTION ( 'NONE',  ( -0.0000000000000000000, 1.476315478033659900E-016, -1.000000000000000000 ) ) ;
#146 = VECTOR ( 'NONE', #145, 1000.000000000000000 ) ;
#147 = CARTESIAN_POINT ( 'NONE',  ( 0.0000000000000000000, 40.45000000000001000, -60.00000000000014200 ) ) ;
#148 = LINE ( 'NONE', #147, #146 ) ;
#149 = CARTESIAN_POINT ( 'NONE',  ( 0.0000000000000000000, 0.0000000000000000000, -3.256934338464609700E-017 ) ) ;
#150 = DIRECTION ( 'NONE',  ( -1.000000000000000000, 0.0000000000000000000, 0.0000000000000000000 ) ) ;
#151 = CARTESIAN_POINT ( 'NONE',  ( -42.46300000000000800, 5.200045960235961400E-015, -58.51715936507187600 ) ) ;
#152 = DIRECTION ( 'NONE',  ( 1.000000000000000000, 0.0000000000000000000, 0.0000000000000000000 ) ) ;
#153 = CIRCLE ( 'NONE', #87, 40.98015936507219700 ) ;
#154 = SECURITY_CLASSIFICATION ( '', '', #292 ) ;
#155 = DIRECTION ( 'NONE',  ( -1.000000000000000000, 0.0000000000000000000, -0.0000000000000000000 ) ) ;
#156 = DIRECTION ( 'NONE',  ( 0.0000000000000000000, 0.0000000000000000000, -1.000000000000000000 ) ) ;
#157 = CARTESIAN_POINT ( 'NONE',  ( 0.0000000000000000000, 42.46300000000000100, -2.168404344971008900E-016 ) ) ;
#158 = AXIS2_PLACEMENT_3D ( 'NONE', #157, #156, #155 ) ;
#159 = PLANE ( 'NONE',  #158 ) ;
#160 = VECTOR ( 'NONE', #116, 1000.000000000000000 ) ;
#161 = CARTESIAN_POINT ( 'NONE',  ( -42.46300000000000100, 5.200045960235960600E-015, -4.336808689942017700E-016 ) ) ;
#162 = LINE ( 'NONE', #161, #160 ) ;
#163 = DIRECTION ( 'NONE',  ( 1.000000000000000000, 0.0000000000000000000, 0.0000000000000000000 ) ) ;
#164 = DIRECTION ( 'NONE',  ( -0.0000000000000000000, -0.0000000000000000000, 1.000000000000000000 ) ) ;
#165 = AXIS2_PLACEMENT_3D ( 'NONE', #99, #164, #163 ) ;
#166 = CYLINDRICAL_SURFACE ( 'NONE', #165, 42.46300000000000100 ) ;
#167 = DIRECTION ( 'NONE',  ( -0.0000000000000000000, -0.0000000000000000000, 1.000000000000000000 ) ) ;
#168 = CARTESIAN_POINT ( 'NONE',  ( 0.0000000000000000000, 0.0000000000000000000, -60.00000000000001400 ) ) ;
#169 = AXIS2_PLACEMENT_3D ( 'NONE', #168, #167, #120 ) ;
#170 = CC_DESIGN_PERSON_AND_ORGANIZATION_ASSIGNMENT ( #88, #171, ( #154 ) ) ;
#171 = PERSON_AND_ORGANIZATION_ROLE ( 'classification_officer' ) ;
#172 = DIRECTION ( 'NONE',  ( 1.000000000000000000, 0.0000000000000000000, 0.0000000000000000000 ) ) ;
#173 = DIRECTION ( 'NONE',  ( -0.0000000000000000000, -0.0000000000000000000, 1.000000000000000000 ) ) ;
#174 = CARTESIAN_POINT ( 'NONE',  ( 0.0000000000000000000, 0.0000000000000000000, -4.336808689942017700E-016 ) ) ;
#175 = AXIS2_PLACEMENT_3D ( 'NONE', #174, #173, #172 ) ;
#176 = CYLINDRICAL_SURFACE ( 'NONE', #175, 42.46300000000000100 ) ;
#177 = FACE_OUTER_BOUND ( 'NONE', #250, .T. ) ;
#178 = DIRECTION ( 'NONE',  ( -0.7071067811865536800, 0.0000000000000000000, -0.7071067811865414700 ) ) ;
#179 = VECTOR ( 'NONE', #178, 999.9999999999998900 ) ;
#180 = CARTESIAN_POINT ( 'NONE',  ( -40.98015936507219700, 0.0000000000000000000, -3.256934338464609700E-017 ) ) ;
#181 = LINE ( 'NONE', #180, #179 ) ;
#182 = CARTESIAN_POINT ( 'NONE',  ( -42.46300000000000100, 5.200045960235960600E-015, -1.482840634927778700 ) ) ;
#183 = DIRECTION ( 'NONE',  ( 1.000000000000000000, 0.0000000000000000000, 0.0000000000000000000 ) ) ;
#184 = DIRECTION ( 'NONE',  ( -0.0000000000000000000, -0.0000000000000000000, 1.000000000000000000 ) ) ;
#185 = CARTESIAN_POINT ( 'NONE',  ( 0.0000000000000000000, 0.0000000000000000000, -1.482840634927778700 ) ) ;
#186 = AXIS2_PLACEMENT_3D ( 'NONE', #185, #184, #183 ) ;
#187 = CIRCLE ( 'NONE', #186, 42.46300000000000100 ) ;
#188 = DIRECTION ( 'NONE',  ( 0.0000000000000000000, 1.000000000000000000, 1.715424945341712700E-016 ) ) ;
#189 = DIRECTION ( 'NONE',  ( -0.0000000000000000000, 1.476315478033659900E-016, -1.000000000000000000 ) ) ;
#190 = CARTESIAN_POINT ( 'NONE',  ( 0.0000000000000000000, 5.388445916248367000E-015, -60.00000000000014900 ) ) ;
#191 = AXIS2_PLACEMENT_3D ( 'NONE', #190, #189, #188 ) ;
#192 = CYLINDRICAL_SURFACE ( 'NONE', #191, 40.45000000000000300 ) ;
#193 = FACE_OUTER_BOUND ( 'NONE', #242, .T. ) ;
#194 = DIRECTION ( 'NONE',  ( 0.7071067811865536800, 8.659274570719430600E-017, -0.7071067811865414700 ) ) ;
#195 = VECTOR ( 'NONE', #194, 999.9999999999998900 ) ;
#196 = CARTESIAN_POINT ( 'NONE',  ( 40.98015936507219700, 5.018456353912101400E-015, -3.256934338464609700E-017 ) ) ;
#197 = LINE ( 'NONE', #196, #195 ) ;
#198 = DIRECTION ( 'NONE',  ( 0.0000000000000000000, 1.000000000000000000, 1.476315478033659600E-016 ) ) ;
#199 = DIRECTION ( 'NONE',  ( -0.0000000000000000000, 1.476315478033659900E-016, -1.000000000000000000 ) ) ;
#200 = CARTESIAN_POINT ( 'NONE',  ( 0.0000000000000000000, -3.469446951953614200E-015, -6.938893903907228400E-015 ) ) ;
#201 = CIRCLE ( 'NONE', #217, 40.45000000000000300 ) ;
#202 = DIRECTION ( 'NONE',  ( -0.0000000000000000000, -0.0000000000000000000, 1.000000000000000000 ) ) ;
#203 = CARTESIAN_POINT ( 'NONE',  ( 0.0000000000000000000, 0.0000000000000000000, -60.00000000000001400 ) ) ;
#204 = AXIS2_PLACEMENT_3D ( 'NONE', #203, #202, #219 ) ;
#205 = CIRCLE ( 'NONE', #204, 40.98015936507187000 ) ;
#206 = CARTESIAN_POINT ( 'NONE',  ( 4.953532701211515400E-015, -40.45000000000000300, -1.291059001255338200E-014 ) ) ;
#207 = DIRECTION ( 'NONE',  ( 0.0000000000000000000, 1.000000000000000000, 1.476315478033659600E-016 ) ) ;
#208 = DIRECTION ( 'NONE',  ( -0.0000000000000000000, 1.476315478033659900E-016, -1.000000000000000000 ) ) ;
#209 = CARTESIAN_POINT ( 'NONE',  ( 0.0000000000000000000, -3.469446951953614200E-015, -6.938893903907228400E-015 ) ) ;
#210 = AXIS2_PLACEMENT_3D ( 'NONE', #209, #208, #207 ) ;
#211 = CIRCLE ( 'NONE', #210, 40.45000000000000300 ) ;
#212 = CARTESIAN_POINT ( 'NONE',  ( 42.46300000000000100, 0.0000000000000000000, -1.482840634927778700 ) ) ;
#213 = DIRECTION ( 'NONE',  ( 1.000000000000000000, 0.0000000000000000000, 0.0000000000000000000 ) ) ;
#214 = DIRECTION ( 'NONE',  ( -0.0000000000000000000, -0.0000000000000000000, 1.000000000000000000 ) ) ;
#215 = CARTESIAN_POINT ( 'NONE',  ( 0.0000000000000000000, 0.0000000000000000000, -3.256934338464609700E-017 ) ) ;
#216 = AXIS2_PLACEMENT_3D ( 'NONE', #215, #214, #213 ) ;
#217 = AXIS2_PLACEMENT_3D ( 'NONE', #200, #199, #198 ) ;
#218 = CIRCLE ( 'NONE', #216, 40.98015936507219700 ) ;
#219 = DIRECTION ( 'NONE',  ( 1.000000000000000000, 0.0000000000000000000, 0.0000000000000000000 ) ) ;
#220 = ORIENTED_EDGE ( 'NONE', *, *, #60, .F. ) ;
#221 = ADVANCED_FACE ( 'NONE', ( #109 ), #108, .F. ) ;
#222 = ORIENTED_EDGE ( 'NONE', *, *, #229, .F. ) ;
#223 = ORIENTED_EDGE ( 'NONE', *, *, #235, .T. ) ;
#224 = EDGE_LOOP ( 'NONE', ( #281, #222, #279, #277 ) ) ;
#225 = ADVANCED_FACE ( 'NONE', ( #107, #106 ), #159, .F. ) ;
#226 = ORIENTED_EDGE ( 'NONE', *, *, #231, .F. ) ;
#227 = EDGE_CURVE ( 'NONE', #253, #254, #153, .T. ) ;
#228 = ORIENTED_EDGE ( 'NONE', *, *, #227, .T. ) ;
#229 = EDGE_CURVE ( 'NONE', #251, #240, #201, .T. ) ;
#230 = ORIENTED_EDGE ( 'NONE', *, *, #239, .T. ) ;
#231 = EDGE_CURVE ( 'NONE', #62, #61, #205, .T. ) ;
#232 = CC_DESIGN_PERSON_AND_ORGANIZATION_ASSIGNMENT ( #234, #233, ( #48 ) ) ;
#233 = PERSON_AND_ORGANIZATION_ROLE ( 'creator' ) ;
#234 = PERSON_AND_ORGANIZATION ( #26, #2 ) ;
#235 = EDGE_CURVE ( 'NONE', #254, #253, #218, .T. ) ;
#236 = VERTEX_POINT ( 'NONE', #212 ) ;
#237 = ORIENTED_EDGE ( 'NONE', *, *, #244, .T. ) ;
#238 = ORIENTED_EDGE ( 'NONE', *, *, #239, .F. ) ;
#239 = EDGE_CURVE ( 'NONE', #240, #251, #211, .T. ) ;
#240 = VERTEX_POINT ( 'NONE', #206 ) ;
#241 = EDGE_CURVE ( 'NONE', #254, #236, #197, .T. ) ;
#242 = EDGE_LOOP ( 'NONE', ( #238, #249, #72, #75 ) ) ;
#243 = ADVANCED_FACE ( 'NONE', ( #193 ), #192, .F. ) ;
#244 = EDGE_CURVE ( 'NONE', #236, #245, #187, .T. ) ;
#245 = VERTEX_POINT ( 'NONE', #182 ) ;
#246 = ORIENTED_EDGE ( 'NONE', *, *, #247, .F. ) ;
#247 = EDGE_CURVE ( 'NONE', #253, #245, #181, .T. ) ;
#248 = ADVANCED_FACE ( 'NONE', ( #177 ), #176, .T. ) ;
#249 = ORIENTED_EDGE ( 'NONE', *, *, #76, .T. ) ;
#250 = EDGE_LOOP ( 'NONE', ( #69, #270, #260, #262 ) ) ;
#251 = VERTEX_POINT ( 'NONE', #318 ) ;
#252 = ORIENTED_EDGE ( 'NONE', *, *, #241, .T. ) ;
#253 = VERTEX_POINT ( 'NONE', #293 ) ;
#254 = VERTEX_POINT ( 'NONE', #320 ) ;
#255 = ORIENTED_EDGE ( 'NONE', *, *, #231, .T. ) ;
#256 = ORIENTED_EDGE ( 'NONE', *, *, #264, .F. ) ;
#257 = ORIENTED_EDGE ( 'NONE', *, *, #52, .T. ) ;
#258 = CLOSED_SHELL ( 'NONE', ( #65, #54, #243, #73, #248, #265, #225, #221, #278, #272 ) ) ;
#259 = ORIENTED_EDGE ( 'NONE', *, *, #64, .F. ) ;
#260 = ORIENTED_EDGE ( 'NONE', *, *, #93, .T. ) ;
#261 = ORIENTED_EDGE ( 'NONE', *, *, #266, .F. ) ;
#262 = ORIENTED_EDGE ( 'NONE', *, *, #269, .F. ) ;
#263 = EDGE_LOOP ( 'NONE', ( #261, #267 ) ) ;
#264 = EDGE_CURVE ( 'NONE', #56, #51, #309, .T. ) ;
#265 = ADVANCED_FACE ( 'NONE', ( #326, #328 ), #319, .F. ) ;
#266 = EDGE_CURVE ( 'NONE', #68, #79, #287, .T. ) ;
#267 = ORIENTED_EDGE ( 'NONE', *, *, #67, .F. ) ;
#268 = EDGE_LOOP ( 'NONE', ( #220, #226 ) ) ;
#269 = EDGE_CURVE ( 'NONE', #245, #236, #314, .T. ) ;
#270 = ORIENTED_EDGE ( 'NONE', *, *, #264, .T. ) ;
#271 = EDGE_LOOP ( 'NONE', ( #259, #255, #257, #256 ) ) ;
#272 = ADVANCED_FACE ( 'NONE', ( #317 ), #316, .T. ) ;
#273 = ORIENTED_EDGE ( 'NONE', *, *, #269, .T. ) ;
#274 = ORIENTED_EDGE ( 'NONE', *, *, #227, .F. ) ;
#275 = ORIENTED_EDGE ( 'NONE', *, *, #247, .T. ) ;
#276 = ORIENTED_EDGE ( 'NONE', *, *, #241, .F. ) ;
#277 = ORIENTED_EDGE ( 'NONE', *, *, #266, .T. ) ;
#278 = ADVANCED_FACE ( 'NONE', ( #315 ), #295, .T. ) ;
#279 = ORIENTED_EDGE ( 'NONE', *, *, #77, .T. ) ;
#280 = EDGE_LOOP ( 'NONE', ( #276, #274, #275, #273 ) ) ;
#281 = ORIENTED_EDGE ( 'NONE', *, *, #76, .F. ) ;
#282 = EDGE_LOOP ( 'NONE', ( #228, #223 ) ) ;
#283 = ORIENTED_EDGE ( 'NONE', *, *, #229, .T. ) ;
#284 = EDGE_LOOP ( 'NONE', ( #283, #230 ) ) ;
#285 =( NAMED_UNIT ( * ) SI_UNIT ( $, .STERADIAN. ) SOLID_ANGLE_UNIT ( ) );
#286 =( NAMED_UNIT ( * ) PLANE_ANGLE_UNIT ( ) SI_UNIT ( $, .RADIAN. ) );
#287 = CIRCLE ( 'NONE', #308, 40.45000000000001000 ) ;
#288 =( LENGTH_UNIT ( ) NAMED_UNIT ( * ) SI_UNIT ( .MILLI., .METRE. ) );
#289 = DIRECTION ( 'NONE',  ( -1.000000000000000000, 0.0000000000000000000, 0.0000000000000000000 ) ) ;
#290 = DIRECTION ( 'NONE',  ( 0.0000000000000000000, 0.0000000000000000000, -1.000000000000000000 ) ) ;
#291 = CARTESIAN_POINT ( 'NONE',  ( 0.0000000000000000000, 0.0000000000000000000, -3.256934338464609700E-017 ) ) ;
#292 = SECURITY_CLASSIFICATION_LEVEL ( 'unclassified' ) ;
#293 = CARTESIAN_POINT ( 'NONE',  ( -40.98015936507219700, 0.0000000000000000000, -3.256934338464609700E-017 ) ) ;
#294 = DIRECTION ( 'NONE',  ( 1.000000000000000000, 0.0000000000000000000, 0.0000000000000000000 ) ) ;
#295 = CONICAL_SURFACE ( 'NONE', #296, 40.98015936507219700, 0.7853981633974568300 ) ;
#296 = AXIS2_PLACEMENT_3D ( 'NONE', #291, #290, #289 ) ;
#297 = DIRECTION ( 'NONE',  ( 1.000000000000000000, 0.0000000000000000000, 0.0000000000000000000 ) ) ;
#298 = DIRECTION ( 'NONE',  ( -0.0000000000000000000, -0.0000000000000000000, 1.000000000000000000 ) ) ;
#299 = CARTESIAN_POINT ( 'NONE',  ( 0.0000000000000000000, 0.0000000000000000000, -58.51715936507187600 ) ) ;
#300 = AXIS2_PLACEMENT_3D ( 'NONE', #299, #298, #297 ) ;
#301 = AXIS2_PLACEMENT_3D ( 'NONE', #327, #321, #294 ) ;
#302 = ADVANCED_BREP_SHAPE_REPRESENTATION ( '11-0206-11_outokumpu', ( #70, #7 ), #303 ) ;
#303 =( GEOMETRIC_REPRESENTATION_CONTEXT ( 3 ) GLOBAL_UNCERTAINTY_ASSIGNED_CONTEXT ( ( #304 ) ) GLOBAL_UNIT_ASSIGNED_CONTEXT ( ( #288, #286, #285 ) ) REPRESENTATION_CONTEXT ( 'NONE', 'WORKASPACE' ) );
#304 = UNCERTAINTY_MEASURE_WITH_UNIT (LENGTH_MEASURE( 1.000000000000000100E-005 ), #288, 'distance_accuracy_value', 'NONE');
#305 = DIRECTION ( 'NONE',  ( 0.0000000000000000000, 1.000000000000000000, 1.715424945341712400E-016 ) ) ;
#306 = DIRECTION ( 'NONE',  ( -0.0000000000000000000, 1.476315478033659900E-016, -1.000000000000000000 ) ) ;
#307 = CARTESIAN_POINT ( 'NONE',  ( 0.0000000000000000000, 5.388445916248344200E-015, -60.00000000000000000 ) ) ;
#308 = AXIS2_PLACEMENT_3D ( 'NONE', #307, #306, #305 ) ;
#309 = CIRCLE ( 'NONE', #301, 42.46300000000001500 ) ;
#310 = DIRECTION ( 'NONE',  ( 1.000000000000000000, 0.0000000000000000000, 0.0000000000000000000 ) ) ;
#311 = DIRECTION ( 'NONE',  ( -0.0000000000000000000, -0.0000000000000000000, 1.000000000000000000 ) ) ;
#312 = CARTESIAN_POINT ( 'NONE',  ( 0.0000000000000000000, 0.0000000000000000000, -1.482840634927778700 ) ) ;
#313 = AXIS2_PLACEMENT_3D ( 'NONE', #312, #311, #310 ) ;
#314 = CIRCLE ( 'NONE', #313, 42.46300000000000100 ) ;
#315 = FACE_OUTER_BOUND ( 'NONE', #280, .T. ) ;
#316 = CONICAL_SURFACE ( 'NONE', #300, 42.46300000000001500, 0.7853981633974506100 ) ;
#317 = FACE_OUTER_BOUND ( 'NONE', #271, .T. ) ;
#318 = CARTESIAN_POINT ( 'NONE',  ( 0.0000000000000000000, 40.45000000000000300, -9.671977952610743300E-016 ) ) ;
#319 = PLANE ( 'NONE',  #325 ) ;
#320 = CARTESIAN_POINT ( 'NONE',  ( 40.98015936507219700, 5.109251157074031000E-015, -3.256934338464609700E-017 ) ) ;
#321 = DIRECTION ( 'NONE',  ( -0.0000000000000000000, -0.0000000000000000000, 1.000000000000000000 ) ) ;
#322 = DIRECTION ( 'NONE',  ( 1.000000000000000000, 0.0000000000000000000, 0.0000000000000000000 ) ) ;
#323 = DIRECTION ( 'NONE',  ( 0.0000000000000000000, -0.0000000000000000000, 1.000000000000000000 ) ) ;
#324 = CARTESIAN_POINT ( 'NONE',  ( 0.0000000000000000000, 42.46300000000000100, -60.00000000000000000 ) ) ;
#325 = AXIS2_PLACEMENT_3D ( 'NONE', #324, #323, #322 ) ;
#326 = FACE_BOUND ( 'NONE', #263, .T. ) ;
#327 = CARTESIAN_POINT ( 'NONE',  ( 0.0000000000000000000, 0.0000000000000000000, -58.51715936507187600 ) ) ;
#328 = FACE_OUTER_BOUND ( 'NONE', #268, .T. ) ;
#329 = SHAPE_DEFINITION_REPRESENTATION ( #330, #302 ) ;
#330 = PRODUCT_DEFINITION_SHAPE ( 'NONE', 'NONE',  #4 ) ;
#331 = PRODUCT_RELATED_PRODUCT_CATEGORY ( 'detail', '', ( #27 ) ) ;
#332 = CC_DESIGN_SECURITY_CLASSIFICATION ( #154, ( #48 ) ) ;
#333 = CC_DESIGN_APPROVAL ( #341, ( #154 ) ) ;
#334 = APPROVAL_DATE_TIME ( #335, #341 ) ;
#335 = DATE_AND_TIME ( #336, #337 ) ;
#336 = CALENDAR_DATE ( 2015, 11, 8 ) ;
#337 = LOCAL_TIME ( 11, 47, 45.00000000000000000, #338 ) ;
#338 = COORDINATED_UNIVERSAL_TIME_OFFSET ( 1, 0, .AHEAD. ) ;
#339 = APPROVAL_PERSON_ORGANIZATION ( #343, #341, #340 ) ;
#340 = APPROVAL_ROLE ( '' ) ;
#341 = APPROVAL ( #342, 'UNSPECIFIED' ) ;
#342 = APPROVAL_STATUS ( 'not_yet_approved' ) ;
#343 = PERSON_AND_ORGANIZATION ( #26, #2 ) ;
#344 = CC_DESIGN_DATE_AND_TIME_ASSIGNMENT ( #346, #345, ( #154 ) ) ;
#345 = DATE_TIME_ROLE ( 'classification_date' ) ;
#346 = DATE_AND_TIME ( #347, #348 ) ;
#347 = CALENDAR_DATE ( 2015, 11, 8 ) ;
#348 = LOCAL_TIME ( 11, 47, 45.00000000000000000, #349 ) ;
#349 = COORDINATED_UNIVERSAL_TIME_OFFSET ( 1, 0, .AHEAD. ) ;
ENDSEC;
END-ISO-10303-21;
