ISO-10303-21;
HEADER;
FILE_DESCRIPTION (( 'STEP AP203' ),
    '1' );
FILE_NAME ('3D_R243_69_17386630.STEP',
    '2024-08-06T10:09:50',
    ( '' ),
    ( '' ),
    'SwSTEP 2.0',
    'SolidWorks 2024',
    '' );
FILE_SCHEMA (( 'CONFIG_CONTROL_DESIGN' ));
ENDSEC;

DATA;
#1 = CARTESIAN_POINT ( 'NONE',  ( 0.000000000000000000, 4.000000000000000000, 0.000000000000000000 ) ) ;
#2 = EDGE_CURVE ( 'NONE', #129, #122, #218, .T. ) ;
#3 = DIRECTION ( 'NONE',  ( 0.000000000000000000, 0.000000000000000000, 1.000000000000000000 ) ) ;
#4 = FACE_OUTER_BOUND ( 'NONE', #37, .T. ) ;
#5 = CIRCLE ( 'NONE', #38, 65.25000000000000000 ) ;
#6 = AXIS2_PLACEMENT_3D ( 'NONE', #71, #75, #141 ) ;
#7 = DIRECTION ( 'NONE',  ( 0.000000000000000000, -0.000000000000000000, 1.000000000000000000 ) ) ;
#8 = MECHANICAL_CONTEXT ( 'NONE', #149, 'mechanical' ) ;
#9 = CARTESIAN_POINT ( 'NONE',  ( 0.000000000000000000, 4.000000000000000000, -65.25000000000000000 ) ) ;
#10 = APPROVAL ( #198, 'UNSPECIFIED' ) ;
#11 = VECTOR ( 'NONE', #139, 1000.000000000000000 ) ;
#12 = EDGE_LOOP ( 'NONE', ( #248, #27, #170, #242 ) ) ;
#13 = LINE ( 'NONE', #237, #162 ) ;
#14 = CARTESIAN_POINT ( 'NONE',  ( 0.000000000000000000, 0.000000000000000000, -65.25000000000000000 ) ) ;
#15 = VECTOR ( 'NONE', #102, 1000.000000000000000 ) ;
#16 = CIRCLE ( 'NONE', #208, 35.25000000000000711 ) ;
#17 = CARTESIAN_POINT ( 'NONE',  ( 0.000000000000000000, 0.000000000000000000, 0.000000000000000000 ) ) ;
#18 = VERTEX_POINT ( 'NONE', #58 ) ;
#19 = DIRECTION ( 'NONE',  ( 0.000000000000000000, 1.000000000000000000, 0.000000000000000000 ) ) ;
#20 = EDGE_CURVE ( 'NONE', #122, #129, #106, .T. ) ;
#21 = CYLINDRICAL_SURFACE ( 'NONE', #144, 35.25000000000000711 ) ;
#22 = CARTESIAN_POINT ( 'NONE',  ( 0.000000000000000000, 4.000000000000000000, 0.000000000000000000 ) ) ;
#23 = FACE_OUTER_BOUND ( 'NONE', #189, .T. ) ;
#24 = CC_DESIGN_PERSON_AND_ORGANIZATION_ASSIGNMENT ( #238, #104, ( #97 ) ) ;
#25 = DIRECTION ( 'NONE',  ( 0.000000000000000000, 0.000000000000000000, -1.000000000000000000 ) ) ;
#26 = CIRCLE ( 'NONE', #151, 35.25000000000000711 ) ;
#27 = ORIENTED_EDGE ( 'NONE', *, *, #57, .T. ) ;
#28 = COORDINATED_UNIVERSAL_TIME_OFFSET ( 1, 0, .AHEAD. ) ;
#29 = PERSON_AND_ORGANIZATION ( #64, #146 ) ;
#30 = AXIS2_PLACEMENT_3D ( 'NONE', #179, #134, #182 ) ;
#31 = CALENDAR_DATE ( 2024, 6, 8 ) ;
#32 = CC_DESIGN_PERSON_AND_ORGANIZATION_ASSIGNMENT ( #120, #197, ( #140 ) ) ;
#33 = APPROVAL_ROLE ( '' ) ;
#34 = ORIENTED_EDGE ( 'NONE', *, *, #152, .T. ) ;
#35 = AXIS2_PLACEMENT_3D ( 'NONE', #217, #70, #7 ) ;
#36 = CC_DESIGN_DATE_AND_TIME_ASSIGNMENT ( #165, #228, ( #166 ) ) ;
#37 = EDGE_LOOP ( 'NONE', ( #171, #231 ) ) ;
#38 = AXIS2_PLACEMENT_3D ( 'NONE', #44, #177, #3 ) ;
#39 = LOCAL_TIME ( 12, 9, 50.00000000000000000, #56 ) ;
#40 = ORIENTED_EDGE ( 'NONE', *, *, #20, .T. ) ;
#41 = UNCERTAINTY_MEASURE_WITH_UNIT (LENGTH_MEASURE( 1.000000000000000082E-05 ), #164, 'distance_accuracy_value', 'NONE');
#42 = CARTESIAN_POINT ( 'NONE',  ( 0.000000000000000000, 0.000000000000000000, -35.25000000000000711 ) ) ;
#43 = ADVANCED_FACE ( 'NONE', ( #119 ), #21, .F. ) ;
#44 = CARTESIAN_POINT ( 'NONE',  ( 0.000000000000000000, 4.000000000000000000, 0.000000000000000000 ) ) ;
#45 = CLOSED_SHELL ( 'NONE', ( #43, #103, #138, #128, #82, #111 ) ) ;
#46 = DIRECTION ( 'NONE',  ( 0.000000000000000000, 1.000000000000000000, 0.000000000000000000 ) ) ;
#47 = DIRECTION ( 'NONE',  ( 0.000000000000000000, 0.000000000000000000, 1.000000000000000000 ) ) ;
#48 = CARTESIAN_POINT ( 'NONE',  ( 4.316879966994421072E-15, 4.000000000000000000, 35.25000000000000711 ) ) ;
#49 = LOCAL_TIME ( 12, 9, 50.00000000000000000, #79 ) ;
#50 = APPROVAL_DATE_TIME ( #205, #108 ) ;
#51 = VERTEX_POINT ( 'NONE', #48 ) ;
#52 = EDGE_CURVE ( 'NONE', #188, #18, #5, .T. ) ;
#53 = APPROVAL_STATUS ( 'not_yet_approved' ) ;
#54 = PERSON_AND_ORGANIZATION ( #64, #146 ) ;
#55 = LOCAL_TIME ( 12, 9, 50.00000000000000000, #28 ) ;
#56 = COORDINATED_UNIVERSAL_TIME_OFFSET ( 1, 0, .AHEAD. ) ;
#57 = EDGE_CURVE ( 'NONE', #18, #83, #118, .T. ) ;
#58 = CARTESIAN_POINT ( 'NONE',  ( 7.990820364436481039E-15, 4.000000000000000000, 65.25000000000000000 ) ) ;
#59 = CC_DESIGN_DATE_AND_TIME_ASSIGNMENT ( #91, #161, ( #140 ) ) ;
#60 = ORIENTED_EDGE ( 'NONE', *, *, #147, .F. ) ;
#61 = AXIS2_PLACEMENT_3D ( 'NONE', #249, #136, #25 ) ;
#62 = DIRECTION ( 'NONE',  ( 0.000000000000000000, 1.000000000000000000, 0.000000000000000000 ) ) ;
#63 = EDGE_CURVE ( 'NONE', #51, #129, #87, .T. ) ;
#64 = PERSON ( 'UNSPECIFIED', 'UNSPECIFIED', 'UNSPECIFIED', ('UNSPECIFIED'), ('UNSPECIFIED'), ('UNSPECIFIED') ) ;
#65 = DIRECTION ( 'NONE',  ( 0.000000000000000000, 0.000000000000000000, 1.000000000000000000 ) ) ;
#66 = CARTESIAN_POINT ( 'NONE',  ( 0.000000000000000000, 0.000000000000000000, 0.000000000000000000 ) ) ;
#67 = EDGE_CURVE ( 'NONE', #18, #188, #76, .T. ) ;
#68 = PRODUCT_DEFINITION_FORMATION_WITH_SPECIFIED_SOURCE ( 'ANY', '', #97, .NOT_KNOWN. ) ;
#69 = CARTESIAN_POINT ( 'NONE',  ( 0.000000000000000000, 0.000000000000000000, 0.000000000000000000 ) ) ;
#70 = DIRECTION ( 'NONE',  ( 0.000000000000000000, 1.000000000000000000, 0.000000000000000000 ) ) ;
#71 = CARTESIAN_POINT ( 'NONE',  ( 0.000000000000000000, 0.000000000000000000, 0.000000000000000000 ) ) ;
#72 = CARTESIAN_POINT ( 'NONE',  ( 0.000000000000000000, 4.000000000000000000, -65.25000000000000000 ) ) ;
#73 = CC_DESIGN_SECURITY_CLASSIFICATION ( #166, ( #68 ) ) ;
#74 = DATE_AND_TIME ( #31, #55 ) ;
#75 = DIRECTION ( 'NONE',  ( 0.000000000000000000, 0.000000000000000000, 1.000000000000000000 ) ) ;
#76 = CIRCLE ( 'NONE', #211, 65.25000000000000000 ) ;
#77 = CC_DESIGN_APPROVAL ( #216, ( #166 ) ) ;
#78 = DIRECTION ( 'NONE',  ( 0.000000000000000000, 1.000000000000000000, 0.000000000000000000 ) ) ;
#79 = COORDINATED_UNIVERSAL_TIME_OFFSET ( 1, 0, .AHEAD. ) ;
#80 = ORIENTED_EDGE ( 'NONE', *, *, #63, .T. ) ;
#81 = APPLICATION_CONTEXT ( 'configuration controlled 3d designs of mechanical parts and assemblies' ) ;
#82 = ADVANCED_FACE ( 'NONE', ( #23 ), #157, .T. ) ;
#83 = VERTEX_POINT ( 'NONE', #158 ) ;
#84 = CC_DESIGN_APPROVAL ( #108, ( #140 ) ) ;
#85 = CARTESIAN_POINT ( 'NONE',  ( 0.000000000000000000, 4.000000000000000000, 0.000000000000000000 ) ) ;
#86 = DIRECTION ( 'NONE',  ( 0.000000000000000000, 1.000000000000000000, 0.000000000000000000 ) ) ;
#87 = LINE ( 'NONE', #90, #180 ) ;
#88 = APPROVAL_PERSON_ORGANIZATION ( #94, #108, #225 ) ;
#89 = FACE_OUTER_BOUND ( 'NONE', #12, .T. ) ;
#90 = CARTESIAN_POINT ( 'NONE',  ( 4.316879966994421072E-15, 4.000000000000000000, 35.25000000000000711 ) ) ;
#91 = DATE_AND_TIME ( #200, #39 ) ;
#92 = ORIENTED_EDGE ( 'NONE', *, *, #152, .F. ) ;
#93 = PERSON_AND_ORGANIZATION_ROLE ( 'design_supplier' ) ;
#94 = PERSON_AND_ORGANIZATION ( #64, #146 ) ;
#95 = EDGE_CURVE ( 'NONE', #83, #240, #244, .T. ) ;
#96 = DIRECTION ( 'NONE',  ( 0.000000000000000000, 0.000000000000000000, 1.000000000000000000 ) ) ;
#97 = PRODUCT ( '3D_R243_69_17386630', '3D_R243_69_17386630', '', ( #8 ) ) ;
#98 = FACE_BOUND ( 'NONE', #245, .T. ) ;
#99 = DIRECTION ( 'NONE',  ( -0.000000000000000000, -1.000000000000000000, -0.000000000000000000 ) ) ;
#100 = DIRECTION ( 'NONE',  ( 0.000000000000000000, 1.000000000000000000, 0.000000000000000000 ) ) ;
#101 = CIRCLE ( 'NONE', #113, 65.25000000000000000 ) ;
#102 = DIRECTION ( 'NONE',  ( -0.000000000000000000, -1.000000000000000000, -0.000000000000000000 ) ) ;
#103 = ADVANCED_FACE ( 'NONE', ( #89 ), #116, .T. ) ;
#104 = PERSON_AND_ORGANIZATION_ROLE ( 'design_owner' ) ;
#105 = ORIENTED_EDGE ( 'NONE', *, *, #178, .F. ) ;
#106 = CIRCLE ( 'NONE', #135, 35.25000000000000711 ) ;
#107 = APPROVAL_DATE_TIME ( #74, #10 ) ;
#108 = APPROVAL ( #53, 'UNSPECIFIED' ) ;
#109 = COORDINATED_UNIVERSAL_TIME_OFFSET ( 1, 0, .AHEAD. ) ;
#110 = LINE ( 'NONE', #9, #11 ) ;
#111 = ADVANCED_FACE ( 'NONE', ( #193 ), #190, .F. ) ;
#112 = AXIS2_PLACEMENT_3D ( 'NONE', #17, #78, #148 ) ;
#113 = AXIS2_PLACEMENT_3D ( 'NONE', #66, #46, #117 ) ;
#114 = CARTESIAN_POINT ( 'NONE',  ( 0.000000000000000000, 4.000000000000000000, 0.000000000000000000 ) ) ;
#115 = DESIGN_CONTEXT ( 'detailed design', #81, 'design' ) ;
#116 = CYLINDRICAL_SURFACE ( 'NONE', #61, 65.25000000000000000 ) ;
#117 = DIRECTION ( 'NONE',  ( 0.000000000000000000, 0.000000000000000000, 1.000000000000000000 ) ) ;
#118 = LINE ( 'NONE', #220, #15 ) ;
#119 = FACE_OUTER_BOUND ( 'NONE', #163, .T. ) ;
#120 = PERSON_AND_ORGANIZATION ( #64, #146 ) ;
#121 = CALENDAR_DATE ( 2024, 6, 8 ) ;
#122 = VERTEX_POINT ( 'NONE', #42 ) ;
#123 = PRODUCT_RELATED_PRODUCT_CATEGORY ( 'detail', '', ( #97 ) ) ;
#124 = SECURITY_CLASSIFICATION_LEVEL ( 'unclassified' ) ;
#125 = CC_DESIGN_APPROVAL ( #10, ( #68 ) ) ;
#126 = PERSON_AND_ORGANIZATION ( #64, #146 ) ;
#127 = ORIENTED_EDGE ( 'NONE', *, *, #52, .F. ) ;
#128 = ADVANCED_FACE ( 'NONE', ( #4, #98 ), #219, .F. ) ;
#129 = VERTEX_POINT ( 'NONE', #236 ) ;
#130 = PERSON_AND_ORGANIZATION ( #64, #146 ) ;
#131 = AXIS2_PLACEMENT_3D ( 'NONE', #69, #100, #195 ) ;
#132 = PLANE ( 'NONE',  #222 ) ;
#133 = CARTESIAN_POINT ( 'NONE',  ( 0.000000000000000000, 4.000000000000000000, 0.000000000000000000 ) ) ;
#134 = DIRECTION ( 'NONE',  ( -0.000000000000000000, -1.000000000000000000, -0.000000000000000000 ) ) ;
#135 = AXIS2_PLACEMENT_3D ( 'NONE', #137, #62, #96 ) ;
#136 = DIRECTION ( 'NONE',  ( -0.000000000000000000, -1.000000000000000000, -0.000000000000000000 ) ) ;
#137 = CARTESIAN_POINT ( 'NONE',  ( 0.000000000000000000, 0.000000000000000000, 0.000000000000000000 ) ) ;
#138 = ADVANCED_FACE ( 'NONE', ( #159, #214 ), #132, .T. ) ;
#139 = DIRECTION ( 'NONE',  ( -0.000000000000000000, -1.000000000000000000, -0.000000000000000000 ) ) ;
#140 = PRODUCT_DEFINITION ( 'UNKNOWN', '', #68, #115 ) ;
#141 = DIRECTION ( 'NONE',  ( 1.000000000000000000, 0.000000000000000000, 0.000000000000000000 ) ) ;
#142 = PERSON_AND_ORGANIZATION_ROLE ( 'creator' ) ;
#143 = ORIENTED_EDGE ( 'NONE', *, *, #57, .F. ) ;
#144 = AXIS2_PLACEMENT_3D ( 'NONE', #22, #99, #155 ) ;
#145 = APPLICATION_PROTOCOL_DEFINITION ( 'international standard', 'config_control_design', 1994, #81 ) ;
#146 = ORGANIZATION ( 'UNSPECIFIED', 'UNSPECIFIED', '' ) ;
#147 = EDGE_CURVE ( 'NONE', #153, #51, #26, .T. ) ;
#148 = DIRECTION ( 'NONE',  ( 0.000000000000000000, 0.000000000000000000, 1.000000000000000000 ) ) ;
#149 = APPLICATION_CONTEXT ( 'configuration controlled 3d designs of mechanical parts and assemblies' ) ;
#150 = EDGE_LOOP ( 'NONE', ( #60, #92 ) ) ;
#151 = AXIS2_PLACEMENT_3D ( 'NONE', #114, #19, #65 ) ;
#152 = EDGE_CURVE ( 'NONE', #51, #153, #16, .T. ) ;
#153 = VERTEX_POINT ( 'NONE', #234 ) ;
#154 = ORIENTED_EDGE ( 'NONE', *, *, #147, .T. ) ;
#155 = DIRECTION ( 'NONE',  ( 0.000000000000000000, 0.000000000000000000, -1.000000000000000000 ) ) ;
#156 = DIRECTION ( 'NONE',  ( 0.000000000000000000, 0.000000000000000000, 1.000000000000000000 ) ) ;
#157 = CYLINDRICAL_SURFACE ( 'NONE', #230, 65.25000000000000000 ) ;
#158 = CARTESIAN_POINT ( 'NONE',  ( 7.990820364436481039E-15, 0.000000000000000000, 65.25000000000000000 ) ) ;
#159 = FACE_OUTER_BOUND ( 'NONE', #206, .T. ) ;
#160 = ADVANCED_BREP_SHAPE_REPRESENTATION ( '3D_R243_69_17386630', ( #215, #6 ), #174 ) ;
#161 = DATE_TIME_ROLE ( 'creation_date' ) ;
#162 = VECTOR ( 'NONE', #221, 1000.000000000000000 ) ;
#163 = EDGE_LOOP ( 'NONE', ( #154, #80, #207, #105 ) ) ;
#164 =( LENGTH_UNIT ( ) NAMED_UNIT ( * ) SI_UNIT ( .MILLI., .METRE. ) );
#165 = DATE_AND_TIME ( #185, #181 ) ;
#166 = SECURITY_CLASSIFICATION ( '', '', #124 ) ;
#167 = APPROVAL_STATUS ( 'not_yet_approved' ) ;
#168 = CC_DESIGN_PERSON_AND_ORGANIZATION_ASSIGNMENT ( #54, #93, ( #68 ) ) ;
#169 = EDGE_LOOP ( 'NONE', ( #210, #34, #247, #183 ) ) ;
#170 = ORIENTED_EDGE ( 'NONE', *, *, #95, .T. ) ;
#171 = ORIENTED_EDGE ( 'NONE', *, *, #172, .F. ) ;
#172 = EDGE_CURVE ( 'NONE', #240, #83, #101, .T. ) ;
#173 = DIRECTION ( 'NONE',  ( 0.000000000000000000, 1.000000000000000000, 0.000000000000000000 ) ) ;
#174 =( GEOMETRIC_REPRESENTATION_CONTEXT ( 3 ) GLOBAL_UNCERTAINTY_ASSIGNED_CONTEXT ( ( #41 ) ) GLOBAL_UNIT_ASSIGNED_CONTEXT ( ( #164, #186, #239 ) ) REPRESENTATION_CONTEXT ( 'NONE', 'WORKASPACE' ) );
#175 = APPROVAL_DATE_TIME ( #187, #216 ) ;
#176 = DIRECTION ( 'NONE',  ( 0.000000000000000000, 0.000000000000000000, -1.000000000000000000 ) ) ;
#177 = DIRECTION ( 'NONE',  ( 0.000000000000000000, 1.000000000000000000, 0.000000000000000000 ) ) ;
#178 = EDGE_CURVE ( 'NONE', #153, #122, #13, .T. ) ;
#179 = CARTESIAN_POINT ( 'NONE',  ( 0.000000000000000000, 4.000000000000000000, 0.000000000000000000 ) ) ;
#180 = VECTOR ( 'NONE', #232, 1000.000000000000000 ) ;
#181 = LOCAL_TIME ( 12, 9, 50.00000000000000000, #109 ) ;
#182 = DIRECTION ( 'NONE',  ( 0.000000000000000000, 0.000000000000000000, -1.000000000000000000 ) ) ;
#183 = ORIENTED_EDGE ( 'NONE', *, *, #2, .F. ) ;
#184 = COORDINATED_UNIVERSAL_TIME_OFFSET ( 1, 0, .AHEAD. ) ;
#185 = CALENDAR_DATE ( 2024, 6, 8 ) ;
#186 =( NAMED_UNIT ( * ) PLANE_ANGLE_UNIT ( ) SI_UNIT ( $, .RADIAN. ) );
#187 = DATE_AND_TIME ( #209, #49 ) ;
#188 = VERTEX_POINT ( 'NONE', #72 ) ;
#189 = EDGE_LOOP ( 'NONE', ( #143, #127, #204, #212 ) ) ;
#190 = CYLINDRICAL_SURFACE ( 'NONE', #30, 35.25000000000000711 ) ;
#191 = SHAPE_DEFINITION_REPRESENTATION ( #226, #160 ) ;
#192 = DIRECTION ( 'NONE',  ( 0.000000000000000000, 1.000000000000000000, 0.000000000000000000 ) ) ;
#193 = FACE_OUTER_BOUND ( 'NONE', #169, .T. ) ;
#194 = DIRECTION ( 'NONE',  ( -0.000000000000000000, -1.000000000000000000, -0.000000000000000000 ) ) ;
#195 = DIRECTION ( 'NONE',  ( 0.000000000000000000, 0.000000000000000000, 1.000000000000000000 ) ) ;
#196 = LOCAL_TIME ( 12, 9, 50.00000000000000000, #184 ) ;
#197 = PERSON_AND_ORGANIZATION_ROLE ( 'creator' ) ;
#198 = APPROVAL_STATUS ( 'not_yet_approved' ) ;
#199 = ORIENTED_EDGE ( 'NONE', *, *, #67, .T. ) ;
#200 = CALENDAR_DATE ( 2024, 6, 8 ) ;
#201 = APPROVAL_PERSON_ORGANIZATION ( #29, #10, #241 ) ;
#202 = PERSON_AND_ORGANIZATION_ROLE ( 'classification_officer' ) ;
#203 = CC_DESIGN_PERSON_AND_ORGANIZATION_ASSIGNMENT ( #243, #142, ( #68 ) ) ;
#204 = ORIENTED_EDGE ( 'NONE', *, *, #233, .T. ) ;
#205 = DATE_AND_TIME ( #121, #196 ) ;
#206 = EDGE_LOOP ( 'NONE', ( #246, #199 ) ) ;
#207 = ORIENTED_EDGE ( 'NONE', *, *, #20, .F. ) ;
#208 = AXIS2_PLACEMENT_3D ( 'NONE', #133, #86, #156 ) ;
#209 = CALENDAR_DATE ( 2024, 6, 8 ) ;
#210 = ORIENTED_EDGE ( 'NONE', *, *, #63, .F. ) ;
#211 = AXIS2_PLACEMENT_3D ( 'NONE', #85, #173, #47 ) ;
#212 = ORIENTED_EDGE ( 'NONE', *, *, #172, .T. ) ;
#213 = DIRECTION ( 'NONE',  ( 0.000000000000000000, -0.000000000000000000, 1.000000000000000000 ) ) ;
#214 = FACE_BOUND ( 'NONE', #150, .T. ) ;
#215 = MANIFOLD_SOLID_BREP ( 'Aufsatz-Linear austragen1', #45 ) ;
#216 = APPROVAL ( #167, 'UNSPECIFIED' ) ;
#217 = CARTESIAN_POINT ( 'NONE',  ( 0.000000000000000000, 0.000000000000000000, 0.000000000000000000 ) ) ;
#218 = CIRCLE ( 'NONE', #112, 35.25000000000000711 ) ;
#219 = PLANE ( 'NONE',  #35 ) ;
#220 = CARTESIAN_POINT ( 'NONE',  ( 7.990820364436481039E-15, 4.000000000000000000, 65.25000000000000000 ) ) ;
#221 = DIRECTION ( 'NONE',  ( -0.000000000000000000, -1.000000000000000000, -0.000000000000000000 ) ) ;
#222 = AXIS2_PLACEMENT_3D ( 'NONE', #1, #192, #213 ) ;
#223 = APPLICATION_PROTOCOL_DEFINITION ( 'international standard', 'config_control_design', 1994, #149 ) ;
#224 = CC_DESIGN_PERSON_AND_ORGANIZATION_ASSIGNMENT ( #126, #202, ( #166 ) ) ;
#225 = APPROVAL_ROLE ( '' ) ;
#226 = PRODUCT_DEFINITION_SHAPE ( 'NONE', 'NONE',  #140 ) ;
#227 = APPROVAL_PERSON_ORGANIZATION ( #130, #216, #33 ) ;
#228 = DATE_TIME_ROLE ( 'classification_date' ) ;
#229 = ORIENTED_EDGE ( 'NONE', *, *, #2, .T. ) ;
#230 = AXIS2_PLACEMENT_3D ( 'NONE', #235, #194, #176 ) ;
#231 = ORIENTED_EDGE ( 'NONE', *, *, #95, .F. ) ;
#232 = DIRECTION ( 'NONE',  ( -0.000000000000000000, -1.000000000000000000, -0.000000000000000000 ) ) ;
#233 = EDGE_CURVE ( 'NONE', #188, #240, #110, .T. ) ;
#234 = CARTESIAN_POINT ( 'NONE',  ( 0.000000000000000000, 4.000000000000000000, -35.25000000000000711 ) ) ;
#235 = CARTESIAN_POINT ( 'NONE',  ( 0.000000000000000000, 4.000000000000000000, 0.000000000000000000 ) ) ;
#236 = CARTESIAN_POINT ( 'NONE',  ( 4.316879966994421072E-15, 0.000000000000000000, 35.25000000000000711 ) ) ;
#237 = CARTESIAN_POINT ( 'NONE',  ( 0.000000000000000000, 4.000000000000000000, -35.25000000000000711 ) ) ;
#238 = PERSON_AND_ORGANIZATION ( #64, #146 ) ;
#239 =( NAMED_UNIT ( * ) SI_UNIT ( $, .STERADIAN. ) SOLID_ANGLE_UNIT ( ) );
#240 = VERTEX_POINT ( 'NONE', #14 ) ;
#241 = APPROVAL_ROLE ( '' ) ;
#242 = ORIENTED_EDGE ( 'NONE', *, *, #233, .F. ) ;
#243 = PERSON_AND_ORGANIZATION ( #64, #146 ) ;
#244 = CIRCLE ( 'NONE', #131, 65.25000000000000000 ) ;
#245 = EDGE_LOOP ( 'NONE', ( #40, #229 ) ) ;
#246 = ORIENTED_EDGE ( 'NONE', *, *, #52, .T. ) ;
#247 = ORIENTED_EDGE ( 'NONE', *, *, #178, .T. ) ;
#248 = ORIENTED_EDGE ( 'NONE', *, *, #67, .F. ) ;
#249 = CARTESIAN_POINT ( 'NONE',  ( 0.000000000000000000, 4.000000000000000000, 0.000000000000000000 ) ) ;
ENDSEC;
END-ISO-10303-21;
