ISO-10303-21;
HEADER;
/* Generated by software containing ST-Developer
 * from STEP Tools, Inc. (www.steptools.com) 
 */
/* OPTION: using custom renumber hook */

FILE_DESCRIPTION(
/* description */ ('STEP AP203'),
/* implementation_level */ '2;1');

FILE_NAME(
/* name */ '07300032CH',
/* time_stamp */ '2024-03-19T17:26:04+01:00',
/* author */ ('License CC BY-ND 4.0'),
/* organization */ ('CADENAS'),
/* preprocessor_version */ 'ST-DEVELOPER v19.3',
/* originating_system */ 'PARTsolutions',
/* authorisation */ '  ');

FILE_SCHEMA (('CONFIG_CONTROL_DESIGN'));
ENDSEC;

DATA;
#10=PROPERTY_DEFINITION_REPRESENTATION(#14,#12);
#11=PROPERTY_DEFINITION_REPRESENTATION(#15,#13);
#12=REPRESENTATION('',(#16),#565);
#13=REPRESENTATION('',(#17),#565);
#14=PROPERTY_DEFINITION('pmi validation property','',#570);
#15=PROPERTY_DEFINITION('pmi validation property','',#570);
#16=VALUE_REPRESENTATION_ITEM('number of annotations',COUNT_MEASURE(0.));
#17=VALUE_REPRESENTATION_ITEM('number of views',COUNT_MEASURE(0.));
#18=SHAPE_REPRESENTATION_RELATIONSHIP('','',#282,#19);
#19=ADVANCED_BREP_SHAPE_REPRESENTATION('',(#280),#565);
#20=LINE('',#509,#22);
#21=LINE('',#511,#23);
#22=VECTOR('',#341,1000.);
#23=VECTOR('',#342,1000.);
#24=PLANE('',#289);
#25=PLANE('',#294);
#26=PLANE('',#301);
#27=PLANE('',#302);
#28=PLANE('',#306);
#29=PLANE('',#307);
#30=PLANE('',#311);
#31=PLANE('',#312);
#32=PLANE('',#319);
#33=PLANE('',#320);
#34=PLANE('',#323);
#35=PLANE('',#326);
#36=ELLIPSE('',#286,26.8700576850888,19.);
#37=ELLIPSE('',#288,26.8700576850888,19.);
#38=ELLIPSE('',#293,24.0416305603426,17.);
#39=CIRCLE('',#285,19.);
#40=CIRCLE('',#287,19.);
#41=CIRCLE('',#290,17.);
#42=CIRCLE('',#292,17.);
#43=CIRCLE('',#295,17.);
#44=CIRCLE('',#297,17.);
#45=CIRCLE('',#299,20.5);
#46=CIRCLE('',#300,20.5);
#47=CIRCLE('',#304,20.5);
#48=CIRCLE('',#305,20.5);
#49=CIRCLE('',#309,26.);
#50=CIRCLE('',#310,26.);
#51=CIRCLE('',#313,23.);
#52=CIRCLE('',#315,23.);
#53=CIRCLE('',#317,35.);
#54=CIRCLE('',#318,35.);
#55=CIRCLE('',#322,9.);
#56=CIRCLE('',#325,9.);
#57=ORIENTED_EDGE('',*,*,#109,.T.);
#58=ORIENTED_EDGE('',*,*,#110,.T.);
#59=ORIENTED_EDGE('',*,*,#111,.F.);
#60=ORIENTED_EDGE('',*,*,#112,.F.);
#61=ORIENTED_EDGE('',*,*,#113,.T.);
#62=ORIENTED_EDGE('',*,*,#114,.F.);
#63=ORIENTED_EDGE('',*,*,#115,.F.);
#64=ORIENTED_EDGE('',*,*,#116,.F.);
#65=ORIENTED_EDGE('',*,*,#113,.F.);
#66=ORIENTED_EDGE('',*,*,#117,.F.);
#67=ORIENTED_EDGE('',*,*,#118,.T.);
#68=ORIENTED_EDGE('',*,*,#119,.T.);
#69=ORIENTED_EDGE('',*,*,#118,.F.);
#70=ORIENTED_EDGE('',*,*,#120,.T.);
#71=ORIENTED_EDGE('',*,*,#121,.F.);
#72=ORIENTED_EDGE('',*,*,#111,.T.);
#73=ORIENTED_EDGE('',*,*,#122,.F.);
#74=ORIENTED_EDGE('',*,*,#121,.T.);
#75=ORIENTED_EDGE('',*,*,#123,.T.);
#76=ORIENTED_EDGE('',*,*,#124,.F.);
#77=ORIENTED_EDGE('',*,*,#123,.F.);
#78=ORIENTED_EDGE('',*,*,#119,.F.);
#79=ORIENTED_EDGE('',*,*,#124,.T.);
#80=ORIENTED_EDGE('',*,*,#125,.F.);
#81=ORIENTED_EDGE('',*,*,#126,.T.);
#82=ORIENTED_EDGE('',*,*,#125,.T.);
#83=ORIENTED_EDGE('',*,*,#122,.T.);
#84=ORIENTED_EDGE('',*,*,#126,.F.);
#85=ORIENTED_EDGE('',*,*,#127,.F.);
#86=ORIENTED_EDGE('',*,*,#128,.T.);
#87=ORIENTED_EDGE('',*,*,#115,.T.);
#88=ORIENTED_EDGE('',*,*,#117,.T.);
#89=ORIENTED_EDGE('',*,*,#112,.T.);
#90=ORIENTED_EDGE('',*,*,#128,.F.);
#91=ORIENTED_EDGE('',*,*,#114,.T.);
#92=ORIENTED_EDGE('',*,*,#116,.T.);
#93=ORIENTED_EDGE('',*,*,#120,.F.);
#94=ORIENTED_EDGE('',*,*,#129,.F.);
#95=ORIENTED_EDGE('',*,*,#127,.T.);
#96=ORIENTED_EDGE('',*,*,#130,.F.);
#97=ORIENTED_EDGE('',*,*,#129,.T.);
#98=ORIENTED_EDGE('',*,*,#131,.F.);
#99=ORIENTED_EDGE('',*,*,#132,.T.);
#100=ORIENTED_EDGE('',*,*,#131,.T.);
#101=ORIENTED_EDGE('',*,*,#130,.T.);
#102=ORIENTED_EDGE('',*,*,#132,.F.);
#103=ORIENTED_EDGE('',*,*,#133,.T.);
#104=ORIENTED_EDGE('',*,*,#110,.F.);
#105=ORIENTED_EDGE('',*,*,#133,.F.);
#106=ORIENTED_EDGE('',*,*,#134,.T.);
#107=ORIENTED_EDGE('',*,*,#109,.F.);
#108=ORIENTED_EDGE('',*,*,#134,.F.);
#109=EDGE_CURVE('',#135,#135,#158,.T.);
#110=EDGE_CURVE('',#136,#136,#159,.T.);
#111=EDGE_CURVE('',#137,#137,#39,.T.);
#112=EDGE_CURVE('',#138,#139,#36,.T.);
#113=EDGE_CURVE('',#138,#140,#40,.T.);
#114=EDGE_CURVE('',#141,#140,#37,.T.);
#115=EDGE_CURVE('',#139,#141,#160,.T.);
#116=EDGE_CURVE('',#140,#142,#20,.T.);
#117=EDGE_CURVE('',#143,#138,#21,.T.);
#118=EDGE_CURVE('',#143,#142,#41,.T.);
#119=EDGE_CURVE('',#144,#144,#42,.T.);
#120=EDGE_CURVE('',#143,#142,#38,.F.);
#121=EDGE_CURVE('',#145,#145,#43,.T.);
#122=EDGE_CURVE('',#146,#146,#44,.T.);
#123=EDGE_CURVE('',#147,#147,#45,.T.);
#124=EDGE_CURVE('',#148,#148,#46,.T.);
#125=EDGE_CURVE('',#149,#149,#47,.T.);
#126=EDGE_CURVE('',#150,#150,#48,.T.);
#127=EDGE_CURVE('',#151,#151,#49,.T.);
#128=EDGE_CURVE('',#141,#139,#50,.T.);
#129=EDGE_CURVE('',#152,#152,#51,.T.);
#130=EDGE_CURVE('',#153,#153,#52,.T.);
#131=EDGE_CURVE('',#154,#154,#53,.T.);
#132=EDGE_CURVE('',#155,#155,#54,.T.);
#133=EDGE_CURVE('',#156,#156,#55,.T.);
#134=EDGE_CURVE('',#157,#157,#56,.T.);
#135=VERTEX_POINT('',#439);
#136=VERTEX_POINT('',#460);
#137=VERTEX_POINT('',#462);
#138=VERTEX_POINT('',#464);
#139=VERTEX_POINT('',#465);
#140=VERTEX_POINT('',#467);
#141=VERTEX_POINT('',#469);
#142=VERTEX_POINT('',#510);
#143=VERTEX_POINT('',#512);
#144=VERTEX_POINT('',#516);
#145=VERTEX_POINT('',#520);
#146=VERTEX_POINT('',#523);
#147=VERTEX_POINT('',#526);
#148=VERTEX_POINT('',#528);
#149=VERTEX_POINT('',#533);
#150=VERTEX_POINT('',#535);
#151=VERTEX_POINT('',#540);
#152=VERTEX_POINT('',#545);
#153=VERTEX_POINT('',#548);
#154=VERTEX_POINT('',#551);
#155=VERTEX_POINT('',#553);
#156=VERTEX_POINT('',#558);
#157=VERTEX_POINT('',#562);
#158=B_SPLINE_CURVE_WITH_KNOTS('',3,(#419,#420,#421,#422,#423,#424,#425,
#426,#427,#428,#429,#430,#431,#432,#433,#434,#435,#436,#437,#438),
 .UNSPECIFIED.,.T.,.F.,(1,1,1,1,1,1,1,1,1,1,1,1,1,1,1,1,1,1,1,1,1,1,1,1),
(-0.007138240688894,-0.003569120344447,-0.0017845601722235,0.,0.003569120344447,
0.007138240688894,0.010707361033341,0.014276481377788,0.017845601722235,
0.021414722066682,0.024983842411129,0.028552962755576,0.032122083100023,
0.03569120344447,0.039260323788917,0.042829444133364,0.046398564477811,
0.049967684822258,0.053536805166705,0.0553213653389285,0.057105925511152,
0.060675045855599,0.064244166200046,0.067813286544493),.UNSPECIFIED.);
#159=B_SPLINE_CURVE_WITH_KNOTS('',3,(#440,#441,#442,#443,#444,#445,#446,
#447,#448,#449,#450,#451,#452,#453,#454,#455,#456,#457,#458,#459),
 .UNSPECIFIED.,.T.,.F.,(1,1,1,1,1,1,1,1,1,1,1,1,1,1,1,1,1,1,1,1,1,1,1,1),
(-0.00713749615438064,-0.00356874807719032,-0.00178437403859516,0.,0.00356874807719032,
0.00713749615438064,0.010706244231571,0.0142749923087613,0.0178437403859516,
0.0214124884631419,0.0249812365403322,0.0285499846175226,0.0321187326947129,
0.0356874807719032,0.0392562288490935,0.0428249769262838,0.0463937250034742,
0.0499624730806645,0.0535312211578548,0.05531559519645,0.0570999692350451,
0.0606687173122354,0.0642374653894258,0.0678062134666161),.UNSPECIFIED.);
#160=B_SPLINE_CURVE_WITH_KNOTS('',3,(#470,#471,#472,#473,#474,#475,#476,
#477,#478,#479,#480,#481,#482,#483,#484,#485,#486,#487,#488,#489,#490,#491,
#492,#493,#494,#495,#496,#497,#498,#499,#500,#501,#502,#503,#504,#505,#506,
#507),.UNSPECIFIED.,.F.,.F.,(4,1,1,1,1,1,1,1,1,1,1,1,1,1,1,1,1,1,1,1,1,
1,1,1,1,1,1,1,1,1,1,1,1,1,1,4),(6.2546344413855E-18,0.00428002077794476,
0.00856004155588952,0.0107000519448619,0.0128400623338343,0.017120083111779,
0.0192600935007514,0.0214001038897238,0.0256801246676685,0.0299601454456133,
0.034240166223558,0.0428002077794476,0.0470802285573923,0.0513602493353371,
0.0556402701132818,0.0599202908912266,0.0642003116691713,0.0663403220581437,
0.0684803324471161,0.0727603532250609,0.0749003636140332,0.0770403740030056,
0.0813203947809504,0.0856004155588951,0.0898804363368399,0.0941604571147846,
0.102720498670674,0.111280540226564,0.115560561004508,0.119840581782453,
0.121980592171426,0.124120602560398,0.12626061294937,0.128400623338343,
0.132680644116287,0.136960664894232),.UNSPECIFIED.);
#161=EDGE_LOOP('',(#57));
#162=EDGE_LOOP('',(#58));
#163=EDGE_LOOP('',(#59));
#164=EDGE_LOOP('',(#60,#61,#62,#63));
#165=EDGE_LOOP('',(#64,#65,#66,#67));
#166=EDGE_LOOP('',(#68));
#167=EDGE_LOOP('',(#69,#70));
#168=EDGE_LOOP('',(#71));
#169=EDGE_LOOP('',(#72));
#170=EDGE_LOOP('',(#73));
#171=EDGE_LOOP('',(#74));
#172=EDGE_LOOP('',(#75));
#173=EDGE_LOOP('',(#76));
#174=EDGE_LOOP('',(#77));
#175=EDGE_LOOP('',(#78));
#176=EDGE_LOOP('',(#79));
#177=EDGE_LOOP('',(#80));
#178=EDGE_LOOP('',(#81));
#179=EDGE_LOOP('',(#82));
#180=EDGE_LOOP('',(#83));
#181=EDGE_LOOP('',(#84));
#182=EDGE_LOOP('',(#85));
#183=EDGE_LOOP('',(#86,#87));
#184=EDGE_LOOP('',(#88,#89,#90,#91,#92,#93));
#185=EDGE_LOOP('',(#94));
#186=EDGE_LOOP('',(#95));
#187=EDGE_LOOP('',(#96));
#188=EDGE_LOOP('',(#97));
#189=EDGE_LOOP('',(#98));
#190=EDGE_LOOP('',(#99));
#191=EDGE_LOOP('',(#100));
#192=EDGE_LOOP('',(#101));
#193=EDGE_LOOP('',(#102));
#194=EDGE_LOOP('',(#103));
#195=EDGE_LOOP('',(#104));
#196=EDGE_LOOP('',(#105));
#197=EDGE_LOOP('',(#106));
#198=EDGE_LOOP('',(#107));
#199=EDGE_LOOP('',(#108));
#200=FACE_BOUND('',#161,.T.);
#201=FACE_BOUND('',#162,.T.);
#202=FACE_BOUND('',#163,.T.);
#203=FACE_BOUND('',#164,.T.);
#204=FACE_BOUND('',#165,.T.);
#205=FACE_BOUND('',#166,.T.);
#206=FACE_BOUND('',#167,.T.);
#207=FACE_BOUND('',#168,.T.);
#208=FACE_BOUND('',#169,.T.);
#209=FACE_BOUND('',#170,.T.);
#210=FACE_BOUND('',#171,.T.);
#211=FACE_BOUND('',#172,.T.);
#212=FACE_BOUND('',#173,.T.);
#213=FACE_BOUND('',#174,.T.);
#214=FACE_BOUND('',#175,.T.);
#215=FACE_BOUND('',#176,.T.);
#216=FACE_BOUND('',#177,.T.);
#217=FACE_BOUND('',#178,.T.);
#218=FACE_BOUND('',#179,.T.);
#219=FACE_BOUND('',#180,.T.);
#220=FACE_BOUND('',#181,.T.);
#221=FACE_BOUND('',#182,.T.);
#222=FACE_BOUND('',#183,.T.);
#223=FACE_BOUND('',#184,.T.);
#224=FACE_BOUND('',#185,.T.);
#225=FACE_BOUND('',#186,.T.);
#226=FACE_BOUND('',#187,.T.);
#227=FACE_BOUND('',#188,.T.);
#228=FACE_BOUND('',#189,.T.);
#229=FACE_BOUND('',#190,.T.);
#230=FACE_BOUND('',#191,.T.);
#231=FACE_BOUND('',#192,.T.);
#232=FACE_BOUND('',#193,.T.);
#233=FACE_BOUND('',#194,.T.);
#234=FACE_BOUND('',#195,.T.);
#235=FACE_BOUND('',#196,.T.);
#236=FACE_BOUND('',#197,.T.);
#237=FACE_BOUND('',#198,.T.);
#238=FACE_BOUND('',#199,.T.);
#239=CYLINDRICAL_SURFACE('',#284,19.);
#240=CYLINDRICAL_SURFACE('',#291,17.);
#241=CYLINDRICAL_SURFACE('',#296,17.);
#242=CYLINDRICAL_SURFACE('',#298,20.5);
#243=CYLINDRICAL_SURFACE('',#303,20.5);
#244=CYLINDRICAL_SURFACE('',#308,26.);
#245=CYLINDRICAL_SURFACE('',#314,23.);
#246=CYLINDRICAL_SURFACE('',#316,35.);
#247=CYLINDRICAL_SURFACE('',#321,9.);
#248=CYLINDRICAL_SURFACE('',#324,9.);
#249=ADVANCED_FACE('',(#200,#201,#202,#203),#239,.T.);
#250=ADVANCED_FACE('',(#204),#24,.F.);
#251=ADVANCED_FACE('',(#205,#206),#240,.T.);
#252=ADVANCED_FACE('',(#207,#208),#25,.T.);
#253=ADVANCED_FACE('',(#209,#210),#241,.T.);
#254=ADVANCED_FACE('',(#211,#212),#242,.T.);
#255=ADVANCED_FACE('',(#213),#26,.F.);
#256=ADVANCED_FACE('',(#214,#215),#27,.T.);
#257=ADVANCED_FACE('',(#216,#217),#243,.T.);
#258=ADVANCED_FACE('',(#218),#28,.T.);
#259=ADVANCED_FACE('',(#219,#220),#29,.F.);
#260=ADVANCED_FACE('',(#221,#222),#244,.T.);
#261=ADVANCED_FACE('',(#223),#30,.F.);
#262=ADVANCED_FACE('',(#224,#225),#31,.T.);
#263=ADVANCED_FACE('',(#226,#227),#245,.T.);
#264=ADVANCED_FACE('',(#228,#229),#246,.T.);
#265=ADVANCED_FACE('',(#230),#32,.T.);
#266=ADVANCED_FACE('',(#231,#232),#33,.F.);
#267=ADVANCED_FACE('',(#233,#234),#247,.T.);
#268=ADVANCED_FACE('',(#235),#34,.F.);
#269=ADVANCED_FACE('',(#236,#237),#248,.T.);
#270=ADVANCED_FACE('',(#238),#35,.F.);
#271=CLOSED_SHELL('',(#249,#250,#251,#252,#253,#254,#255,#256,#257,#258,
#259,#260,#261,#262,#263,#264,#265,#266,#267,#268,#269,#270));
#272=STYLED_ITEM('',(#273),#280);
#273=PRESENTATION_STYLE_ASSIGNMENT((#274));
#274=SURFACE_STYLE_USAGE(.BOTH.,#275);
#275=SURFACE_SIDE_STYLE('',(#276));
#276=SURFACE_STYLE_FILL_AREA(#277);
#277=FILL_AREA_STYLE('',(#278));
#278=FILL_AREA_STYLE_COLOUR('',#279);
#279=COLOUR_RGB('',0.689999997615814,0.689999997615814,0.689999997615814);
#280=MANIFOLD_SOLID_BREP('07300032CH',#271);
#281=SHAPE_DEFINITION_REPRESENTATION(#570,#282);
#282=SHAPE_REPRESENTATION('07300032CH',(#283),#565);
#283=AXIS2_PLACEMENT_3D('',#417,#327,#328);
#284=AXIS2_PLACEMENT_3D('',#418,#329,#330);
#285=AXIS2_PLACEMENT_3D('',#461,#331,#332);
#286=AXIS2_PLACEMENT_3D('',#463,#333,#334);
#287=AXIS2_PLACEMENT_3D('',#466,#335,#336);
#288=AXIS2_PLACEMENT_3D('',#468,#337,#338);
#289=AXIS2_PLACEMENT_3D('',#508,#339,#340);
#290=AXIS2_PLACEMENT_3D('',#513,#343,#344);
#291=AXIS2_PLACEMENT_3D('',#514,#345,#346);
#292=AXIS2_PLACEMENT_3D('',#515,#347,#348);
#293=AXIS2_PLACEMENT_3D('',#517,#349,#350);
#294=AXIS2_PLACEMENT_3D('',#518,#351,#352);
#295=AXIS2_PLACEMENT_3D('',#519,#353,#354);
#296=AXIS2_PLACEMENT_3D('',#521,#355,#356);
#297=AXIS2_PLACEMENT_3D('',#522,#357,#358);
#298=AXIS2_PLACEMENT_3D('',#524,#359,#360);
#299=AXIS2_PLACEMENT_3D('',#525,#361,#362);
#300=AXIS2_PLACEMENT_3D('',#527,#363,#364);
#301=AXIS2_PLACEMENT_3D('',#529,#365,#366);
#302=AXIS2_PLACEMENT_3D('',#530,#367,#368);
#303=AXIS2_PLACEMENT_3D('',#531,#369,#370);
#304=AXIS2_PLACEMENT_3D('',#532,#371,#372);
#305=AXIS2_PLACEMENT_3D('',#534,#373,#374);
#306=AXIS2_PLACEMENT_3D('',#536,#375,#376);
#307=AXIS2_PLACEMENT_3D('',#537,#377,#378);
#308=AXIS2_PLACEMENT_3D('',#538,#379,#380);
#309=AXIS2_PLACEMENT_3D('',#539,#381,#382);
#310=AXIS2_PLACEMENT_3D('',#541,#383,#384);
#311=AXIS2_PLACEMENT_3D('',#542,#385,#386);
#312=AXIS2_PLACEMENT_3D('',#543,#387,#388);
#313=AXIS2_PLACEMENT_3D('',#544,#389,#390);
#314=AXIS2_PLACEMENT_3D('',#546,#391,#392);
#315=AXIS2_PLACEMENT_3D('',#547,#393,#394);
#316=AXIS2_PLACEMENT_3D('',#549,#395,#396);
#317=AXIS2_PLACEMENT_3D('',#550,#397,#398);
#318=AXIS2_PLACEMENT_3D('',#552,#399,#400);
#319=AXIS2_PLACEMENT_3D('',#554,#401,#402);
#320=AXIS2_PLACEMENT_3D('',#555,#403,#404);
#321=AXIS2_PLACEMENT_3D('',#556,#405,#406);
#322=AXIS2_PLACEMENT_3D('',#557,#407,#408);
#323=AXIS2_PLACEMENT_3D('',#559,#409,#410);
#324=AXIS2_PLACEMENT_3D('',#560,#411,#412);
#325=AXIS2_PLACEMENT_3D('',#561,#413,#414);
#326=AXIS2_PLACEMENT_3D('',#563,#415,#416);
#327=DIRECTION('',(0.,0.,1.));
#328=DIRECTION('',(1.,0.,0.));
#329=DIRECTION('',(-1.,0.,0.));
#330=DIRECTION('',(0.,0.,1.));
#331=DIRECTION('',(1.,0.,0.));
#332=DIRECTION('',(0.,0.,-1.));
#333=DIRECTION('',(0.707106781186548,0.,0.707106781186548));
#334=DIRECTION('',(-0.707106781186548,0.,0.707106781186548));
#335=DIRECTION('',(1.,0.,0.));
#336=DIRECTION('',(0.,0.,-1.));
#337=DIRECTION('',(0.707106781186548,0.,0.707106781186548));
#338=DIRECTION('',(-0.707106781186548,0.,0.707106781186548));
#339=DIRECTION('',(1.,0.,0.));
#340=DIRECTION('',(0.,0.,-1.));
#341=DIRECTION('',(0.,-1.,0.));
#342=DIRECTION('',(0.,-1.,0.));
#343=DIRECTION('',(1.,0.,0.));
#344=DIRECTION('',(0.,0.,-1.));
#345=DIRECTION('',(1.,0.,0.));
#346=DIRECTION('',(0.,0.,-1.));
#347=DIRECTION('',(1.,0.,0.));
#348=DIRECTION('',(0.,0.,-1.));
#349=DIRECTION('',(0.707106781186548,0.,0.707106781186548));
#350=DIRECTION('',(0.707106781186548,0.,-0.707106781186548));
#351=DIRECTION('',(1.,0.,0.));
#352=DIRECTION('',(0.,0.,-1.));
#353=DIRECTION('',(1.,0.,0.));
#354=DIRECTION('',(0.,0.,-1.));
#355=DIRECTION('',(-1.,0.,0.));
#356=DIRECTION('',(0.,0.,1.));
#357=DIRECTION('',(1.,0.,0.));
#358=DIRECTION('',(0.,0.,-1.));
#359=DIRECTION('',(1.,0.,0.));
#360=DIRECTION('',(0.,0.,-1.));
#361=DIRECTION('',(1.,0.,0.));
#362=DIRECTION('',(0.,0.,-1.));
#363=DIRECTION('',(1.,0.,0.));
#364=DIRECTION('',(0.,0.,-1.));
#365=DIRECTION('',(1.,0.,0.));
#366=DIRECTION('',(0.,0.,-1.));
#367=DIRECTION('',(1.,0.,0.));
#368=DIRECTION('',(0.,0.,-1.));
#369=DIRECTION('',(-1.,0.,0.));
#370=DIRECTION('',(0.,0.,1.));
#371=DIRECTION('',(1.,0.,0.));
#372=DIRECTION('',(0.,0.,-1.));
#373=DIRECTION('',(1.,0.,0.));
#374=DIRECTION('',(0.,0.,-1.));
#375=DIRECTION('',(1.,0.,0.));
#376=DIRECTION('',(0.,0.,-1.));
#377=DIRECTION('',(1.,0.,0.));
#378=DIRECTION('',(0.,0.,-1.));
#379=DIRECTION('',(-0.707106781186548,0.,-0.707106781186548));
#380=DIRECTION('',(-0.707106781186548,0.,0.707106781186548));
#381=DIRECTION('',(0.707106781186548,0.,0.707106781186548));
#382=DIRECTION('',(0.707106781186548,0.,-0.707106781186548));
#383=DIRECTION('',(0.707106781186548,0.,0.707106781186548));
#384=DIRECTION('',(0.707106781186548,0.,-0.707106781186548));
#385=DIRECTION('',(0.707106781186548,0.,0.707106781186548));
#386=DIRECTION('',(0.707106781186548,0.,-0.707106781186548));
#387=DIRECTION('',(0.707106781186548,0.,0.707106781186548));
#388=DIRECTION('',(0.707106781186548,0.,-0.707106781186548));
#389=DIRECTION('',(0.707106781186548,0.,0.707106781186548));
#390=DIRECTION('',(0.707106781186548,0.,-0.707106781186548));
#391=DIRECTION('',(-0.707106781186548,0.,-0.707106781186548));
#392=DIRECTION('',(-0.707106781186548,0.,0.707106781186548));
#393=DIRECTION('',(0.707106781186548,0.,0.707106781186548));
#394=DIRECTION('',(0.707106781186548,0.,-0.707106781186548));
#395=DIRECTION('',(-0.707106781186548,0.,-0.707106781186548));
#396=DIRECTION('',(-0.707106781186548,0.,0.707106781186548));
#397=DIRECTION('',(0.707106781186548,0.,0.707106781186548));
#398=DIRECTION('',(0.707106781186548,0.,-0.707106781186548));
#399=DIRECTION('',(0.707106781186548,0.,0.707106781186548));
#400=DIRECTION('',(0.707106781186548,0.,-0.707106781186548));
#401=DIRECTION('',(0.707106781186548,0.,0.707106781186548));
#402=DIRECTION('',(0.707106781186548,0.,-0.707106781186548));
#403=DIRECTION('',(0.707106781186548,0.,0.707106781186548));
#404=DIRECTION('',(0.707106781186548,0.,-0.707106781186548));
#405=DIRECTION('',(0.,1.,0.));
#406=DIRECTION('',(0.,0.,1.));
#407=DIRECTION('',(0.,1.,0.));
#408=DIRECTION('',(1.,0.,0.));
#409=DIRECTION('',(0.,1.,0.));
#410=DIRECTION('',(0.,0.,1.));
#411=DIRECTION('',(0.,0.,1.));
#412=DIRECTION('',(1.,0.,0.));
#413=DIRECTION('',(0.,0.,1.));
#414=DIRECTION('',(1.,0.,0.));
#415=DIRECTION('',(0.,0.,1.));
#416=DIRECTION('',(1.,0.,0.));
#417=CARTESIAN_POINT('',(0.,0.,0.));
#418=CARTESIAN_POINT('',(38.,0.,0.));
#419=CARTESIAN_POINT('',(-18.1238295616834,-1.81359342641002,-18.940747691092));
#420=CARTESIAN_POINT('',(-17.8768011555287,0.609620715098116,-19.0594362509975));
#421=CARTESIAN_POINT('',(-18.489641791825,3.58138069616703,-18.7613352855631));
#422=CARTESIAN_POINT('',(-20.4827817840755,6.52832313156619,-17.9091499364678));
#423=CARTESIAN_POINT('',(-23.4117926579587,8.50541375286254,-17.0113446192551));
#424=CARTESIAN_POINT('',(-26.9774016560544,9.24457322684497,-16.5954723367521));
#425=CARTESIAN_POINT('',(-30.5725275742665,8.51618915899243,-17.0060252516797));
#426=CARTESIAN_POINT('',(-33.5119356835026,6.53256572630635,-17.9074252670566));
#427=CARTESIAN_POINT('',(-35.504758880678,3.59596090020355,-18.7584907062384));
#428=CARTESIAN_POINT('',(-36.2438374921202,0.0232281827357629,-19.1190044691254));
#429=CARTESIAN_POINT('',(-35.5197553467843,-3.56776698511782,-18.7654270890854));
#430=CARTESIAN_POINT('',(-33.5223122573864,-6.52374935717523,-17.9109509396915));
#431=CARTESIAN_POINT('',(-30.5901010859132,-8.50565632747517,-17.0113056343111));
#432=CARTESIAN_POINT('',(-27.0197010427957,-9.24407558839684,-16.5958185239867));
#433=CARTESIAN_POINT('',(-23.4341501487247,-8.51794298165655,-17.0046763447581));
#434=CARTESIAN_POINT('',(-20.4852315109416,-6.53478993306601,-17.9082245288249));
#435=CARTESIAN_POINT('',(-18.8228909553525,-4.06901933062543,-18.618041936681));
#436=CARTESIAN_POINT('',(-18.1238295616834,-1.81359342641002,-18.940747691092));
#437=CARTESIAN_POINT('',(-17.8768011555287,0.609620715098116,-19.0594362509975));
#438=CARTESIAN_POINT('',(-18.489641791825,3.58138069616703,-18.7613352855631));
#439=CARTESIAN_POINT('',(-18.,0.,-19.));
#440=CARTESIAN_POINT('',(19.1865588806743,-16.8008828606041,8.87604570305243));
#441=CARTESIAN_POINT('',(21.6098985997558,-16.664976570683,9.12330649085106));
#442=CARTESIAN_POINT('',(24.5781181988267,-17.0088045210555,8.51001306707841));
#443=CARTESIAN_POINT('',(27.5174846965411,-17.9091217524498,6.52799100841011));
#444=CARTESIAN_POINT('',(29.5058855783407,-18.759193166601,3.59158942838167));
#445=CARTESIAN_POINT('',(30.2445216649376,-19.1192690212404,0.0197408624797311));
#446=CARTESIAN_POINT('',(29.5159457479939,-18.7636918997638,-3.57643860683569));
#447=CARTESIAN_POINT('',(27.5209265154457,-17.9105398352918,-6.52378510719545));
#448=CARTESIAN_POINT('',(24.5915021474895,-17.0118579163006,-8.50479794560479));
#449=CARTESIAN_POINT('',(21.0238985695451,-16.595736209083,-9.24393941395484));
#450=CARTESIAN_POINT('',(17.4346210665431,-17.0044742126319,-8.51930722110615));
#451=CARTESIAN_POINT('',(14.4867459941505,-17.907577693674,-6.53263141318293));
#452=CARTESIAN_POINT('',(12.4938257621727,-18.759268741359,-3.5930386674034));
#453=CARTESIAN_POINT('',(11.7559411544167,-19.1189386629614,-0.0177257166914921));
#454=CARTESIAN_POINT('',(12.4824913064295,-18.764937913322,3.57001544407258));
#455=CARTESIAN_POINT('',(14.4759040675334,-17.9098690368538,6.52599870165253));
#456=CARTESIAN_POINT('',(16.9380556968707,-17.1604288263904,8.17942954475549));
#457=CARTESIAN_POINT('',(19.1865588806743,-16.8008828606041,8.87604570305243));
#458=CARTESIAN_POINT('',(21.6098985997558,-16.664976570683,9.12330649085106));
#459=CARTESIAN_POINT('',(24.5781181988267,-17.0088045210555,8.51001306707841));
#460=CARTESIAN_POINT('',(21.,-16.7332005306815,9.));
#461=CARTESIAN_POINT('',(38.,0.,0.));
#462=CARTESIAN_POINT('',(38.,0.,-19.));
#463=CARTESIAN_POINT('',(-29.,0.,0.));
#464=CARTESIAN_POINT('',(-38.,-16.7332005306815,9.));
#465=CARTESIAN_POINT('',(-11.2517606507011,-6.78232998312521,-17.7482393492989));
#466=CARTESIAN_POINT('',(-38.,0.,0.));
#467=CARTESIAN_POINT('',(-38.,16.7332005306815,9.));
#468=CARTESIAN_POINT('',(-29.,0.,0.));
#469=CARTESIAN_POINT('',(-11.2517606507011,6.78232998312521,-17.7482393492989));
#470=CARTESIAN_POINT('',(-11.2517606507011,-6.78232998312521,-17.7482393492989));
#471=CARTESIAN_POINT('',(-11.2517606507011,-8.13299779385019,-17.2320937976397));
#472=CARTESIAN_POINT('',(-11.2333455440305,-10.6666173478998,-15.9201388732972));
#473=CARTESIAN_POINT('',(-11.0129129218737,-13.4353078041497,-13.5649364587179));
#474=CARTESIAN_POINT('',(-10.5943610577155,-15.2388062413534,-11.4135088992496));
#475=CARTESIAN_POINT('',(-9.94533505328749,-16.8060606236924,-9.05498502780196));
#476=CARTESIAN_POINT('',(-8.91971285186684,-17.8884048114592,-6.62104727956121));
#477=CARTESIAN_POINT('',(-7.4495966729678,-18.5579629152387,-4.20665609236528));
#478=CARTESIAN_POINT('',(-5.76482412139391,-18.9609932828004,-1.92654564716047));
#479=CARTESIAN_POINT('',(-3.28127520544395,-19.0624082550752,0.714612288914898));
#480=CARTESIAN_POINT('',(-0.0424045354653779,-18.7438610533087,3.46893397246461));
#481=CARTESIAN_POINT('',(4.56115456573942,-17.8720645090775,6.82358136817791));
#482=CARTESIAN_POINT('',(9.24365979663926,-16.4679912642941,9.71052681231));
#483=CARTESIAN_POINT('',(13.875137548257,-14.523404578756,12.3355846005214));
#484=CARTESIAN_POINT('',(17.3114911559569,-12.7258473150367,14.1930526038654));
#485=CARTESIAN_POINT('',(20.5964229920763,-10.5248091879934,15.9060509012845));
#486=CARTESIAN_POINT('',(23.5728614606644,-7.83749135754499,17.4161499107084));
#487=CARTESIAN_POINT('',(25.6130717200779,-4.9392294705302,18.4301274150281));
#488=CARTESIAN_POINT('',(26.5726192009696,-2.27024233941132,18.9032193308103));
#489=CARTESIAN_POINT('',(26.9508324650909,0.6280362040201,19.0890214151032));
#490=CARTESIAN_POINT('',(26.2819019838397,3.48434984692515,18.7608129273587));
#491=CARTESIAN_POINT('',(24.8947834834649,5.95498630681054,18.0732964607188));
#492=CARTESIAN_POINT('',(23.2232203949682,8.12980274499041,17.2381115524938));
#493=CARTESIAN_POINT('',(20.715744264107,10.4360974768709,15.9673670529704));
#494=CARTESIAN_POINT('',(17.4622577303332,12.6355817263324,14.2728975577714));
#495=CARTESIAN_POINT('',(14.0034818258981,14.464633799599,12.4065034131029));
#496=CARTESIAN_POINT('',(9.34654684415937,16.43331809011,9.7725835901691));
#497=CARTESIAN_POINT('',(3.49270483038072,18.1936859148107,6.16309776522585));
#498=CARTESIAN_POINT('',(-2.22929253918634,19.0971258042568,1.81996601648839));
#499=CARTESIAN_POINT('',(-6.20885188433479,18.9470722436786,-2.39054969646309));
#500=CARTESIAN_POINT('',(-8.18973443640565,18.3285157838365,-5.2908736317126));
#501=CARTESIAN_POINT('',(-9.40331721819952,17.3791942028565,-7.76630045321619));
#502=CARTESIAN_POINT('',(-10.0845459025198,16.455282506919,-9.57440835089818));
#503=CARTESIAN_POINT('',(-10.5811094580605,15.2839474850501,-11.3542533720759));
#504=CARTESIAN_POINT('',(-11.0097827596718,13.4666896817817,-13.5358973330573));
#505=CARTESIAN_POINT('',(-11.2326129541861,10.6986630691677,-15.9007925951775));
#506=CARTESIAN_POINT('',(-11.2517606507011,8.1382634336346,-17.2300815807721));
#507=CARTESIAN_POINT('',(-11.2517606507011,6.78232998312521,-17.7482393492989));
#508=CARTESIAN_POINT('',(-38.,0.,0.));
#509=CARTESIAN_POINT('',(-38.,0.,9.));
#510=CARTESIAN_POINT('',(-38.,14.422205101856,9.));
#511=CARTESIAN_POINT('',(-38.,0.,9.));
#512=CARTESIAN_POINT('',(-38.,-14.422205101856,9.));
#513=CARTESIAN_POINT('',(-38.,0.,0.));
#514=CARTESIAN_POINT('',(-80.5,0.,0.));
#515=CARTESIAN_POINT('',(-80.5,0.,0.));
#516=CARTESIAN_POINT('',(-80.5,0.,-17.));
#517=CARTESIAN_POINT('',(-29.,0.,0.));
#518=CARTESIAN_POINT('',(38.,0.,0.));
#519=CARTESIAN_POINT('',(38.,0.,0.));
#520=CARTESIAN_POINT('',(38.,0.,-17.));
#521=CARTESIAN_POINT('',(80.5,0.,0.));
#522=CARTESIAN_POINT('',(80.5,0.,0.));
#523=CARTESIAN_POINT('',(80.5,0.,-17.));
#524=CARTESIAN_POINT('',(-83.5,0.,0.));
#525=CARTESIAN_POINT('',(-83.5,0.,0.));
#526=CARTESIAN_POINT('',(-83.5,0.,-20.5));
#527=CARTESIAN_POINT('',(-80.5,0.,0.));
#528=CARTESIAN_POINT('',(-80.5,0.,-20.5));
#529=CARTESIAN_POINT('',(-83.5,0.,0.));
#530=CARTESIAN_POINT('',(-80.5,0.,0.));
#531=CARTESIAN_POINT('',(83.5,0.,0.));
#532=CARTESIAN_POINT('',(83.5,0.,0.));
#533=CARTESIAN_POINT('',(83.5,0.,-20.5));
#534=CARTESIAN_POINT('',(80.5,0.,0.));
#535=CARTESIAN_POINT('',(80.5,0.,-20.5));
#536=CARTESIAN_POINT('',(83.5,0.,0.));
#537=CARTESIAN_POINT('',(80.5,0.,0.));
#538=CARTESIAN_POINT('',(10.5979797464467,0.,39.5979797464467));
#539=CARTESIAN_POINT('',(10.5979797464467,0.,39.5979797464467));
#540=CARTESIAN_POINT('',(28.9827560572969,0.,21.2132034355964));
#541=CARTESIAN_POINT('',(-29.,0.,0.));
#542=CARTESIAN_POINT('',(-29.,0.,0.));
#543=CARTESIAN_POINT('',(10.5979797464467,0.,39.5979797464467));
#544=CARTESIAN_POINT('',(10.5979797464467,0.,39.5979797464467));
#545=CARTESIAN_POINT('',(26.8614357137373,0.,23.3345237791561));
#546=CARTESIAN_POINT('',(87.7157524094327,0.,116.715752409433));
#547=CARTESIAN_POINT('',(87.7157524094327,0.,116.715752409433));
#548=CARTESIAN_POINT('',(103.979208376723,0.,100.452296442142));
#549=CARTESIAN_POINT('',(91.2512863153655,0.,120.251286315365));
#550=CARTESIAN_POINT('',(91.2512863153655,0.,120.251286315365));
#551=CARTESIAN_POINT('',(116.000023656895,0.,95.5025489738363));
#552=CARTESIAN_POINT('',(87.7157524094328,0.,116.715752409433));
#553=CARTESIAN_POINT('',(112.464489750962,0.,91.9670150679036));
#554=CARTESIAN_POINT('',(91.2512863153655,0.,120.251286315365));
#555=CARTESIAN_POINT('',(87.7157524094328,0.,116.715752409433));
#556=CARTESIAN_POINT('',(21.,-22.,0.));
#557=CARTESIAN_POINT('',(21.,-22.,0.));
#558=CARTESIAN_POINT('',(30.,-22.,0.));
#559=CARTESIAN_POINT('',(21.,-22.,0.));
#560=CARTESIAN_POINT('',(-27.,0.,-24.));
#561=CARTESIAN_POINT('',(-27.,0.,-24.));
#562=CARTESIAN_POINT('',(-18.,0.,-24.));
#563=CARTESIAN_POINT('',(-27.,0.,-24.));
#564=MECHANICAL_DESIGN_GEOMETRIC_PRESENTATION_REPRESENTATION('',(#272),
#565);
#565=(
GEOMETRIC_REPRESENTATION_CONTEXT(3)
GLOBAL_UNCERTAINTY_ASSIGNED_CONTEXT((#566))
GLOBAL_UNIT_ASSIGNED_CONTEXT((#569,#568,#567))
REPRESENTATION_CONTEXT('07300032CH','TOP_LEVEL_ASSEMBLY_PART')
);
#566=UNCERTAINTY_MEASURE_WITH_UNIT(LENGTH_MEASURE(0.005),#569,
'DISTANCE_ACCURACY_VALUE','Maximum Tolerance applied to model');
#567=(
NAMED_UNIT(*)
SI_UNIT($,.STERADIAN.)
SOLID_ANGLE_UNIT()
);
#568=(
NAMED_UNIT(*)
PLANE_ANGLE_UNIT()
SI_UNIT($,.RADIAN.)
);
#569=(
LENGTH_UNIT()
NAMED_UNIT(*)
SI_UNIT(.MILLI.,.METRE.)
);
#570=PRODUCT_DEFINITION_SHAPE('','',#571);
#571=PRODUCT_DEFINITION('','',#573,#572);
#572=DESIGN_CONTEXT('',#579,'design');
#573=PRODUCT_DEFINITION_FORMATION_WITH_SPECIFIED_SOURCE('','',#575,
 .NOT_KNOWN.);
#574=PRODUCT_RELATED_PRODUCT_CATEGORY('','',(#575));
#575=PRODUCT('07300032CH','07300032CH','07300032CH',(#577));
#576=PRODUCT_CATEGORY('','');
#577=MECHANICAL_CONTEXT('',#579,'mechanical');
#578=APPLICATION_PROTOCOL_DEFINITION('international standard',
'config_control_design',2010,#579);
#579=APPLICATION_CONTEXT(
'configuration controlled 3D designs of mechanical parts and assemblie
s');
ENDSEC;
END-ISO-10303-21;
