ISO-10303-21;
HEADER;
FILE_DESCRIPTION (( 'STEP AP203' ),
    '1' );
FILE_NAME ('3D_R169_ DN69-44_17323230.STEP',
    '2024-07-17T12:34:07',
    ( '' ),
    ( '' ),
    'SwSTEP 2.0',
    'SolidWorks 2024',
    '' );
FILE_SCHEMA (( 'CONFIG_CONTROL_DESIGN' ));
ENDSEC;

DATA;
#1 = DIRECTION ( 'NONE',  ( 1.000000000000000000, 0.000000000000000000, 0.000000000000000000 ) ) ;
#2 = APPROVAL_PERSON_ORGANIZATION ( #212, #240, #42 ) ;
#3 = DATE_AND_TIME ( #135, #199 ) ;
#4 = PERSON_AND_ORGANIZATION_ROLE ( 'creator' ) ;
#5 = MANIFOLD_SOLID_BREP ( 'Wandung2', #101 ) ;
#6 = ADVANCED_FACE ( 'NONE', ( #68 ), #184, .F. ) ;
#7 = APPROVAL_STATUS ( 'not_yet_approved' ) ;
#8 = DIRECTION ( 'NONE',  ( 1.000000000000000000, 0.000000000000000000, 0.000000000000000000 ) ) ;
#9 = ORIENTED_EDGE ( 'NONE', *, *, #79, .T. ) ;
#10 = VERTEX_POINT ( 'NONE', #72 ) ;
#11 = ORIENTED_EDGE ( 'NONE', *, *, #202, .T. ) ;
#12 = VERTEX_POINT ( 'NONE', #139 ) ;
#13 = DIRECTION ( 'NONE',  ( 1.000000000000000000, 0.000000000000000000, 0.000000000000000000 ) ) ;
#14 = AXIS2_PLACEMENT_3D ( 'NONE', #211, #227, #36 ) ;
#15 =( LENGTH_UNIT ( ) NAMED_UNIT ( * ) SI_UNIT ( .MILLI., .METRE. ) );
#16 = EDGE_CURVE ( 'NONE', #183, #10, #194, .T. ) ;
#17 = AXIS2_PLACEMENT_3D ( 'NONE', #124, #30, #28 ) ;
#18 = CARTESIAN_POINT ( 'NONE',  ( 75.00000000000000000, 0.000000000000000000, 22.00000000000000000 ) ) ;
#19 = CARTESIAN_POINT ( 'NONE',  ( 75.00000000000000000, 0.000000000000000000, 0.000000000000000000 ) ) ;
#20 = PERSON_AND_ORGANIZATION_ROLE ( 'creator' ) ;
#21 = COORDINATED_UNIVERSAL_TIME_OFFSET ( 1, 0, .AHEAD. ) ;
#22 = CIRCLE ( 'NONE', #188, 22.00000000000000000 ) ;
#23 = DATE_TIME_ROLE ( 'classification_date' ) ;
#24 = COORDINATED_UNIVERSAL_TIME_OFFSET ( 1, 0, .AHEAD. ) ;
#25 = PERSON_AND_ORGANIZATION ( #217, #165 ) ;
#26 = CC_DESIGN_SECURITY_CLASSIFICATION ( #206, ( #243 ) ) ;
#27 = ORIENTED_EDGE ( 'NONE', *, *, #230, .F. ) ;
#28 = DIRECTION ( 'NONE',  ( 0.000000000000000000, 0.000000000000000000, -1.000000000000000000 ) ) ;
#29 = AXIS2_PLACEMENT_3D ( 'NONE', #19, #39, #166 ) ;
#30 = DIRECTION ( 'NONE',  ( 1.000000000000000000, 0.000000000000000000, 0.000000000000000000 ) ) ;
#31 = LINE ( 'NONE', #132, #248 ) ;
#32 = ADVANCED_FACE ( 'NONE', ( #224, #47 ), #185, .T. ) ;
#33 = VERTEX_POINT ( 'NONE', #87 ) ;
#34 = APPLICATION_CONTEXT ( 'configuration controlled 3d designs of mechanical parts and assemblies' ) ;
#35 = EDGE_CURVE ( 'NONE', #12, #52, #107, .T. ) ;
#36 = DIRECTION ( 'NONE',  ( 0.000000000000000000, 0.000000000000000000, -1.000000000000000000 ) ) ;
#37 = DIRECTION ( 'NONE',  ( 0.000000000000000000, 0.000000000000000000, -1.000000000000000000 ) ) ;
#38 = LOCAL_TIME ( 14, 34, 7.000000000000000000, #235 ) ;
#39 = DIRECTION ( 'NONE',  ( 1.000000000000000000, 0.000000000000000000, 0.000000000000000000 ) ) ;
#40 = DIRECTION ( 'NONE',  ( -0.9863939238321437486, 0.000000000000000000, 0.1643989873053572637 ) ) ;
#41 = APPROVAL_DATE_TIME ( #59, #240 ) ;
#42 = APPROVAL_ROLE ( '' ) ;
#43 = PERSON_AND_ORGANIZATION ( #217, #165 ) ;
#44 = EDGE_CURVE ( 'NONE', #10, #183, #164, .T. ) ;
#45 = PERSON_AND_ORGANIZATION_ROLE ( 'design_owner' ) ;
#46 = CC_DESIGN_APPROVAL ( #236, ( #206 ) ) ;
#47 = FACE_OUTER_BOUND ( 'NONE', #163, .T. ) ;
#48 = CARTESIAN_POINT ( 'NONE',  ( 75.00000000000000000, 0.000000000000000000, 19.97241248990059503 ) ) ;
#49 = ORIENTED_EDGE ( 'NONE', *, *, #53, .T. ) ;
#50 = ADVANCED_FACE ( 'NONE', ( #222 ), #167, .T. ) ;
#51 = CARTESIAN_POINT ( 'NONE',  ( 75.00000000000000000, 0.000000000000000000, 0.000000000000000000 ) ) ;
#52 = VERTEX_POINT ( 'NONE', #48 ) ;
#53 = EDGE_CURVE ( 'NONE', #238, #181, #31, .T. ) ;
#54 = FACE_OUTER_BOUND ( 'NONE', #88, .T. ) ;
#55 =( NAMED_UNIT ( * ) PLANE_ANGLE_UNIT ( ) SI_UNIT ( $, .RADIAN. ) );
#56 = CARTESIAN_POINT ( 'NONE',  ( 0.000000000000000000, 0.000000000000000000, 32.47241248990059148 ) ) ;
#57 = APPLICATION_CONTEXT ( 'configuration controlled 3d designs of mechanical parts and assemblies' ) ;
#58 = UNCERTAINTY_MEASURE_WITH_UNIT (LENGTH_MEASURE( 1.000000000000000082E-05 ), #15, 'distance_accuracy_value', 'NONE');
#59 = DATE_AND_TIME ( #174, #66 ) ;
#60 = CIRCLE ( 'NONE', #14, 19.97241248990059503 ) ;
#61 = APPROVAL_PERSON_ORGANIZATION ( #65, #147, #121 ) ;
#62 = COORDINATED_UNIVERSAL_TIME_OFFSET ( 1, 0, .AHEAD. ) ;
#63 = AXIS2_PLACEMENT_3D ( 'NONE', #99, #117, #246 ) ;
#64 = ORIENTED_EDGE ( 'NONE', *, *, #44, .F. ) ;
#65 = PERSON_AND_ORGANIZATION ( #217, #165 ) ;
#66 = LOCAL_TIME ( 14, 34, 7.000000000000000000, #21 ) ;
#67 = ORIENTED_EDGE ( 'NONE', *, *, #202, .F. ) ;
#68 = FACE_OUTER_BOUND ( 'NONE', #105, .T. ) ;
#69 = ORIENTED_EDGE ( 'NONE', *, *, #98, .F. ) ;
#70 = VECTOR ( 'NONE', #114, 1000.000000000000000 ) ;
#71 = CC_DESIGN_PERSON_AND_ORGANIZATION_ASSIGNMENT ( #86, #153, ( #206 ) ) ;
#72 = CARTESIAN_POINT ( 'NONE',  ( 0.000000000000000000, 3.976723601634929019E-15, -32.47241248990059148 ) ) ;
#73 = EDGE_LOOP ( 'NONE', ( #112, #219, #244, #64 ) ) ;
#74 = LINE ( 'NONE', #18, #70 ) ;
#75 = PRODUCT_DEFINITION ( 'UNKNOWN', '', #243, #213 ) ;
#76 = DIRECTION ( 'NONE',  ( 1.000000000000000000, 0.000000000000000000, 0.000000000000000000 ) ) ;
#77 = DIRECTION ( 'NONE',  ( 0.000000000000000000, 0.000000000000000000, 1.000000000000000000 ) ) ;
#78 = CARTESIAN_POINT ( 'NONE',  ( 75.00000000000000000, 0.000000000000000000, 0.000000000000000000 ) ) ;
#79 = EDGE_CURVE ( 'NONE', #238, #242, #136, .T. ) ;
#80 = LINE ( 'NONE', #189, #210 ) ;
#81 = AXIS2_PLACEMENT_3D ( 'NONE', #113, #134, #190 ) ;
#82 = CC_DESIGN_APPROVAL ( #240, ( #75 ) ) ;
#83 = APPROVAL_DATE_TIME ( #3, #147 ) ;
#84 = EDGE_CURVE ( 'NONE', #33, #181, #96, .T. ) ;
#85 = APPROVAL_ROLE ( '' ) ;
#86 = PERSON_AND_ORGANIZATION ( #217, #165 ) ;
#87 = CARTESIAN_POINT ( 'NONE',  ( 0.000000000000000000, -2.112515728529183672E-15, 34.49999999999999289 ) ) ;
#88 = EDGE_LOOP ( 'NONE', ( #129, #69, #11, #122 ) ) ;
#89 = ADVANCED_FACE ( 'NONE', ( #54 ), #195, .T. ) ;
#90 = ORIENTED_EDGE ( 'NONE', *, *, #79, .F. ) ;
#91 = ORIENTED_EDGE ( 'NONE', *, *, #35, .F. ) ;
#92 = LINE ( 'NONE', #149, #205 ) ;
#93 = PLANE ( 'NONE',  #94 ) ;
#94 = AXIS2_PLACEMENT_3D ( 'NONE', #208, #13, #37 ) ;
#95 = DIRECTION ( 'NONE',  ( -0.9863939238321437486, 2.013306935865721379E-17, -0.1643989873053572637 ) ) ;
#96 = CIRCLE ( 'NONE', #63, 34.49999999999999289 ) ;
#97 = CARTESIAN_POINT ( 'NONE',  ( 75.00000000000000000, 1.347111479062088405E-15, 22.00000000000000000 ) ) ;
#98 = EDGE_CURVE ( 'NONE', #242, #238, #22, .T. ) ;
#99 = CARTESIAN_POINT ( 'NONE',  ( 0.000000000000000000, 0.000000000000000000, 0.000000000000000000 ) ) ;
#100 = PERSON_AND_ORGANIZATION ( #217, #165 ) ;
#101 = CLOSED_SHELL ( 'NONE', ( #6, #50, #32, #182, #89, #221 ) ) ;
#102 = DATE_TIME_ROLE ( 'creation_date' ) ;
#103 = EDGE_CURVE ( 'NONE', #181, #33, #175, .T. ) ;
#104 = MECHANICAL_CONTEXT ( 'NONE', #34, 'mechanical' ) ;
#105 = EDGE_LOOP ( 'NONE', ( #234, #109, #179, #27 ) ) ;
#106 = DIRECTION ( 'NONE',  ( 0.000000000000000000, 0.000000000000000000, -1.000000000000000000 ) ) ;
#107 = CIRCLE ( 'NONE', #223, 19.97241248990059503 ) ;
#108 = CC_DESIGN_PERSON_AND_ORGANIZATION_ASSIGNMENT ( #43, #154, ( #243 ) ) ;
#109 = ORIENTED_EDGE ( 'NONE', *, *, #140, .T. ) ;
#110 = ORIENTED_EDGE ( 'NONE', *, *, #125, .F. ) ;
#111 = ORIENTED_EDGE ( 'NONE', *, *, #98, .T. ) ;
#112 = ORIENTED_EDGE ( 'NONE', *, *, #140, .F. ) ;
#113 = CARTESIAN_POINT ( 'NONE',  ( 0.000000000000000000, 0.000000000000000000, 0.000000000000000000 ) ) ;
#114 = DIRECTION ( 'NONE',  ( -0.9863939238321437486, 0.000000000000000000, 0.1643989873053572637 ) ) ;
#115 = FACE_OUTER_BOUND ( 'NONE', #73, .T. ) ;
#116 = CC_DESIGN_PERSON_AND_ORGANIZATION_ASSIGNMENT ( #25, #20, ( #243 ) ) ;
#117 = DIRECTION ( 'NONE',  ( 1.000000000000000000, 0.000000000000000000, 0.000000000000000000 ) ) ;
#118 = DATE_AND_TIME ( #196, #151 ) ;
#119 = PERSON_AND_ORGANIZATION ( #217, #165 ) ;
#120 = AXIS2_PLACEMENT_3D ( 'NONE', #51, #239, #220 ) ;
#121 = APPROVAL_ROLE ( '' ) ;
#122 = ORIENTED_EDGE ( 'NONE', *, *, #84, .T. ) ;
#123 = APPLICATION_PROTOCOL_DEFINITION ( 'international standard', 'config_control_design', 1994, #57 ) ;
#124 = CARTESIAN_POINT ( 'NONE',  ( 75.00000000000000000, 0.000000000000000000, 0.000000000000000000 ) ) ;
#125 = EDGE_CURVE ( 'NONE', #52, #12, #60, .T. ) ;
#126 = ORIENTED_EDGE ( 'NONE', *, *, #16, .T. ) ;
#127 = EDGE_LOOP ( 'NONE', ( #126, #145 ) ) ;
#128 = ORIENTED_EDGE ( 'NONE', *, *, #84, .F. ) ;
#129 = ORIENTED_EDGE ( 'NONE', *, *, #53, .F. ) ;
#130 = APPLICATION_PROTOCOL_DEFINITION ( 'international standard', 'config_control_design', 1994, #34 ) ;
#131 = CARTESIAN_POINT ( 'NONE',  ( 0.000000000000000000, 6.337547185587551806E-15, -34.49999999999999289 ) ) ;
#132 = CARTESIAN_POINT ( 'NONE',  ( 75.00000000000000000, 2.694222958124176809E-15, -22.00000000000000000 ) ) ;
#133 = AXIS2_PLACEMENT_3D ( 'NONE', #249, #1, #226 ) ;
#134 = DIRECTION ( 'NONE',  ( 0.000000000000000000, 0.000000000000000000, 1.000000000000000000 ) ) ;
#135 = CALENDAR_DATE ( 2024, 17, 7 ) ;
#136 = CIRCLE ( 'NONE', #29, 22.00000000000000000 ) ;
#137 = CALENDAR_DATE ( 2024, 17, 7 ) ;
#138 = APPROVAL_DATE_TIME ( #171, #236 ) ;
#139 = CARTESIAN_POINT ( 'NONE',  ( 75.00000000000000000, 3.211319352167833555E-15, -19.97241248990059503 ) ) ;
#140 = EDGE_CURVE ( 'NONE', #12, #10, #80, .T. ) ;
#141 = DIRECTION ( 'NONE',  ( 1.000000000000000000, 0.000000000000000000, 0.000000000000000000 ) ) ;
#142 = EDGE_LOOP ( 'NONE', ( #90, #49, #158, #67 ) ) ;
#143 = CARTESIAN_POINT ( 'NONE',  ( 0.000000000000000000, 0.000000000000000000, 0.000000000000000000 ) ) ;
#144 = CC_DESIGN_PERSON_AND_ORGANIZATION_ASSIGNMENT ( #231, #45, ( #156 ) ) ;
#145 = ORIENTED_EDGE ( 'NONE', *, *, #44, .T. ) ;
#146 = DIRECTION ( 'NONE',  ( -0.9863939238321437486, 2.013306935865721379E-17, -0.1643989873053572637 ) ) ;
#147 = APPROVAL ( #7, 'UNSPECIFIED' ) ;
#148 = AXIS2_PLACEMENT_3D ( 'NONE', #247, #192, #168 ) ;
#149 = CARTESIAN_POINT ( 'NONE',  ( 74.67120202538927742, 0.000000000000000000, 20.02721215233571428 ) ) ;
#150 = FACE_BOUND ( 'NONE', #127, .T. ) ;
#151 = LOCAL_TIME ( 14, 34, 7.000000000000000000, #62 ) ;
#152 =( GEOMETRIC_REPRESENTATION_CONTEXT ( 3 ) GLOBAL_UNCERTAINTY_ASSIGNED_CONTEXT ( ( #58 ) ) GLOBAL_UNIT_ASSIGNED_CONTEXT ( ( #15, #55, #186 ) ) REPRESENTATION_CONTEXT ( 'NONE', 'WORKASPACE' ) );
#153 = PERSON_AND_ORGANIZATION_ROLE ( 'classification_officer' ) ;
#154 = PERSON_AND_ORGANIZATION_ROLE ( 'design_supplier' ) ;
#155 = CC_DESIGN_PERSON_AND_ORGANIZATION_ASSIGNMENT ( #119, #4, ( #75 ) ) ;
#156 = PRODUCT ( '3D_R169_ DN69-44_17323230', '3D_R169_ DN69-44_17323230', '', ( #104 ) ) ;
#157 = CALENDAR_DATE ( 2024, 17, 7 ) ;
#158 = ORIENTED_EDGE ( 'NONE', *, *, #103, .T. ) ;
#159 = DIRECTION ( 'NONE',  ( 0.000000000000000000, 0.000000000000000000, 1.000000000000000000 ) ) ;
#160 = ORIENTED_EDGE ( 'NONE', *, *, #103, .F. ) ;
#161 = EDGE_LOOP ( 'NONE', ( #128, #160 ) ) ;
#162 = CC_DESIGN_DATE_AND_TIME_ASSIGNMENT ( #229, #23, ( #206 ) ) ;
#163 = EDGE_LOOP ( 'NONE', ( #111, #9 ) ) ;
#164 = CIRCLE ( 'NONE', #228, 32.47241248990059148 ) ;
#165 = ORGANIZATION ( 'UNSPECIFIED', 'UNSPECIFIED', '' ) ;
#166 = DIRECTION ( 'NONE',  ( 0.000000000000000000, 0.000000000000000000, -1.000000000000000000 ) ) ;
#167 = CONICAL_SURFACE ( 'NONE', #120, 22.00000000000000000, 0.1651486774146267988 ) ;
#168 = DIRECTION ( 'NONE',  ( 0.000000000000000000, 0.000000000000000000, 1.000000000000000000 ) ) ;
#169 = DIRECTION ( 'NONE',  ( 0.000000000000000000, 0.000000000000000000, -1.000000000000000000 ) ) ;
#170 = AXIS2_PLACEMENT_3D ( 'NONE', #245, #207, #77 ) ;
#171 = DATE_AND_TIME ( #137, #38 ) ;
#172 = AXIS2_PLACEMENT_3D ( 'NONE', #143, #141, #203 ) ;
#173 = LOCAL_TIME ( 14, 34, 7.000000000000000000, #232 ) ;
#174 = CALENDAR_DATE ( 2024, 17, 7 ) ;
#175 = CIRCLE ( 'NONE', #133, 34.49999999999999289 ) ;
#176 = CC_DESIGN_APPROVAL ( #147, ( #243 ) ) ;
#177 = CARTESIAN_POINT ( 'NONE',  ( 0.000000000000000000, 0.000000000000000000, 0.000000000000000000 ) ) ;
#178 = AXIS2_PLACEMENT_3D ( 'NONE', #201, #225, #159 ) ;
#179 = ORIENTED_EDGE ( 'NONE', *, *, #16, .F. ) ;
#180 = ADVANCED_BREP_SHAPE_REPRESENTATION ( '3D_R169_ DN69-44_17323230', ( #5, #81 ), #152 ) ;
#181 = VERTEX_POINT ( 'NONE', #131 ) ;
#182 = ADVANCED_FACE ( 'NONE', ( #150, #209 ), #93, .F. ) ;
#183 = VERTEX_POINT ( 'NONE', #56 ) ;
#184 = CONICAL_SURFACE ( 'NONE', #178, 20.02721215233571428, 0.1651486774146267988 ) ;
#185 = PLANE ( 'NONE',  #17 ) ;
#186 =( NAMED_UNIT ( * ) SI_UNIT ( $, .STERADIAN. ) SOLID_ANGLE_UNIT ( ) );
#187 = CARTESIAN_POINT ( 'NONE',  ( 75.00000000000000000, 1.347111479062088405E-15, -22.00000000000000000 ) ) ;
#188 = AXIS2_PLACEMENT_3D ( 'NONE', #78, #76, #169 ) ;
#189 = CARTESIAN_POINT ( 'NONE',  ( 74.67120202538927742, 2.452626125820290786E-15, -20.02721215233571428 ) ) ;
#190 = DIRECTION ( 'NONE',  ( 1.000000000000000000, 0.000000000000000000, 0.000000000000000000 ) ) ;
#191 = PRODUCT_RELATED_PRODUCT_CATEGORY ( 'detail', '', ( #156 ) ) ;
#192 = DIRECTION ( 'NONE',  ( -1.000000000000000000, -0.000000000000000000, -0.000000000000000000 ) ) ;
#193 = APPROVAL_STATUS ( 'not_yet_approved' ) ;
#194 = CIRCLE ( 'NONE', #172, 32.47241248990059148 ) ;
#195 = CONICAL_SURFACE ( 'NONE', #148, 22.00000000000000000, 0.1651486774146267988 ) ;
#196 = CALENDAR_DATE ( 2024, 17, 7 ) ;
#197 = CC_DESIGN_DATE_AND_TIME_ASSIGNMENT ( #118, #102, ( #75 ) ) ;
#198 = APPROVAL_STATUS ( 'not_yet_approved' ) ;
#199 = LOCAL_TIME ( 14, 34, 7.000000000000000000, #24 ) ;
#200 = DIRECTION ( 'NONE',  ( 1.000000000000000000, 0.000000000000000000, 0.000000000000000000 ) ) ;
#201 = CARTESIAN_POINT ( 'NONE',  ( 74.67120202538927742, 0.000000000000000000, 0.000000000000000000 ) ) ;
#202 = EDGE_CURVE ( 'NONE', #242, #33, #74, .T. ) ;
#203 = DIRECTION ( 'NONE',  ( 0.000000000000000000, 0.000000000000000000, -1.000000000000000000 ) ) ;
#204 = DIRECTION ( 'NONE',  ( 0.000000000000000000, 0.000000000000000000, -1.000000000000000000 ) ) ;
#205 = VECTOR ( 'NONE', #40, 1000.000000000000000 ) ;
#206 = SECURITY_CLASSIFICATION ( '', '', #214 ) ;
#207 = DIRECTION ( 'NONE',  ( -1.000000000000000000, -0.000000000000000000, -0.000000000000000000 ) ) ;
#208 = CARTESIAN_POINT ( 'NONE',  ( 0.000000000000000000, 0.000000000000000000, 0.000000000000000000 ) ) ;
#209 = FACE_OUTER_BOUND ( 'NONE', #161, .T. ) ;
#210 = VECTOR ( 'NONE', #146, 1000.000000000000000 ) ;
#211 = CARTESIAN_POINT ( 'NONE',  ( 75.00000000000000000, 0.000000000000000000, 0.000000000000000000 ) ) ;
#212 = PERSON_AND_ORGANIZATION ( #217, #165 ) ;
#213 = DESIGN_CONTEXT ( 'detailed design', #57, 'design' ) ;
#214 = SECURITY_CLASSIFICATION_LEVEL ( 'unclassified' ) ;
#215 = SHAPE_DEFINITION_REPRESENTATION ( #233, #180 ) ;
#216 = EDGE_LOOP ( 'NONE', ( #110, #91 ) ) ;
#217 = PERSON ( 'UNSPECIFIED', 'UNSPECIFIED', 'UNSPECIFIED', ('UNSPECIFIED'), ('UNSPECIFIED'), ('UNSPECIFIED') ) ;
#218 = APPROVAL_PERSON_ORGANIZATION ( #100, #236, #85 ) ;
#219 = ORIENTED_EDGE ( 'NONE', *, *, #35, .T. ) ;
#220 = DIRECTION ( 'NONE',  ( 0.000000000000000000, 0.000000000000000000, 1.000000000000000000 ) ) ;
#221 = ADVANCED_FACE ( 'NONE', ( #115 ), #237, .F. ) ;
#222 = FACE_OUTER_BOUND ( 'NONE', #142, .T. ) ;
#223 = AXIS2_PLACEMENT_3D ( 'NONE', #241, #200, #106 ) ;
#224 = FACE_BOUND ( 'NONE', #216, .T. ) ;
#225 = DIRECTION ( 'NONE',  ( -1.000000000000000000, -0.000000000000000000, -0.000000000000000000 ) ) ;
#226 = DIRECTION ( 'NONE',  ( 0.000000000000000000, 0.000000000000000000, -1.000000000000000000 ) ) ;
#227 = DIRECTION ( 'NONE',  ( 1.000000000000000000, 0.000000000000000000, 0.000000000000000000 ) ) ;
#228 = AXIS2_PLACEMENT_3D ( 'NONE', #177, #8, #204 ) ;
#229 = DATE_AND_TIME ( #157, #173 ) ;
#230 = EDGE_CURVE ( 'NONE', #52, #183, #92, .T. ) ;
#231 = PERSON_AND_ORGANIZATION ( #217, #165 ) ;
#232 = COORDINATED_UNIVERSAL_TIME_OFFSET ( 1, 0, .AHEAD. ) ;
#233 = PRODUCT_DEFINITION_SHAPE ( 'NONE', 'NONE',  #75 ) ;
#234 = ORIENTED_EDGE ( 'NONE', *, *, #125, .T. ) ;
#235 = COORDINATED_UNIVERSAL_TIME_OFFSET ( 1, 0, .AHEAD. ) ;
#236 = APPROVAL ( #198, 'UNSPECIFIED' ) ;
#237 = CONICAL_SURFACE ( 'NONE', #170, 20.02721215233571428, 0.1651486774146267988 ) ;
#238 = VERTEX_POINT ( 'NONE', #187 ) ;
#239 = DIRECTION ( 'NONE',  ( -1.000000000000000000, -0.000000000000000000, -0.000000000000000000 ) ) ;
#240 = APPROVAL ( #193, 'UNSPECIFIED' ) ;
#241 = CARTESIAN_POINT ( 'NONE',  ( 75.00000000000000000, 0.000000000000000000, 0.000000000000000000 ) ) ;
#242 = VERTEX_POINT ( 'NONE', #97 ) ;
#243 = PRODUCT_DEFINITION_FORMATION_WITH_SPECIFIED_SOURCE ( 'ANY', '', #156, .NOT_KNOWN. ) ;
#244 = ORIENTED_EDGE ( 'NONE', *, *, #230, .T. ) ;
#245 = CARTESIAN_POINT ( 'NONE',  ( 74.67120202538927742, 0.000000000000000000, 0.000000000000000000 ) ) ;
#246 = DIRECTION ( 'NONE',  ( 0.000000000000000000, 0.000000000000000000, -1.000000000000000000 ) ) ;
#247 = CARTESIAN_POINT ( 'NONE',  ( 75.00000000000000000, 0.000000000000000000, 0.000000000000000000 ) ) ;
#248 = VECTOR ( 'NONE', #95, 1000.000000000000000 ) ;
#249 = CARTESIAN_POINT ( 'NONE',  ( 0.000000000000000000, 0.000000000000000000, 0.000000000000000000 ) ) ;
ENDSEC;
END-ISO-10303-21;
