ISO-10303-21;
HEADER;
FILE_DESCRIPTION (( 'STEP AP203' ),
    '1' );
FILE_NAME ('3D_R365_60.3x3_173371117.STEP',
    '2024-07-16T06:19:58',
    ( '' ),
    ( '' ),
    'SwSTEP 2.0',
    'SolidWorks 2024',
    '' );
FILE_SCHEMA (( 'CONFIG_CONTROL_DESIGN' ));
ENDSEC;

DATA;
#1 = CIRCLE ( 'NONE', #17, 30.14999999999999858 ) ;
#2 = CIRCLE ( 'NONE', #138, 27.14999999999999858 ) ;
#3 = CARTESIAN_POINT ( 'NONE',  ( 0.000000000000000000, 5.666261501514544108, 0.000000000000000000 ) ) ;
#4 = CIRCLE ( 'NONE', #235, 6.045000000000005258 ) ;
#5 = DIRECTION ( 'NONE',  ( 4.596983092540343816E-18, 1.000000000000000000, -0.000000000000000000 ) ) ;
#6 = PERSON ( 'UNSPECIFIED', 'UNSPECIFIED', 'UNSPECIFIED', ('UNSPECIFIED'), ('UNSPECIFIED'), ('UNSPECIFIED') ) ;
#7 = EDGE_CURVE ( 'NONE', #226, #77, #380, .T. ) ;
#8 = EDGE_LOOP ( 'NONE', ( #388, #140 ) ) ;
#9 = EDGE_CURVE ( 'NONE', #257, #119, #14, .T. ) ;
#10 = ORIENTED_EDGE ( 'NONE', *, *, #156, .T. ) ;
#11 = EDGE_CURVE ( 'NONE', #348, #168, #327, .T. ) ;
#12 = VECTOR ( 'NONE', #5, 1000.000000000000000 ) ;
#13 = CARTESIAN_POINT ( 'NONE',  ( 5.264788935736865799E-15, 8.067322000866814946, 0.000000000000000000 ) ) ;
#14 = CIRCLE ( 'NONE', #350, 45.24000000000000909 ) ;
#15 = CARTESIAN_POINT ( 'NONE',  ( 9.236488298952508525E-16, 0.000000000000000000, 0.000000000000000000 ) ) ;
#16 = CARTESIAN_POINT ( 'NONE',  ( 9.236488298952508525E-16, 0.000000000000000000, 0.000000000000000000 ) ) ;
#17 = AXIS2_PLACEMENT_3D ( 'NONE', #240, #18, #242 ) ;
#18 = DIRECTION ( 'NONE',  ( 4.596983092540343816E-18, 1.000000000000000000, -0.000000000000000000 ) ) ;
#19 = CARTESIAN_POINT ( 'NONE',  ( 9.716086895034807543E-16, 10.43289884751930074, 0.000000000000000000 ) ) ;
#20 = ADVANCED_FACE ( 'NONE', ( #378 ), #237, .F. ) ;
#21 = PERSON_AND_ORGANIZATION ( #6, #96 ) ;
#22 = EDGE_LOOP ( 'NONE', ( #343, #330, #126 ) ) ;
#23 = DIRECTION ( 'NONE',  ( 0.000000000000000000, 0.000000000000000000, 1.000000000000000000 ) ) ;
#24 = CARTESIAN_POINT ( 'NONE',  ( 5.111675739641084306E-15, -25.23999999999999844, 0.000000000000000000 ) ) ;
#25 = CIRCLE ( 'NONE', #266, 3.045000000000006146 ) ;
#26 = CALENDAR_DATE ( 2024, 16, 7 ) ;
#27 = ORIENTED_EDGE ( 'NONE', *, *, #51, .F. ) ;
#28 = DIRECTION ( 'NONE',  ( 4.596983092540343816E-18, 1.000000000000000000, -0.000000000000000000 ) ) ;
#29 = CARTESIAN_POINT ( 'NONE',  ( -3.531688105597125663E-31, 5.666261501514466836, 0.000000000000000000 ) ) ;
#30 = DATE_AND_TIME ( #409, #382 ) ;
#31 = ORIENTED_EDGE ( 'NONE', *, *, #236, .F. ) ;
#32 = DIRECTION ( 'NONE',  ( -0.000000000000000000, 0.000000000000000000, -1.000000000000000000 ) ) ;
#33 = DATE_TIME_ROLE ( 'creation_date' ) ;
#34 = EDGE_LOOP ( 'NONE', ( #407, #298, #169, #309 ) ) ;
#35 = CARTESIAN_POINT ( 'NONE',  ( 1.387778780781445676E-14, 2817.965330118411202, 0.000000000000000000 ) ) ;
#36 = VECTOR ( 'NONE', #172, 1000.000000000000000 ) ;
#37 = FACE_OUTER_BOUND ( 'NONE', #89, .T. ) ;
#38 = EDGE_CURVE ( 'NONE', #179, #55, #104, .T. ) ;
#39 = AXIS2_PLACEMENT_3D ( 'NONE', #336, #246, #124 ) ;
#40 = EDGE_LOOP ( 'NONE', ( #47, #136, #173, #232 ) ) ;
#41 = CC_DESIGN_PERSON_AND_ORGANIZATION_ASSIGNMENT ( #278, #188, ( #392 ) ) ;
#42 = TOROIDAL_SURFACE ( 'NONE', #176, 24.10499999999999687, 6.045000000000006146 ) ;
#43 = ORIENTED_EDGE ( 'NONE', *, *, #320, .T. ) ;
#44 = ADVANCED_FACE ( 'NONE', ( #37 ), #131, .F. ) ;
#45 = AXIS2_PLACEMENT_3D ( 'NONE', #91, #223, #368 ) ;
#46 = DIRECTION ( 'NONE',  ( 4.596983092540343816E-18, 1.000000000000000000, -0.000000000000000000 ) ) ;
#47 = ORIENTED_EDGE ( 'NONE', *, *, #351, .F. ) ;
#48 = ADVANCED_FACE ( 'NONE', ( #385 ), #163, .F. ) ;
#49 = FACE_OUTER_BOUND ( 'NONE', #297, .T. ) ;
#50 = CARTESIAN_POINT ( 'NONE',  ( 2.549492195076296199E-15, 20.00000000000001066, 0.000000000000000000 ) ) ;
#51 = EDGE_CURVE ( 'NONE', #193, #55, #296, .T. ) ;
#52 = CARTESIAN_POINT ( 'NONE',  ( 5.111675739641084306E-15, -25.23999999999999844, 0.000000000000000000 ) ) ;
#53 = DIRECTION ( 'NONE',  ( 1.000000000000000000, 0.000000000000000000, 1.224646799147352714E-16 ) ) ;
#54 = PERSON_AND_ORGANIZATION ( #6, #96 ) ;
#55 = VERTEX_POINT ( 'NONE', #98 ) ;
#56 = FACE_OUTER_BOUND ( 'NONE', #92, .T. ) ;
#57 = AXIS2_PLACEMENT_3D ( 'NONE', #73, #229, #357 ) ;
#58 = FACE_OUTER_BOUND ( 'NONE', #22, .T. ) ;
#59 = DATE_AND_TIME ( #401, #341 ) ;
#60 = ORIENTED_EDGE ( 'NONE', *, *, #387, .F. ) ;
#61 = MECHANICAL_CONTEXT ( 'NONE', #265, 'mechanical' ) ;
#62 = DIRECTION ( 'NONE',  ( 4.596983092540343816E-18, 1.000000000000000000, -0.000000000000000000 ) ) ;
#63 = VECTOR ( 'NONE', #212, 1000.000000000000000 ) ;
#64 = PERSON_AND_ORGANIZATION_ROLE ( 'classification_officer' ) ;
#65 = DIRECTION ( 'NONE',  ( -1.000000000000000000, 0.000000000000000000, 0.000000000000000000 ) ) ;
#66 = FACE_OUTER_BOUND ( 'NONE', #389, .T. ) ;
#67 = LOCAL_TIME ( 8, 19, 58.00000000000000000, #275 ) ;
#68 = COORDINATED_UNIVERSAL_TIME_OFFSET ( 1, 0, .AHEAD. ) ;
#69 = DESIGN_CONTEXT ( 'detailed design', #294, 'design' ) ;
#70 = ORIENTED_EDGE ( 'NONE', *, *, #137, .T. ) ;
#71 = SPHERICAL_SURFACE ( 'NONE', #393, 42.24000000000000909 ) ;
#72 = MANIFOLD_SOLID_BREP ( 'Wandung1', #167 ) ;
#73 = CARTESIAN_POINT ( 'NONE',  ( 1.387778780781445676E-14, 2817.965330118411202, 0.000000000000000000 ) ) ;
#74 = ADVANCED_FACE ( 'NONE', ( #259 ), #100, .F. ) ;
#75 = CARTESIAN_POINT ( 'NONE',  ( -25.97768082663603906, 8.067322000866814946, 0.000000000000000000 ) ) ;
#76 = CIRCLE ( 'NONE', #130, 27.82268656716417965 ) ;
#77 = VERTEX_POINT ( 'NONE', #75 ) ;
#78 = EDGE_LOOP ( 'NONE', ( #402, #262, #183 ) ) ;
#79 = PRODUCT_DEFINITION_FORMATION_WITH_SPECIFIED_SOURCE ( 'ANY', '', #392, .NOT_KNOWN. ) ;
#80 = CIRCLE ( 'NONE', #362, 30.14999999999999858 ) ;
#81 = CARTESIAN_POINT ( 'NONE',  ( 9.716086895034807543E-16, 10.43289884751930074, 0.000000000000000000 ) ) ;
#82 = EDGE_CURVE ( 'NONE', #226, #135, #197, .T. ) ;
#83 = SPHERICAL_SURFACE ( 'NONE', #360, 42.24000000000000909 ) ;
#84 = CARTESIAN_POINT ( 'NONE',  ( 27.14999999999999858, -1.248080909624703066E-16, 3.324916059685063769E-15 ) ) ;
#85 = APPROVAL ( #155, 'UNSPECIFIED' ) ;
#86 = PERSON_AND_ORGANIZATION ( #6, #96 ) ;
#87 = CARTESIAN_POINT ( 'NONE',  ( 25.97768082663605327, 8.067322000866814946, 3.253132213523102566E-15 ) ) ;
#88 = EDGE_CURVE ( 'NONE', #348, #404, #205, .T. ) ;
#89 = EDGE_LOOP ( 'NONE', ( #353, #347, #148, #27 ) ) ;
#90 = CARTESIAN_POINT ( 'NONE',  ( 0.000000000000000000, 5.666261501514544108, 0.000000000000000000 ) ) ;
#91 = CARTESIAN_POINT ( 'NONE',  ( 0.000000000000000000, 5.666261501514544108, 0.000000000000000000 ) ) ;
#92 = EDGE_LOOP ( 'NONE', ( #199, #10, #358, #370 ) ) ;
#93 = DIRECTION ( 'NONE',  ( -1.224646799147353207E-16, 5.629680630014033300E-34, 1.000000000000000000 ) ) ;
#94 = CARTESIAN_POINT ( 'NONE',  ( 27.82268656716418320, 10.43289884751930074, 3.549803252122518641E-15 ) ) ;
#95 = DIRECTION ( 'NONE',  ( 1.000000000000000000, 0.000000000000000000, 1.224646799147353207E-16 ) ) ;
#96 = ORGANIZATION ( 'UNSPECIFIED', 'UNSPECIFIED', '' ) ;
#97 = EDGE_CURVE ( 'NONE', #77, #226, #252, .T. ) ;
#98 = CARTESIAN_POINT ( 'NONE',  ( -27.15000000000000568, 5.666261501514466836, 0.000000000000000000 ) ) ;
#99 = CIRCLE ( 'NONE', #39, 30.14999999999999503 ) ;
#100 = CYLINDRICAL_SURFACE ( 'NONE', #57, 27.14999999999999858 ) ;
#101 = EDGE_LOOP ( 'NONE', ( #31, #248, #338, #290 ) ) ;
#102 = VERTEX_POINT ( 'NONE', #84 ) ;
#103 = CC_DESIGN_APPROVAL ( #111, ( #233 ) ) ;
#104 = CIRCLE ( 'NONE', #215, 27.15000000000000568 ) ;
#105 = PRODUCT_DEFINITION_SHAPE ( 'NONE', 'NONE',  #233 ) ;
#106 = AXIS2_PLACEMENT_3D ( 'NONE', #211, #112, #272 ) ;
#107 = EDGE_CURVE ( 'NONE', #284, #257, #76, .T. ) ;
#108 = CARTESIAN_POINT ( 'NONE',  ( -30.14999999999998082, 2817.965330118411202, 0.000000000000000000 ) ) ;
#109 = DIRECTION ( 'NONE',  ( -1.000000000000000000, 4.596983092540343816E-18, 0.000000000000000000 ) ) ;
#110 = DIRECTION ( 'NONE',  ( -1.000000000000000000, 0.000000000000000000, 0.000000000000000000 ) ) ;
#111 = APPROVAL ( #192, 'UNSPECIFIED' ) ;
#112 = DIRECTION ( 'NONE',  ( -0.000000000000000000, 0.000000000000000000, -1.000000000000000000 ) ) ;
#113 = COORDINATED_UNIVERSAL_TIME_OFFSET ( 1, 0, .AHEAD. ) ;
#114 = ADVANCED_FACE ( 'NONE', ( #207 ), #335, .T. ) ;
#115 = CARTESIAN_POINT ( 'NONE',  ( -30.14999999999999503, 1.385990402400913442E-16, 0.000000000000000000 ) ) ;
#116 = ORIENTED_EDGE ( 'NONE', *, *, #9, .F. ) ;
#117 = LINE ( 'NONE', #276, #213 ) ;
#118 = PLANE ( 'NONE',  #204 ) ;
#119 = VERTEX_POINT ( 'NONE', #50 ) ;
#120 = DIRECTION ( 'NONE',  ( 1.000000000000000000, -4.596983092540343816E-18, 0.000000000000000000 ) ) ;
#121 = PERSON_AND_ORGANIZATION_ROLE ( 'creator' ) ;
#122 = DIRECTION ( 'NONE',  ( 4.596983092540343816E-18, 1.000000000000000000, -0.000000000000000000 ) ) ;
#123 = ADVANCED_FACE ( 'NONE', ( #333 ), #269, .T. ) ;
#124 = DIRECTION ( 'NONE',  ( -1.000000000000000000, 4.596983092540343816E-18, 0.000000000000000000 ) ) ;
#125 = APPROVAL_DATE_TIME ( #30, #244 ) ;
#126 = ORIENTED_EDGE ( 'NONE', *, *, #308, .F. ) ;
#127 = CC_DESIGN_PERSON_AND_ORGANIZATION_ASSIGNMENT ( #406, #64, ( #225 ) ) ;
#128 = APPROVAL_PERSON_ORGANIZATION ( #369, #244, #182 ) ;
#129 = CIRCLE ( 'NONE', #221, 6.045000000000005258 ) ;
#130 = AXIS2_PLACEMENT_3D ( 'NONE', #81, #394, #300 ) ;
#131 = CYLINDRICAL_SURFACE ( 'NONE', #324, 27.14999999999999858 ) ;
#132 = CIRCLE ( 'NONE', #295, 27.15000000000000568 ) ;
#133 = DIRECTION ( 'NONE',  ( 4.596983092540343816E-18, 1.000000000000000000, -0.000000000000000000 ) ) ;
#134 = LOCAL_TIME ( 8, 19, 58.00000000000000000, #68 ) ;
#135 = VERTEX_POINT ( 'NONE', #303 ) ;
#136 = ORIENTED_EDGE ( 'NONE', *, *, #137, .F. ) ;
#137 = EDGE_CURVE ( 'NONE', #193, #102, #2, .T. ) ;
#138 = AXIS2_PLACEMENT_3D ( 'NONE', #16, #273, #399 ) ;
#139 = DIRECTION ( 'NONE',  ( 4.596983092540343816E-18, 1.000000000000000000, -0.000000000000000000 ) ) ;
#140 = ORIENTED_EDGE ( 'NONE', *, *, #187, .F. ) ;
#141 = AXIS2_PLACEMENT_3D ( 'NONE', #189, #122, #255 ) ;
#142 = DIRECTION ( 'NONE',  ( 0.000000000000000000, 0.000000000000000000, 1.000000000000000000 ) ) ;
#143 = LOCAL_TIME ( 8, 19, 58.00000000000000000, #366 ) ;
#144 = CARTESIAN_POINT ( 'NONE',  ( 1.387778780781445676E-14, 2817.965330118411202, 0.000000000000000000 ) ) ;
#145 = PERSON_AND_ORGANIZATION_ROLE ( 'design_supplier' ) ;
#146 = DIRECTION ( 'NONE',  ( -1.000000000000000000, 0.000000000000000000, 0.000000000000000000 ) ) ;
#147 = CARTESIAN_POINT ( 'NONE',  ( 30.15000000000000924, 2817.965330118411202, 3.692310099429269608E-15 ) ) ;
#148 = ORIENTED_EDGE ( 'NONE', *, *, #38, .T. ) ;
#149 = CIRCLE ( 'NONE', #166, 3.045000000000006146 ) ;
#150 = DIRECTION ( 'NONE',  ( -4.596983092540343816E-18, -1.000000000000000000, 0.000000000000000000 ) ) ;
#151 = APPROVAL_ROLE ( '' ) ;
#152 = ORIENTED_EDGE ( 'NONE', *, *, #97, .F. ) ;
#153 = DIRECTION ( 'NONE',  ( 1.000000000000000000, -4.596983092540343046E-18, 0.000000000000000000 ) ) ;
#154 = CARTESIAN_POINT ( 'NONE',  ( -24.10499999999999687, 5.666261501514544108, 0.000000000000000000 ) ) ;
#155 = APPROVAL_STATUS ( 'not_yet_approved' ) ;
#156 = EDGE_CURVE ( 'NONE', #206, #257, #129, .T. ) ;
#157 = CARTESIAN_POINT ( 'NONE',  ( 5.264788935736865799E-15, 8.067322000866814946, 0.000000000000000000 ) ) ;
#158 = PERSON_AND_ORGANIZATION ( #6, #96 ) ;
#159 = ORIENTED_EDGE ( 'NONE', *, *, #187, .T. ) ;
#160 = EDGE_CURVE ( 'NONE', #55, #77, #149, .T. ) ;
#161 = EDGE_CURVE ( 'NONE', #77, #135, #238, .T. ) ;
#162 = CIRCLE ( 'NONE', #391, 27.14999999999999858 ) ;
#163 = TOROIDAL_SURFACE ( 'NONE', #293, 24.10499999999999687, 3.045000000000006146 ) ;
#164 = DIRECTION ( 'NONE',  ( -1.000000000000000000, 0.000000000000000000, 0.000000000000000000 ) ) ;
#165 = CARTESIAN_POINT ( 'NONE',  ( -3.531688105597125663E-31, 5.666261501514466836, 0.000000000000000000 ) ) ;
#166 = AXIS2_PLACEMENT_3D ( 'NONE', #154, #379, #408 ) ;
#167 = CLOSED_SHELL ( 'NONE', ( #170, #20, #44, #260, #405, #123, #217, #114, #195, #291, #74, #48, #376 ) ) ;
#168 = VERTEX_POINT ( 'NONE', #289 ) ;
#169 = ORIENTED_EDGE ( 'NONE', *, *, #7, .T. ) ;
#170 = ADVANCED_FACE ( 'NONE', ( #354 ), #71, .F. ) ;
#171 = ADVANCED_BREP_SHAPE_REPRESENTATION ( '3D_R365_60.3x3_173371117', ( #72, #271 ), #329 ) ;
#172 = DIRECTION ( 'NONE',  ( 4.596983092540343816E-18, 1.000000000000000000, -0.000000000000000000 ) ) ;
#173 = ORIENTED_EDGE ( 'NONE', *, *, #51, .T. ) ;
#174 = DIRECTION ( 'NONE',  ( 4.596983092540343816E-18, 1.000000000000000000, -0.000000000000000000 ) ) ;
#175 = DIRECTION ( 'NONE',  ( -0.000000000000000000, 0.000000000000000000, -1.000000000000000000 ) ) ;
#176 = AXIS2_PLACEMENT_3D ( 'NONE', #90, #396, #109 ) ;
#177 = DIRECTION ( 'NONE',  ( -1.000000000000000000, 0.000000000000000000, 0.000000000000000000 ) ) ;
#178 = DATE_AND_TIME ( #283, #134 ) ;
#179 = VERTEX_POINT ( 'NONE', #250 ) ;
#180 = AXIS2_PLACEMENT_3D ( 'NONE', #198, #364, #365 ) ;
#181 = DIRECTION ( 'NONE',  ( -1.000000000000000000, 0.000000000000000000, 0.000000000000000000 ) ) ;
#182 = APPROVAL_ROLE ( '' ) ;
#183 = ORIENTED_EDGE ( 'NONE', *, *, #161, .F. ) ;
#184 = CIRCLE ( 'NONE', #106, 45.24000000000000909 ) ;
#185 = APPLICATION_PROTOCOL_DEFINITION ( 'international standard', 'config_control_design', 1994, #265 ) ;
#186 = SPHERICAL_SURFACE ( 'NONE', #258, 45.24000000000000909 ) ;
#187 = EDGE_CURVE ( 'NONE', #168, #348, #99, .T. ) ;
#188 = PERSON_AND_ORGANIZATION_ROLE ( 'design_owner' ) ;
#189 = CARTESIAN_POINT ( 'NONE',  ( 9.236488298952508525E-16, 0.000000000000000000, 0.000000000000000000 ) ) ;
#190 = CC_DESIGN_SECURITY_CLASSIFICATION ( #225, ( #79 ) ) ;
#191 = CARTESIAN_POINT ( 'NONE',  ( 30.15000000000000213, 5.666261501514391341, 3.692310099429270397E-15 ) ) ;
#192 = APPROVAL_STATUS ( 'not_yet_approved' ) ;
#193 = VERTEX_POINT ( 'NONE', #194 ) ;
#194 = CARTESIAN_POINT ( 'NONE',  ( -27.14999999999999858, 1.248080909624703066E-16, 0.000000000000000000 ) ) ;
#195 = ADVANCED_FACE ( 'NONE', ( #400 ), #279, .T. ) ;
#196 = DIRECTION ( 'NONE',  ( 4.596983092540343816E-18, 1.000000000000000000, -0.000000000000000000 ) ) ;
#197 = CIRCLE ( 'NONE', #180, 42.24000000000000909 ) ;
#198 = CARTESIAN_POINT ( 'NONE',  ( 5.111675739641084306E-15, -25.23999999999999844, 0.000000000000000000 ) ) ;
#199 = ORIENTED_EDGE ( 'NONE', *, *, #387, .T. ) ;
#200 = EDGE_CURVE ( 'NONE', #257, #284, #331, .T. ) ;
#201 = ORIENTED_EDGE ( 'NONE', *, *, #82, .F. ) ;
#202 = CC_DESIGN_APPROVAL ( #244, ( #79 ) ) ;
#203 = CC_DESIGN_PERSON_AND_ORGANIZATION_ASSIGNMENT ( #158, #145, ( #79 ) ) ;
#204 = AXIS2_PLACEMENT_3D ( 'NONE', #318, #150, #120 ) ;
#205 = LINE ( 'NONE', #108, #36 ) ;
#206 = VERTEX_POINT ( 'NONE', #191 ) ;
#207 = FACE_OUTER_BOUND ( 'NONE', #314, .T. ) ;
#208 =( NAMED_UNIT ( * ) SI_UNIT ( $, .STERADIAN. ) SOLID_ANGLE_UNIT ( ) );
#209 = APPLICATION_PROTOCOL_DEFINITION ( 'international standard', 'config_control_design', 1994, #294 ) ;
#210 = CC_DESIGN_DATE_AND_TIME_ASSIGNMENT ( #312, #337, ( #225 ) ) ;
#211 = CARTESIAN_POINT ( 'NONE',  ( 5.111675739641084306E-15, -25.23999999999999844, 0.000000000000000000 ) ) ;
#212 = DIRECTION ( 'NONE',  ( 4.596983092540343816E-18, 1.000000000000000000, -0.000000000000000000 ) ) ;
#213 = VECTOR ( 'NONE', #281, 1000.000000000000000 ) ;
#214 = ORIENTED_EDGE ( 'NONE', *, *, #156, .F. ) ;
#215 = AXIS2_PLACEMENT_3D ( 'NONE', #165, #386, #356 ) ;
#216 =( NAMED_UNIT ( * ) PLANE_ANGLE_UNIT ( ) SI_UNIT ( $, .RADIAN. ) );
#217 = ADVANCED_FACE ( 'NONE', ( #311, #218 ), #118, .T. ) ;
#218 = FACE_OUTER_BOUND ( 'NONE', #8, .T. ) ;
#219 = CALENDAR_DATE ( 2024, 16, 7 ) ;
#220 = ORIENTED_EDGE ( 'NONE', *, *, #299, .F. ) ;
#221 = AXIS2_PLACEMENT_3D ( 'NONE', #315, #322, #53 ) ;
#222 = CARTESIAN_POINT ( 'NONE',  ( 5.111675739641084306E-15, -25.23999999999999844, 0.000000000000000000 ) ) ;
#223 = DIRECTION ( 'NONE',  ( 4.596983092540343816E-18, 1.000000000000000000, -0.000000000000000000 ) ) ;
#224 = PERSON_AND_ORGANIZATION ( #6, #96 ) ;
#225 = SECURITY_CLASSIFICATION ( '', '', #247 ) ;
#226 = VERTEX_POINT ( 'NONE', #87 ) ;
#227 = CARTESIAN_POINT ( 'NONE',  ( 24.10499999999999687, 5.666261501514544108, 2.952011109344694643E-15 ) ) ;
#228 = DIRECTION ( 'NONE',  ( -1.000000000000000000, 4.596983092540343816E-18, 0.000000000000000000 ) ) ;
#229 = DIRECTION ( 'NONE',  ( 4.596983092540343816E-18, 1.000000000000000000, -0.000000000000000000 ) ) ;
#230 = EDGE_CURVE ( 'NONE', #168, #206, #254, .T. ) ;
#231 = ORIENTED_EDGE ( 'NONE', *, *, #332, .T. ) ;
#232 = ORIENTED_EDGE ( 'NONE', *, *, #267, .T. ) ;
#233 = PRODUCT_DEFINITION ( 'UNKNOWN', '', #79, #69 ) ;
#234 = EDGE_LOOP ( 'NONE', ( #301, #411, #60, #381 ) ) ;
#235 = AXIS2_PLACEMENT_3D ( 'NONE', #339, #175, #146 ) ;
#236 = EDGE_CURVE ( 'NONE', #179, #226, #25, .T. ) ;
#237 = TOROIDAL_SURFACE ( 'NONE', #373, 24.10499999999999687, 3.045000000000006146 ) ;
#238 = CIRCLE ( 'NONE', #313, 42.24000000000000909 ) ;
#239 = DIRECTION ( 'NONE',  ( -1.000000000000000000, 0.000000000000000000, 0.000000000000000000 ) ) ;
#240 = CARTESIAN_POINT ( 'NONE',  ( 9.496965382156252894E-16, 5.666261501514391341, 0.000000000000000000 ) ) ;
#241 = DIRECTION ( 'NONE',  ( -1.000000000000000000, 0.000000000000000000, 0.000000000000000000 ) ) ;
#242 = DIRECTION ( 'NONE',  ( -1.000000000000000000, 0.000000000000000000, 0.000000000000000000 ) ) ;
#243 = APPROVAL_DATE_TIME ( #59, #111 ) ;
#244 = APPROVAL ( #345, 'UNSPECIFIED' ) ;
#245 = CARTESIAN_POINT ( 'NONE',  ( 0.000000000000000000, 0.000000000000000000, 0.000000000000000000 ) ) ;
#246 = DIRECTION ( 'NONE',  ( 4.596983092540343816E-18, 1.000000000000000000, -0.000000000000000000 ) ) ;
#247 = SECURITY_CLASSIFICATION_LEVEL ( 'unclassified' ) ;
#248 = ORIENTED_EDGE ( 'NONE', *, *, #267, .F. ) ;
#249 = CARTESIAN_POINT ( 'NONE',  ( 9.496965382156252894E-16, 5.666261501514391341, 0.000000000000000000 ) ) ;
#250 = CARTESIAN_POINT ( 'NONE',  ( 27.15000000000000568, 5.666261501514466836, 3.324916059685064558E-15 ) ) ;
#251 = EDGE_LOOP ( 'NONE', ( #70, #231 ) ) ;
#252 = CIRCLE ( 'NONE', #307, 25.97768082663604616 ) ;
#253 = DIRECTION ( 'NONE',  ( 0.000000000000000000, 0.000000000000000000, 1.000000000000000000 ) ) ;
#254 = LINE ( 'NONE', #147, #63 ) ;
#255 = DIRECTION ( 'NONE',  ( -1.000000000000000000, 4.596983092540343816E-18, 0.000000000000000000 ) ) ;
#256 = DIRECTION ( 'NONE',  ( -1.000000000000000000, 0.000000000000000000, 0.000000000000000000 ) ) ;
#257 = VERTEX_POINT ( 'NONE', #94 ) ;
#258 = AXIS2_PLACEMENT_3D ( 'NONE', #24, #282, #256 ) ;
#259 = FACE_OUTER_BOUND ( 'NONE', #40, .T. ) ;
#260 = ADVANCED_FACE ( 'NONE', ( #58 ), #186, .T. ) ;
#261 = CARTESIAN_POINT ( 'NONE',  ( 0.000000000000000000, 5.666261501514544108, 0.000000000000000000 ) ) ;
#262 = ORIENTED_EDGE ( 'NONE', *, *, #82, .T. ) ;
#263 = ORIENTED_EDGE ( 'NONE', *, *, #308, .T. ) ;
#264 = AXIS2_PLACEMENT_3D ( 'NONE', #144, #46, #241 ) ;
#265 = APPLICATION_CONTEXT ( 'configuration controlled 3d designs of mechanical parts and assemblies' ) ;
#266 = AXIS2_PLACEMENT_3D ( 'NONE', #227, #340, #95 ) ;
#267 = EDGE_CURVE ( 'NONE', #55, #179, #132, .T. ) ;
#268 = DIRECTION ( 'NONE',  ( -1.000000000000000000, 0.000000000000000000, 0.000000000000000000 ) ) ;
#269 = CYLINDRICAL_SURFACE ( 'NONE', #361, 30.14999999999999503 ) ;
#270 = EDGE_LOOP ( 'NONE', ( #214, #326, #43, #374 ) ) ;
#271 = AXIS2_PLACEMENT_3D ( 'NONE', #245, #253, #367 ) ;
#272 = DIRECTION ( 'NONE',  ( -1.000000000000000000, 0.000000000000000000, 0.000000000000000000 ) ) ;
#273 = DIRECTION ( 'NONE',  ( 4.596983092540343816E-18, 1.000000000000000000, -0.000000000000000000 ) ) ;
#274 = CC_DESIGN_PERSON_AND_ORGANIZATION_ASSIGNMENT ( #224, #121, ( #233 ) ) ;
#275 = COORDINATED_UNIVERSAL_TIME_OFFSET ( 1, 0, .AHEAD. ) ;
#276 = CARTESIAN_POINT ( 'NONE',  ( 27.15000000000000924, 2817.965330118411202, 3.324916059685063769E-15 ) ) ;
#277 = CARTESIAN_POINT ( 'NONE',  ( 5.111675739641084306E-15, -25.23999999999999844, 0.000000000000000000 ) ) ;
#278 = PERSON_AND_ORGANIZATION ( #6, #96 ) ;
#279 = TOROIDAL_SURFACE ( 'NONE', #45, 24.10499999999999687, 6.045000000000006146 ) ;
#280 = ORIENTED_EDGE ( 'NONE', *, *, #88, .T. ) ;
#281 = DIRECTION ( 'NONE',  ( 4.596983092540343816E-18, 1.000000000000000000, -0.000000000000000000 ) ) ;
#282 = DIRECTION ( 'NONE',  ( 0.000000000000000000, 0.000000000000000000, 1.000000000000000000 ) ) ;
#283 = CALENDAR_DATE ( 2024, 16, 7 ) ;
#284 = VERTEX_POINT ( 'NONE', #349 ) ;
#285 =( LENGTH_UNIT ( ) NAMED_UNIT ( * ) SI_UNIT ( .MILLI., .METRE. ) );
#286 = CARTESIAN_POINT ( 'NONE',  ( 5.111675739641084306E-15, -25.23999999999999844, 0.000000000000000000 ) ) ;
#287 = APPROVAL_DATE_TIME ( #178, #85 ) ;
#288 = ORIENTED_EDGE ( 'NONE', *, *, #161, .T. ) ;
#289 = CARTESIAN_POINT ( 'NONE',  ( 30.14999999999999503, -1.385990402400913442E-16, 3.692310099429269608E-15 ) ) ;
#290 = ORIENTED_EDGE ( 'NONE', *, *, #97, .T. ) ;
#291 = ADVANCED_FACE ( 'NONE', ( #66 ), #310, .T. ) ;
#292 = APPROVAL_PERSON_ORGANIZATION ( #86, #111, #319 ) ;
#293 = AXIS2_PLACEMENT_3D ( 'NONE', #3, #133, #325 ) ;
#294 = APPLICATION_CONTEXT ( 'configuration controlled 3d designs of mechanical parts and assemblies' ) ;
#295 = AXIS2_PLACEMENT_3D ( 'NONE', #29, #403, #344 ) ;
#296 = LINE ( 'NONE', #383, #12 ) ;
#297 = EDGE_LOOP ( 'NONE', ( #201, #152, #288 ) ) ;
#298 = ORIENTED_EDGE ( 'NONE', *, *, #236, .T. ) ;
#299 = EDGE_CURVE ( 'NONE', #206, #404, #80, .T. ) ;
#300 = DIRECTION ( 'NONE',  ( -1.000000000000000000, 0.000000000000000000, 0.000000000000000000 ) ) ;
#301 = ORIENTED_EDGE ( 'NONE', *, *, #11, .T. ) ;
#302 = CC_DESIGN_DATE_AND_TIME_ASSIGNMENT ( #316, #33, ( #233 ) ) ;
#303 = CARTESIAN_POINT ( 'NONE',  ( 2.719398265670778179E-15, 17.00000000000000711, 0.000000000000000000 ) ) ;
#304 = DIRECTION ( 'NONE',  ( -1.000000000000000000, 0.000000000000000000, 0.000000000000000000 ) ) ;
#305 = DIRECTION ( 'NONE',  ( -1.000000000000000000, 0.000000000000000000, 0.000000000000000000 ) ) ;
#307 = AXIS2_PLACEMENT_3D ( 'NONE', #13, #139, #239 ) ;
#306 = SHAPE_DEFINITION_REPRESENTATION ( #105, #171 ) ;
#308 = EDGE_CURVE ( 'NONE', #284, #119, #184, .T. ) ;
#309 = ORIENTED_EDGE ( 'NONE', *, *, #160, .F. ) ;
#310 = SPHERICAL_SURFACE ( 'NONE', #346, 45.24000000000000909 ) ;
#311 = FACE_BOUND ( 'NONE', #251, .T. ) ;
#312 = DATE_AND_TIME ( #26, #67 ) ;
#313 = AXIS2_PLACEMENT_3D ( 'NONE', #286, #32, #177 ) ;
#314 = EDGE_LOOP ( 'NONE', ( #359, #159, #280, #220 ) ) ;
#315 = CARTESIAN_POINT ( 'NONE',  ( 24.10499999999999687, 5.666261501514544108, 2.952011109344694643E-15 ) ) ;
#316 = DATE_AND_TIME ( #219, #143 ) ;
#317 = DIRECTION ( 'NONE',  ( 1.000000000000000000, 0.000000000000000000, 1.224646799147353207E-16 ) ) ;
#318 = CARTESIAN_POINT ( 'NONE',  ( -3.185687223130093252E-34, -6.929952012004567209E-17, 0.000000000000000000 ) ) ;
#319 = APPROVAL_ROLE ( '' ) ;
#320 = EDGE_CURVE ( 'NONE', #404, #284, #4, .T. ) ;
#321 = ORIENTED_EDGE ( 'NONE', *, *, #200, .T. ) ;
#322 = DIRECTION ( 'NONE',  ( -1.224646799147353207E-16, 5.629680630014033300E-34, 1.000000000000000000 ) ) ;
#323 = DIRECTION ( 'NONE',  ( 4.596983092540343816E-18, 1.000000000000000000, -0.000000000000000000 ) ) ;
#324 = AXIS2_PLACEMENT_3D ( 'NONE', #35, #196, #164 ) ;
#325 = DIRECTION ( 'NONE',  ( -1.000000000000000000, 4.596983092540343816E-18, 0.000000000000000000 ) ) ;
#326 = ORIENTED_EDGE ( 'NONE', *, *, #299, .T. ) ;
#327 = CIRCLE ( 'NONE', #141, 30.14999999999999503 ) ;
#328 = APPROVAL_PERSON_ORGANIZATION ( #54, #85, #151 ) ;
#329 =( GEOMETRIC_REPRESENTATION_CONTEXT ( 3 ) GLOBAL_UNCERTAINTY_ASSIGNED_CONTEXT ( ( #410 ) ) GLOBAL_UNIT_ASSIGNED_CONTEXT ( ( #285, #216, #208 ) ) REPRESENTATION_CONTEXT ( 'NONE', 'WORKASPACE' ) );
#330 = ORIENTED_EDGE ( 'NONE', *, *, #9, .T. ) ;
#331 = CIRCLE ( 'NONE', #384, 27.82268656716417965 ) ;
#332 = EDGE_CURVE ( 'NONE', #102, #193, #162, .T. ) ;
#333 = FACE_OUTER_BOUND ( 'NONE', #234, .T. ) ;
#334 = CARTESIAN_POINT ( 'NONE',  ( 5.111675739641084306E-15, -25.23999999999999844, 0.000000000000000000 ) ) ;
#335 = CYLINDRICAL_SURFACE ( 'NONE', #264, 30.14999999999999503 ) ;
#336 = CARTESIAN_POINT ( 'NONE',  ( 9.236488298952508525E-16, 0.000000000000000000, 0.000000000000000000 ) ) ;
#337 = DATE_TIME_ROLE ( 'classification_date' ) ;
#338 = ORIENTED_EDGE ( 'NONE', *, *, #160, .T. ) ;
#339 = CARTESIAN_POINT ( 'NONE',  ( -24.10499999999999687, 5.666261501514544108, 0.000000000000000000 ) ) ;
#340 = DIRECTION ( 'NONE',  ( -1.224646799147353207E-16, 5.629680630014033300E-34, 1.000000000000000000 ) ) ;
#341 = LOCAL_TIME ( 8, 19, 58.00000000000000000, #113 ) ;
#342 = PERSON_AND_ORGANIZATION_ROLE ( 'creator' ) ;
#343 = ORIENTED_EDGE ( 'NONE', *, *, #107, .T. ) ;
#344 = DIRECTION ( 'NONE',  ( -1.000000000000000000, 0.000000000000000000, 0.000000000000000000 ) ) ;
#345 = APPROVAL_STATUS ( 'not_yet_approved' ) ;
#346 = AXIS2_PLACEMENT_3D ( 'NONE', #52, #142, #181 ) ;
#347 = ORIENTED_EDGE ( 'NONE', *, *, #351, .T. ) ;
#348 = VERTEX_POINT ( 'NONE', #115 ) ;
#349 = CARTESIAN_POINT ( 'NONE',  ( -27.82268656716417965, 10.43289884751930074, 0.000000000000000000 ) ) ;
#350 = AXIS2_PLACEMENT_3D ( 'NONE', #222, #93, #317 ) ;
#351 = EDGE_CURVE ( 'NONE', #102, #179, #117, .T. ) ;
#352 = COORDINATED_UNIVERSAL_TIME_OFFSET ( 1, 0, .AHEAD. ) ;
#353 = ORIENTED_EDGE ( 'NONE', *, *, #332, .F. ) ;
#354 = FACE_OUTER_BOUND ( 'NONE', #78, .T. ) ;
#355 = CC_DESIGN_PERSON_AND_ORGANIZATION_ASSIGNMENT ( #21, #342, ( #79 ) ) ;
#356 = DIRECTION ( 'NONE',  ( -1.000000000000000000, 0.000000000000000000, 0.000000000000000000 ) ) ;
#357 = DIRECTION ( 'NONE',  ( -1.000000000000000000, 0.000000000000000000, 0.000000000000000000 ) ) ;
#358 = ORIENTED_EDGE ( 'NONE', *, *, #107, .F. ) ;
#359 = ORIENTED_EDGE ( 'NONE', *, *, #230, .F. ) ;
#360 = AXIS2_PLACEMENT_3D ( 'NONE', #334, #23, #304 ) ;
#361 = AXIS2_PLACEMENT_3D ( 'NONE', #397, #174, #110 ) ;
#362 = AXIS2_PLACEMENT_3D ( 'NONE', #249, #398, #268 ) ;
#363 = CC_DESIGN_APPROVAL ( #85, ( #225 ) ) ;
#364 = DIRECTION ( 'NONE',  ( -1.224646799147353207E-16, 5.629680630014033300E-34, 1.000000000000000000 ) ) ;
#365 = DIRECTION ( 'NONE',  ( 1.000000000000000000, 0.000000000000000000, 1.224646799147353207E-16 ) ) ;
#366 = COORDINATED_UNIVERSAL_TIME_OFFSET ( 1, 0, .AHEAD. ) ;
#367 = DIRECTION ( 'NONE',  ( 1.000000000000000000, 0.000000000000000000, 0.000000000000000000 ) ) ;
#368 = DIRECTION ( 'NONE',  ( -1.000000000000000000, 4.596983092540343816E-18, 0.000000000000000000 ) ) ;
#369 = PERSON_AND_ORGANIZATION ( #6, #96 ) ;
#370 = ORIENTED_EDGE ( 'NONE', *, *, #320, .F. ) ;
#371 = CARTESIAN_POINT ( 'NONE',  ( -30.14999999999999858, 5.666261501514391341, 0.000000000000000000 ) ) ;
#372 = DIRECTION ( 'NONE',  ( 0.000000000000000000, 0.000000000000000000, 1.000000000000000000 ) ) ;
#373 = AXIS2_PLACEMENT_3D ( 'NONE', #261, #323, #228 ) ;
#374 = ORIENTED_EDGE ( 'NONE', *, *, #200, .F. ) ;
#375 = DIRECTION ( 'NONE',  ( 4.596983092540343816E-18, 1.000000000000000000, -0.000000000000000000 ) ) ;
#376 = ADVANCED_FACE ( 'NONE', ( #49 ), #83, .F. ) ;
#377 = DIRECTION ( 'NONE',  ( -1.000000000000000000, 0.000000000000000000, 0.000000000000000000 ) ) ;
#378 = FACE_OUTER_BOUND ( 'NONE', #34, .T. ) ;
#379 = DIRECTION ( 'NONE',  ( -0.000000000000000000, 0.000000000000000000, -1.000000000000000000 ) ) ;
#380 = CIRCLE ( 'NONE', #395, 25.97768082663604616 ) ;
#381 = ORIENTED_EDGE ( 'NONE', *, *, #88, .F. ) ;
#382 = LOCAL_TIME ( 8, 19, 58.00000000000000000, #352 ) ;
#383 = CARTESIAN_POINT ( 'NONE',  ( -27.14999999999998437, 2817.965330118411202, 0.000000000000000000 ) ) ;
#384 = AXIS2_PLACEMENT_3D ( 'NONE', #19, #62, #377 ) ;
#385 = FACE_OUTER_BOUND ( 'NONE', #101, .T. ) ;
#386 = DIRECTION ( 'NONE',  ( 4.596983092540343816E-18, 1.000000000000000000, -0.000000000000000000 ) ) ;
#387 = EDGE_CURVE ( 'NONE', #404, #206, #1, .T. ) ;
#388 = ORIENTED_EDGE ( 'NONE', *, *, #11, .F. ) ;
#389 = EDGE_LOOP ( 'NONE', ( #116, #321, #263 ) ) ;
#390 = PRODUCT_RELATED_PRODUCT_CATEGORY ( 'detail', '', ( #392 ) ) ;
#391 = AXIS2_PLACEMENT_3D ( 'NONE', #15, #28, #153 ) ;
#392 = PRODUCT ( '3D_R365_60.3x3_173371117', '3D_R365_60.3x3_173371117', '', ( #61 ) ) ;
#393 = AXIS2_PLACEMENT_3D ( 'NONE', #277, #372, #305 ) ;
#394 = DIRECTION ( 'NONE',  ( 4.596983092540343816E-18, 1.000000000000000000, -0.000000000000000000 ) ) ;
#395 = AXIS2_PLACEMENT_3D ( 'NONE', #157, #375, #65 ) ;
#396 = DIRECTION ( 'NONE',  ( 4.596983092540343816E-18, 1.000000000000000000, -0.000000000000000000 ) ) ;
#397 = CARTESIAN_POINT ( 'NONE',  ( 1.387778780781445676E-14, 2817.965330118411202, 0.000000000000000000 ) ) ;
#398 = DIRECTION ( 'NONE',  ( 4.596983092540343816E-18, 1.000000000000000000, -0.000000000000000000 ) ) ;
#399 = DIRECTION ( 'NONE',  ( 1.000000000000000000, -4.596983092540343046E-18, 0.000000000000000000 ) ) ;
#400 = FACE_OUTER_BOUND ( 'NONE', #270, .T. ) ;
#401 = CALENDAR_DATE ( 2024, 16, 7 ) ;
#402 = ORIENTED_EDGE ( 'NONE', *, *, #7, .F. ) ;
#403 = DIRECTION ( 'NONE',  ( 4.596983092540343816E-18, 1.000000000000000000, -0.000000000000000000 ) ) ;
#404 = VERTEX_POINT ( 'NONE', #371 ) ;
#405 = ADVANCED_FACE ( 'NONE', ( #56 ), #42, .T. ) ;
#406 = PERSON_AND_ORGANIZATION ( #6, #96 ) ;
#407 = ORIENTED_EDGE ( 'NONE', *, *, #38, .F. ) ;
#408 = DIRECTION ( 'NONE',  ( -1.000000000000000000, 0.000000000000000000, 0.000000000000000000 ) ) ;
#409 = CALENDAR_DATE ( 2024, 16, 7 ) ;
#410 = UNCERTAINTY_MEASURE_WITH_UNIT (LENGTH_MEASURE( 1.000000000000000082E-05 ), #285, 'distance_accuracy_value', 'NONE');
#411 = ORIENTED_EDGE ( 'NONE', *, *, #230, .T. ) ;
ENDSEC;
END-ISO-10303-21;
