ISO-10303-21;
HEADER;
/* Generated by software containing ST-Developer
 * from STEP Tools, Inc. (www.steptools.com) 
 */

FILE_DESCRIPTION(
/* description */ (''),
/* implementation_level */ '2;1');

FILE_NAME(
/* name */ 
'C:\\Users\\cad\\Desktop\\Zeichnungen neu von Ralph\\3D_Kupplung_R666-
SG\\3D_R666-SG-12-DN10_17113700.stp',
/* time_stamp */ '2021-06-22T10:15:52+02:00',
/* author */ ('cad'),
/* organization */ (''),
/* preprocessor_version */ 'ST-DEVELOPER v18.1',
/* originating_system */ 'Autodesk Inventor 2022',
/* authorisation */ '');

FILE_SCHEMA (('AUTOMOTIVE_DESIGN { 1 0 10303 214 3 1 1 }'));
ENDSEC;

DATA;
#10=MECHANICAL_DESIGN_GEOMETRIC_PRESENTATION_REPRESENTATION('',(#13),#321);
#11=SHAPE_REPRESENTATION_RELATIONSHIP('SRR','None',#328,#12);
#12=ADVANCED_BREP_SHAPE_REPRESENTATION('',(#14),#320);
#13=STYLED_ITEM('',(#337),#14);
#14=MANIFOLD_SOLID_BREP('Volumenk\X\F6rper1',#169);
#15=CYLINDRICAL_SURFACE('',#195,6.);
#16=CYLINDRICAL_SURFACE('',#200,4.5);
#17=CYLINDRICAL_SURFACE('',#210,8.3);
#18=FACE_BOUND('',#34,.T.);
#19=FACE_BOUND('',#40,.T.);
#20=PLANE('',#193);
#21=PLANE('',#205);
#22=FACE_OUTER_BOUND('',#32,.T.);
#23=FACE_OUTER_BOUND('',#33,.T.);
#24=FACE_OUTER_BOUND('',#35,.T.);
#25=FACE_OUTER_BOUND('',#36,.T.);
#26=FACE_OUTER_BOUND('',#37,.T.);
#27=FACE_OUTER_BOUND('',#38,.T.);
#28=FACE_OUTER_BOUND('',#39,.T.);
#29=FACE_OUTER_BOUND('',#41,.T.);
#30=FACE_OUTER_BOUND('',#42,.T.);
#31=FACE_OUTER_BOUND('',#43,.T.);
#32=EDGE_LOOP('',(#110,#111,#112,#113,#114));
#33=EDGE_LOOP('',(#115));
#34=EDGE_LOOP('',(#116));
#35=EDGE_LOOP('',(#117,#118,#119,#120,#121));
#36=EDGE_LOOP('',(#122,#123,#124,#125,#126));
#37=EDGE_LOOP('',(#127,#128,#129,#130,#131,#132));
#38=EDGE_LOOP('',(#133,#134,#135,#136,#137));
#39=EDGE_LOOP('',(#138));
#40=EDGE_LOOP('',(#139));
#41=EDGE_LOOP('',(#140,#141,#142,#143,#144));
#42=EDGE_LOOP('',(#145,#146,#147,#148,#149));
#43=EDGE_LOOP('',(#150,#151,#152,#153));
#44=LINE('',#278,#52);
#45=LINE('',#286,#53);
#46=LINE('',#289,#54);
#47=LINE('',#298,#55);
#48=LINE('',#301,#56);
#49=LINE('',#308,#57);
#50=LINE('',#314,#58);
#51=LINE('',#317,#59);
#52=VECTOR('',#221,5.85);
#53=VECTOR('',#232,6.);
#54=VECTOR('',#235,4.65);
#55=VECTOR('',#246,4.5);
#56=VECTOR('',#249,4.65);
#57=VECTOR('',#258,7.7);
#58=VECTOR('',#265,8.3);
#59=VECTOR('',#270,7.15);
#60=CIRCLE('',#190,6.);
#61=CIRCLE('',#191,6.);
#62=CIRCLE('',#192,5.7);
#63=CIRCLE('',#194,4.8);
#64=CIRCLE('',#196,6.);
#65=CIRCLE('',#198,4.5);
#66=CIRCLE('',#199,4.5);
#67=CIRCLE('',#201,4.5);
#68=CIRCLE('',#202,4.5);
#69=CIRCLE('',#204,4.8);
#70=CIRCLE('',#206,7.1);
#71=CIRCLE('',#208,8.3);
#72=CIRCLE('',#209,8.3);
#73=CIRCLE('',#211,8.3);
#74=VERTEX_POINT('',#273);
#75=VERTEX_POINT('',#274);
#76=VERTEX_POINT('',#277);
#77=VERTEX_POINT('',#281);
#78=VERTEX_POINT('',#284);
#79=VERTEX_POINT('',#288);
#80=VERTEX_POINT('',#290);
#81=VERTEX_POINT('',#294);
#82=VERTEX_POINT('',#295);
#83=VERTEX_POINT('',#300);
#84=VERTEX_POINT('',#304);
#85=VERTEX_POINT('',#307);
#86=VERTEX_POINT('',#309);
#87=VERTEX_POINT('',#313);
#88=EDGE_CURVE('',#74,#75,#60,.T.);
#89=EDGE_CURVE('',#75,#74,#61,.T.);
#90=EDGE_CURVE('',#74,#76,#44,.T.);
#91=EDGE_CURVE('',#76,#76,#62,.T.);
#92=EDGE_CURVE('',#77,#77,#63,.T.);
#93=EDGE_CURVE('',#78,#78,#64,.T.);
#94=EDGE_CURVE('',#78,#75,#45,.T.);
#95=EDGE_CURVE('',#77,#79,#46,.T.);
#96=EDGE_CURVE('',#79,#80,#65,.T.);
#97=EDGE_CURVE('',#80,#79,#66,.T.);
#98=EDGE_CURVE('',#81,#82,#67,.T.);
#99=EDGE_CURVE('',#82,#81,#68,.T.);
#100=EDGE_CURVE('',#82,#80,#47,.T.);
#101=EDGE_CURVE('',#81,#83,#48,.T.);
#102=EDGE_CURVE('',#83,#83,#69,.T.);
#103=EDGE_CURVE('',#84,#84,#70,.T.);
#104=EDGE_CURVE('',#84,#85,#49,.T.);
#105=EDGE_CURVE('',#85,#86,#71,.T.);
#106=EDGE_CURVE('',#86,#85,#72,.T.);
#107=EDGE_CURVE('',#86,#87,#50,.T.);
#108=EDGE_CURVE('',#87,#87,#73,.T.);
#109=EDGE_CURVE('',#87,#78,#51,.T.);
#110=ORIENTED_EDGE('',*,*,#88,.T.);
#111=ORIENTED_EDGE('',*,*,#89,.T.);
#112=ORIENTED_EDGE('',*,*,#90,.T.);
#113=ORIENTED_EDGE('',*,*,#91,.T.);
#114=ORIENTED_EDGE('',*,*,#90,.F.);
#115=ORIENTED_EDGE('',*,*,#91,.F.);
#116=ORIENTED_EDGE('',*,*,#92,.F.);
#117=ORIENTED_EDGE('',*,*,#93,.F.);
#118=ORIENTED_EDGE('',*,*,#94,.T.);
#119=ORIENTED_EDGE('',*,*,#88,.F.);
#120=ORIENTED_EDGE('',*,*,#89,.F.);
#121=ORIENTED_EDGE('',*,*,#94,.F.);
#122=ORIENTED_EDGE('',*,*,#92,.T.);
#123=ORIENTED_EDGE('',*,*,#95,.T.);
#124=ORIENTED_EDGE('',*,*,#96,.T.);
#125=ORIENTED_EDGE('',*,*,#97,.T.);
#126=ORIENTED_EDGE('',*,*,#95,.F.);
#127=ORIENTED_EDGE('',*,*,#98,.F.);
#128=ORIENTED_EDGE('',*,*,#99,.F.);
#129=ORIENTED_EDGE('',*,*,#100,.T.);
#130=ORIENTED_EDGE('',*,*,#96,.F.);
#131=ORIENTED_EDGE('',*,*,#97,.F.);
#132=ORIENTED_EDGE('',*,*,#100,.F.);
#133=ORIENTED_EDGE('',*,*,#98,.T.);
#134=ORIENTED_EDGE('',*,*,#99,.T.);
#135=ORIENTED_EDGE('',*,*,#101,.T.);
#136=ORIENTED_EDGE('',*,*,#102,.T.);
#137=ORIENTED_EDGE('',*,*,#101,.F.);
#138=ORIENTED_EDGE('',*,*,#103,.F.);
#139=ORIENTED_EDGE('',*,*,#102,.F.);
#140=ORIENTED_EDGE('',*,*,#103,.T.);
#141=ORIENTED_EDGE('',*,*,#104,.T.);
#142=ORIENTED_EDGE('',*,*,#105,.T.);
#143=ORIENTED_EDGE('',*,*,#106,.T.);
#144=ORIENTED_EDGE('',*,*,#104,.F.);
#145=ORIENTED_EDGE('',*,*,#105,.F.);
#146=ORIENTED_EDGE('',*,*,#106,.F.);
#147=ORIENTED_EDGE('',*,*,#107,.T.);
#148=ORIENTED_EDGE('',*,*,#108,.T.);
#149=ORIENTED_EDGE('',*,*,#107,.F.);
#150=ORIENTED_EDGE('',*,*,#108,.F.);
#151=ORIENTED_EDGE('',*,*,#109,.T.);
#152=ORIENTED_EDGE('',*,*,#93,.T.);
#153=ORIENTED_EDGE('',*,*,#109,.F.);
#154=CONICAL_SURFACE('',#189,5.85,0.785398163397454);
#155=CONICAL_SURFACE('',#197,4.65,0.785398163397449);
#156=CONICAL_SURFACE('',#203,4.65,0.785398163397451);
#157=CONICAL_SURFACE('',#207,7.7,0.785398163397447);
#158=CONICAL_SURFACE('',#212,7.15,0.785398163397449);
#159=ADVANCED_FACE('',(#22),#154,.T.);
#160=ADVANCED_FACE('',(#23,#18),#20,.T.);
#161=ADVANCED_FACE('',(#24),#15,.T.);
#162=ADVANCED_FACE('',(#25),#155,.F.);
#163=ADVANCED_FACE('',(#26),#16,.F.);
#164=ADVANCED_FACE('',(#27),#156,.F.);
#165=ADVANCED_FACE('',(#28,#19),#21,.T.);
#166=ADVANCED_FACE('',(#29),#157,.T.);
#167=ADVANCED_FACE('',(#30),#17,.T.);
#168=ADVANCED_FACE('',(#31),#158,.T.);
#169=CLOSED_SHELL('',(#159,#160,#161,#162,#163,#164,#165,#166,#167,#168));
#170=DERIVED_UNIT_ELEMENT(#172,1.);
#171=DERIVED_UNIT_ELEMENT(#323,-3.);
#172=(
MASS_UNIT()
NAMED_UNIT(*)
SI_UNIT($,.GRAM.)
);
#173=DERIVED_UNIT((#170,#171));
#174=MEASURE_REPRESENTATION_ITEM('density measure',
POSITIVE_RATIO_MEASURE(1.),#173);
#175=PROPERTY_DEFINITION_REPRESENTATION(#180,#177);
#176=PROPERTY_DEFINITION_REPRESENTATION(#181,#178);
#177=REPRESENTATION('material name',(#179),#320);
#178=REPRESENTATION('density',(#174),#320);
#179=DESCRIPTIVE_REPRESENTATION_ITEM('Generisch','Generisch');
#180=PROPERTY_DEFINITION('material property','material name',#330);
#181=PROPERTY_DEFINITION('material property','density of part',#330);
#182=DATE_TIME_ROLE('creation_date');
#183=APPLIED_DATE_AND_TIME_ASSIGNMENT(#184,#182,(#330));
#184=DATE_AND_TIME(#185,#186);
#185=CALENDAR_DATE(2021,22,6);
#186=LOCAL_TIME(0,0,0.,#187);
#187=COORDINATED_UNIVERSAL_TIME_OFFSET(0,0,.BEHIND.);
#188=AXIS2_PLACEMENT_3D('placement',#271,#213,#214);
#189=AXIS2_PLACEMENT_3D('',#272,#215,#216);
#190=AXIS2_PLACEMENT_3D('',#275,#217,#218);
#191=AXIS2_PLACEMENT_3D('',#276,#219,#220);
#192=AXIS2_PLACEMENT_3D('',#279,#222,#223);
#193=AXIS2_PLACEMENT_3D('',#280,#224,#225);
#194=AXIS2_PLACEMENT_3D('',#282,#226,#227);
#195=AXIS2_PLACEMENT_3D('',#283,#228,#229);
#196=AXIS2_PLACEMENT_3D('',#285,#230,#231);
#197=AXIS2_PLACEMENT_3D('',#287,#233,#234);
#198=AXIS2_PLACEMENT_3D('',#291,#236,#237);
#199=AXIS2_PLACEMENT_3D('',#292,#238,#239);
#200=AXIS2_PLACEMENT_3D('',#293,#240,#241);
#201=AXIS2_PLACEMENT_3D('',#296,#242,#243);
#202=AXIS2_PLACEMENT_3D('',#297,#244,#245);
#203=AXIS2_PLACEMENT_3D('',#299,#247,#248);
#204=AXIS2_PLACEMENT_3D('',#302,#250,#251);
#205=AXIS2_PLACEMENT_3D('',#303,#252,#253);
#206=AXIS2_PLACEMENT_3D('',#305,#254,#255);
#207=AXIS2_PLACEMENT_3D('',#306,#256,#257);
#208=AXIS2_PLACEMENT_3D('',#310,#259,#260);
#209=AXIS2_PLACEMENT_3D('',#311,#261,#262);
#210=AXIS2_PLACEMENT_3D('',#312,#263,#264);
#211=AXIS2_PLACEMENT_3D('',#315,#266,#267);
#212=AXIS2_PLACEMENT_3D('',#316,#268,#269);
#213=DIRECTION('axis',(0.,0.,1.));
#214=DIRECTION('refdir',(1.,0.,0.));
#215=DIRECTION('center_axis',(1.,0.,0.));
#216=DIRECTION('ref_axis',(0.,-1.,0.));
#217=DIRECTION('center_axis',(-1.,0.,0.));
#218=DIRECTION('ref_axis',(0.,-1.,0.));
#219=DIRECTION('center_axis',(-1.,0.,0.));
#220=DIRECTION('ref_axis',(0.,-1.,0.));
#221=DIRECTION('',(-0.707106781186544,-0.707106781186551,-8.65956056235498E-17));
#222=DIRECTION('center_axis',(1.,0.,0.));
#223=DIRECTION('ref_axis',(0.,-1.,0.));
#224=DIRECTION('center_axis',(-1.,0.,0.));
#225=DIRECTION('ref_axis',(0.,0.,1.));
#226=DIRECTION('center_axis',(-1.,0.,0.));
#227=DIRECTION('ref_axis',(0.,-1.,0.));
#228=DIRECTION('center_axis',(1.,0.,0.));
#229=DIRECTION('ref_axis',(0.,1.,0.));
#230=DIRECTION('center_axis',(1.,0.,0.));
#231=DIRECTION('ref_axis',(0.,0.,-1.));
#232=DIRECTION('',(-1.,0.,0.));
#233=DIRECTION('center_axis',(-1.,0.,0.));
#234=DIRECTION('ref_axis',(0.,-1.,0.));
#235=DIRECTION('',(0.707106781186547,-0.707106781186548,8.65956056235494E-17));
#236=DIRECTION('center_axis',(1.,0.,0.));
#237=DIRECTION('ref_axis',(0.,-1.,0.));
#238=DIRECTION('center_axis',(1.,0.,0.));
#239=DIRECTION('ref_axis',(0.,-1.,0.));
#240=DIRECTION('center_axis',(1.,0.,0.));
#241=DIRECTION('ref_axis',(0.,1.,0.));
#242=DIRECTION('center_axis',(-1.,0.,0.));
#243=DIRECTION('ref_axis',(0.,-1.,0.));
#244=DIRECTION('center_axis',(-1.,0.,0.));
#245=DIRECTION('ref_axis',(0.,-1.,0.));
#246=DIRECTION('',(-1.,0.,0.));
#247=DIRECTION('center_axis',(1.,0.,0.));
#248=DIRECTION('ref_axis',(0.,-1.,0.));
#249=DIRECTION('',(0.707106781186546,0.707106781186549,-8.65956056235495E-17));
#250=DIRECTION('center_axis',(1.,0.,0.));
#251=DIRECTION('ref_axis',(0.,-1.,0.));
#252=DIRECTION('center_axis',(1.,0.,0.));
#253=DIRECTION('ref_axis',(0.,0.,-1.));
#254=DIRECTION('center_axis',(-1.,0.,0.));
#255=DIRECTION('ref_axis',(0.,-1.,0.));
#256=DIRECTION('center_axis',(-1.,0.,0.));
#257=DIRECTION('ref_axis',(0.,-1.,0.));
#258=DIRECTION('',(-0.707106781186549,0.707106781186546,8.65956056235492E-17));
#259=DIRECTION('center_axis',(1.,0.,0.));
#260=DIRECTION('ref_axis',(0.,-1.,0.));
#261=DIRECTION('center_axis',(1.,0.,0.));
#262=DIRECTION('ref_axis',(0.,-1.,0.));
#263=DIRECTION('center_axis',(1.,0.,0.));
#264=DIRECTION('ref_axis',(0.,1.,0.));
#265=DIRECTION('',(-1.,0.,0.));
#266=DIRECTION('center_axis',(1.,0.,0.));
#267=DIRECTION('ref_axis',(0.,0.,-1.));
#268=DIRECTION('center_axis',(1.,0.,0.));
#269=DIRECTION('ref_axis',(0.,1.,0.));
#270=DIRECTION('',(-0.707106781186547,0.707106781186548,8.65956056235494E-17));
#271=CARTESIAN_POINT('',(0.,0.,0.));
#272=CARTESIAN_POINT('Origin',(-17.85,0.,0.));
#273=CARTESIAN_POINT('',(-17.7,6.,-7.34788079488412E-16));
#274=CARTESIAN_POINT('',(-17.7,-6.,-7.34788079488412E-16));
#275=CARTESIAN_POINT('Origin',(-17.7,0.,0.));
#276=CARTESIAN_POINT('Origin',(-17.7,0.,0.));
#277=CARTESIAN_POINT('',(-18.,5.7,6.98048675513991E-16));
#278=CARTESIAN_POINT('',(-17.85,5.85,7.16418377501202E-16));
#279=CARTESIAN_POINT('Origin',(-18.,0.,0.));
#280=CARTESIAN_POINT('Origin',(-18.,6.,0.));
#281=CARTESIAN_POINT('',(-18.,4.8,-5.87830463590729E-16));
#282=CARTESIAN_POINT('Origin',(-18.,0.,0.));
#283=CARTESIAN_POINT('Origin',(-13.65,0.,0.));
#284=CARTESIAN_POINT('',(-9.3,-6.,-7.34788079488412E-16));
#285=CARTESIAN_POINT('Origin',(-9.3,0.,0.));
#286=CARTESIAN_POINT('',(-13.65,-6.,-7.34788079488412E-16));
#287=CARTESIAN_POINT('Origin',(-17.85,0.,0.));
#288=CARTESIAN_POINT('',(-17.7,4.5,5.51091059616309E-16));
#289=CARTESIAN_POINT('',(-17.85,4.65,-5.69460761603519E-16));
#290=CARTESIAN_POINT('',(-17.7,-4.5,-5.51091059616309E-16));
#291=CARTESIAN_POINT('Origin',(-17.7,0.,0.));
#292=CARTESIAN_POINT('Origin',(-17.7,0.,0.));
#293=CARTESIAN_POINT('Origin',(-9.,0.,0.));
#294=CARTESIAN_POINT('',(-0.300000000000001,4.5,-5.51091059616309E-16));
#295=CARTESIAN_POINT('',(-0.300000000000001,-4.5,-5.51091059616309E-16));
#296=CARTESIAN_POINT('Origin',(-0.300000000000001,0.,0.));
#297=CARTESIAN_POINT('Origin',(-0.300000000000001,0.,0.));
#298=CARTESIAN_POINT('',(-9.,-4.5,-5.51091059616309E-16));
#299=CARTESIAN_POINT('Origin',(-0.150000000000001,0.,0.));
#300=CARTESIAN_POINT('',(-1.38777878078145E-15,4.8,5.8783046359073E-16));
#301=CARTESIAN_POINT('',(-0.150000000000001,4.65,-5.69460761603519E-16));
#302=CARTESIAN_POINT('Origin',(-1.38777878078145E-15,0.,0.));
#303=CARTESIAN_POINT('Origin',(-1.37772764904077E-15,4.5,0.));
#304=CARTESIAN_POINT('',(-1.38777878078145E-15,7.1,-8.69499227394621E-16));
#305=CARTESIAN_POINT('Origin',(-1.38777878078145E-15,0.,0.));
#306=CARTESIAN_POINT('Origin',(-0.600000000000002,0.,0.));
#307=CARTESIAN_POINT('',(-1.2,8.3,1.0164568432923E-15));
#308=CARTESIAN_POINT('',(-0.600000000000002,7.7,9.42978035343462E-16));
#309=CARTESIAN_POINT('',(-1.2,-8.3,-1.0164568432923E-15));
#310=CARTESIAN_POINT('Origin',(-1.2,0.,0.));
#311=CARTESIAN_POINT('Origin',(-1.2,0.,0.));
#312=CARTESIAN_POINT('Origin',(-3.5,0.,0.));
#313=CARTESIAN_POINT('',(-7.,-8.3,-1.0164568432923E-15));
#314=CARTESIAN_POINT('',(-3.5,-8.3,-1.0164568432923E-15));
#315=CARTESIAN_POINT('Origin',(-7.,0.,0.));
#316=CARTESIAN_POINT('Origin',(-8.15,0.,0.));
#317=CARTESIAN_POINT('',(-8.15,-7.15,-8.75622461390358E-16));
#318=UNCERTAINTY_MEASURE_WITH_UNIT(LENGTH_MEASURE(0.01),#322,
'DISTANCE_ACCURACY_VALUE',
'Maximum model space distance between geometric entities at asserted c
onnectivities');
#319=UNCERTAINTY_MEASURE_WITH_UNIT(LENGTH_MEASURE(0.01),#322,
'DISTANCE_ACCURACY_VALUE',
'Maximum model space distance between geometric entities at asserted c
onnectivities');
#320=(
GEOMETRIC_REPRESENTATION_CONTEXT(3)
GLOBAL_UNCERTAINTY_ASSIGNED_CONTEXT((#318))
GLOBAL_UNIT_ASSIGNED_CONTEXT((#322,#324,#325))
REPRESENTATION_CONTEXT('','3D')
);
#321=(
GEOMETRIC_REPRESENTATION_CONTEXT(3)
GLOBAL_UNCERTAINTY_ASSIGNED_CONTEXT((#319))
GLOBAL_UNIT_ASSIGNED_CONTEXT((#322,#324,#325))
REPRESENTATION_CONTEXT('','3D')
);
#322=(
LENGTH_UNIT()
NAMED_UNIT(*)
SI_UNIT(.MILLI.,.METRE.)
);
#323=(
LENGTH_UNIT()
NAMED_UNIT(*)
SI_UNIT(.CENTI.,.METRE.)
);
#324=(
NAMED_UNIT(*)
PLANE_ANGLE_UNIT()
SI_UNIT($,.RADIAN.)
);
#325=(
NAMED_UNIT(*)
SI_UNIT($,.STERADIAN.)
SOLID_ANGLE_UNIT()
);
#326=SHAPE_DEFINITION_REPRESENTATION(#327,#328);
#327=PRODUCT_DEFINITION_SHAPE('',$,#330);
#328=SHAPE_REPRESENTATION('',(#188),#320);
#329=PRODUCT_DEFINITION_CONTEXT('part definition',#334,'design');
#330=PRODUCT_DEFINITION('3D_R666-SG-12-DN10_17113700',
'3D_R666-SG-12-DN10_17113700',#331,#329);
#331=PRODUCT_DEFINITION_FORMATION('',$,#336);
#332=PRODUCT_RELATED_PRODUCT_CATEGORY('3D_R666-SG-12-DN10_17113700',
'3D_R666-SG-12-DN10_17113700',(#336));
#333=APPLICATION_PROTOCOL_DEFINITION('international standard',
'automotive_design',2009,#334);
#334=APPLICATION_CONTEXT(
'Core Data for Automotive Mechanical Design Process');
#335=PRODUCT_CONTEXT('part definition',#334,'mechanical');
#336=PRODUCT('3D_R666-SG-12-DN10_17113700',
'3D_R666-SG-12-DN10_17113700',$,(#335));
#337=PRESENTATION_STYLE_ASSIGNMENT((#338));
#338=SURFACE_STYLE_USAGE(.BOTH.,#341);
#339=SURFACE_STYLE_RENDERING_WITH_PROPERTIES($,#345,(#340));
#340=SURFACE_STYLE_TRANSPARENT(0.);
#341=SURFACE_SIDE_STYLE('',(#342,#339));
#342=SURFACE_STYLE_FILL_AREA(#343);
#343=FILL_AREA_STYLE('',(#344));
#344=FILL_AREA_STYLE_COLOUR('',#345);
#345=COLOUR_RGB('',0.749019607843137,0.749019607843137,0.749019607843137);
ENDSEC;
END-ISO-10303-21;
