ISO-10303-21;
HEADER;
FILE_DESCRIPTION (( 'STEP AP203' ),
    '1' );
FILE_NAME ('3D_M-2030P_15_174774015.STEP',
    '2024-09-10T06:56:23',
    ( '' ),
    ( '' ),
    'SwSTEP 2.0',
    'SolidWorks 2024',
    '' );
FILE_SCHEMA (( 'CONFIG_CONTROL_DESIGN' ));
ENDSEC;

DATA;
#1 = CARTESIAN_POINT ( 'NONE',  ( -8.999999999999980460, 1.642017364049954191E-15, 12.31617859440277485 ) ) ;
#2 = DATE_AND_TIME ( #146, #189 ) ;
#3 = COORDINATED_UNIVERSAL_TIME_OFFSET ( 1, 0, .AHEAD. ) ;
#4 = APPROVAL ( #240, 'UNSPECIFIED' ) ;
#5 = APPROVAL_ROLE ( '' ) ;
#6 = CIRCLE ( 'NONE', #64, 12.31617859440277485 ) ;
#7 = DIRECTION ( 'NONE',  ( -0.000000000000000000, 0.000000000000000000, 1.000000000000000000 ) ) ;
#8 = VECTOR ( 'NONE', #228, 1000.000000000000114 ) ;
#9 = EDGE_LOOP ( 'NONE', ( #72, #221 ) ) ;
#10 = ORIENTED_EDGE ( 'NONE', *, *, #36, .F. ) ;
#11 = CARTESIAN_POINT ( 'NONE',  ( -2.999999999999988898, 1.775737858763658268E-15, 14.49999999999996803 ) ) ;
#12 = EDGE_CURVE ( 'NONE', #106, #13, #75, .T. ) ;
#13 = VERTEX_POINT ( 'NONE', #74 ) ;
#14 = LOCAL_TIME ( 8, 56, 23.00000000000000000, #3 ) ;
#15 =( LENGTH_UNIT ( ) NAMED_UNIT ( * ) SI_UNIT ( .MILLI., .METRE. ) );
#16 = AXIS2_PLACEMENT_3D ( 'NONE', #212, #119, #115 ) ;
#17 = DIRECTION ( 'NONE',  ( 0.000000000000000000, 0.000000000000000000, 1.000000000000000000 ) ) ;
#18 = CARTESIAN_POINT ( 'NONE',  ( -2.999999999999988898, 1.775737858763658268E-15, 14.49999999999996803 ) ) ;
#19 = DIRECTION ( 'NONE',  ( -1.000000000000000000, -0.000000000000000000, -0.000000000000000000 ) ) ;
#20 = DIRECTION ( 'NONE',  ( -1.000000000000000000, -0.000000000000000000, -0.000000000000000000 ) ) ;
#21 = EDGE_CURVE ( 'NONE', #92, #13, #42, .T. ) ;
#22 = APPLICATION_CONTEXT ( 'configuration controlled 3d designs of mechanical parts and assemblies' ) ;
#23 = DIRECTION ( 'NONE',  ( 1.000000000000000000, 0.000000000000000000, 0.000000000000000000 ) ) ;
#24 = PERSON_AND_ORGANIZATION_ROLE ( 'creator' ) ;
#25 = PRODUCT_DEFINITION ( 'UNKNOWN', '', #27, #141 ) ;
#26 = COORDINATED_UNIVERSAL_TIME_OFFSET ( 1, 0, .AHEAD. ) ;
#27 = PRODUCT_DEFINITION_FORMATION_WITH_SPECIFIED_SOURCE ( 'ANY', '', #185, .NOT_KNOWN. ) ;
#28 = AXIS2_PLACEMENT_3D ( 'NONE', #38, #79, #158 ) ;
#29 = ADVANCED_FACE ( 'NONE', ( #230 ), #153, .F. ) ;
#30 = CARTESIAN_POINT ( 'NONE',  ( -2.999999999999988898, 0.000000000000000000, 0.000000000000000000 ) ) ;
#31 = EDGE_LOOP ( 'NONE', ( #184, #248 ) ) ;
#32 = CC_DESIGN_DATE_AND_TIME_ASSIGNMENT ( #44, #41, ( #226 ) ) ;
#33 = ORIENTED_EDGE ( 'NONE', *, *, #196, .T. ) ;
#34 = CARTESIAN_POINT ( 'NONE',  ( 1.387778780781445676E-14, 0.000000000000000000, 0.000000000000000000 ) ) ;
#35 = UNCERTAINTY_MEASURE_WITH_UNIT (LENGTH_MEASURE( 1.000000000000000082E-05 ), #15, 'distance_accuracy_value', 'NONE');
#36 = EDGE_CURVE ( 'NONE', #208, #90, #195, .T. ) ;
#37 = CARTESIAN_POINT ( 'NONE',  ( 1.387778780781445676E-14, 0.000000000000000000, 0.000000000000000000 ) ) ;
#38 = CARTESIAN_POINT ( 'NONE',  ( -8.999999999999980460, 0.000000000000000000, 0.000000000000000000 ) ) ;
#39 =( GEOMETRIC_REPRESENTATION_CONTEXT ( 3 ) GLOBAL_UNCERTAINTY_ASSIGNED_CONTEXT ( ( #35 ) ) GLOBAL_UNIT_ASSIGNED_CONTEXT ( ( #15, #143, #237 ) ) REPRESENTATION_CONTEXT ( 'NONE', 'WORKASPACE' ) );
#40 = CARTESIAN_POINT ( 'NONE',  ( -108.2865231617622612, 0.000000000000000000, 11.99999999999996803 ) ) ;
#41 = DATE_TIME_ROLE ( 'classification_date' ) ;
#42 = CIRCLE ( 'NONE', #199, 14.49999999999996803 ) ;
#43 = PERSON_AND_ORGANIZATION_ROLE ( 'design_supplier' ) ;
#44 = DATE_AND_TIME ( #81, #252 ) ;
#45 = PERSON_AND_ORGANIZATION ( #220, #73 ) ;
#46 = EDGE_CURVE ( 'NONE', #94, #92, #169, .T. ) ;
#47 = CC_DESIGN_APPROVAL ( #204, ( #25 ) ) ;
#48 = CIRCLE ( 'NONE', #28, 12.31617859440277485 ) ;
#49 = ORIENTED_EDGE ( 'NONE', *, *, #95, .T. ) ;
#50 = DIRECTION ( 'NONE',  ( -1.000000000000000000, -0.000000000000000000, -0.000000000000000000 ) ) ;
#51 = CIRCLE ( 'NONE', #56, 11.99999999999996803 ) ;
#52 = ADVANCED_FACE ( 'NONE', ( #137 ), #89, .T. ) ;
#53 = DIRECTION ( 'NONE',  ( -0.000000000000000000, 0.000000000000000000, 1.000000000000000000 ) ) ;
#54 = EDGE_LOOP ( 'NONE', ( #168, #33, #69, #202 ) ) ;
#55 = ORIENTED_EDGE ( 'NONE', *, *, #196, .F. ) ;
#56 = AXIS2_PLACEMENT_3D ( 'NONE', #149, #98, #159 ) ;
#57 = CARTESIAN_POINT ( 'NONE',  ( 1.387778780781445676E-14, 0.000000000000000000, 11.99999999999996803 ) ) ;
#58 = CC_DESIGN_PERSON_AND_ORGANIZATION_ASSIGNMENT ( #241, #24, ( #27 ) ) ;
#59 = DIRECTION ( 'NONE',  ( 0.000000000000000000, 0.000000000000000000, -1.000000000000000000 ) ) ;
#60 = CARTESIAN_POINT ( 'NONE',  ( -2.999999999999988898, 0.000000000000000000, 0.000000000000000000 ) ) ;
#61 = EDGE_CURVE ( 'NONE', #170, #110, #109, .T. ) ;
#62 = CARTESIAN_POINT ( 'NONE',  ( -8.999999999999980460, 0.000000000000000000, -12.31617859440277485 ) ) ;
#63 = APPROVAL_PERSON_ORGANIZATION ( #217, #190, #5 ) ;
#64 = AXIS2_PLACEMENT_3D ( 'NONE', #233, #20, #140 ) ;
#65 = AXIS2_PLACEMENT_3D ( 'NONE', #229, #244, #53 ) ;
#66 = PERSON_AND_ORGANIZATION ( #220, #73 ) ;
#67 = PERSON_AND_ORGANIZATION_ROLE ( 'classification_officer' ) ;
#68 = CALENDAR_DATE ( 2024, 10, 9 ) ;
#69 = ORIENTED_EDGE ( 'NONE', *, *, #84, .F. ) ;
#70 = DIRECTION ( 'NONE',  ( 1.000000000000000000, 0.000000000000000000, 0.000000000000000000 ) ) ;
#71 = ADVANCED_FACE ( 'NONE', ( #210, #243 ), #108, .F. ) ;
#72 = ORIENTED_EDGE ( 'NONE', *, *, #84, .T. ) ;
#73 = ORGANIZATION ( 'UNSPECIFIED', 'UNSPECIFIED', '' ) ;
#74 = CARTESIAN_POINT ( 'NONE',  ( -2.999999999999988898, 0.000000000000000000, -14.49999999999996803 ) ) ;
#75 = LINE ( 'NONE', #227, #8 ) ;
#76 = FACE_OUTER_BOUND ( 'NONE', #246, .T. ) ;
#77 = CC_DESIGN_APPROVAL ( #4, ( #226 ) ) ;
#78 = CARTESIAN_POINT ( 'NONE',  ( -2.999999999999988898, 1.469576158976819806E-15, -11.99999999999996803 ) ) ;
#79 = DIRECTION ( 'NONE',  ( -1.000000000000000000, -0.000000000000000000, -0.000000000000000000 ) ) ;
#80 = APPLICATION_PROTOCOL_DEFINITION ( 'international standard', 'config_control_design', 1994, #249 ) ;
#81 = CALENDAR_DATE ( 2024, 10, 9 ) ;
#82 = AXIS2_PLACEMENT_3D ( 'NONE', #37, #251, #97 ) ;
#83 = PERSON_AND_ORGANIZATION ( #220, #73 ) ;
#84 = EDGE_CURVE ( 'NONE', #90, #208, #51, .T. ) ;
#85 = PERSON_AND_ORGANIZATION ( #220, #73 ) ;
#86 = DATE_AND_TIME ( #107, #96 ) ;
#87 = APPROVAL_PERSON_ORGANIZATION ( #224, #4, #121 ) ;
#88 = AXIS2_PLACEMENT_3D ( 'NONE', #194, #156, #176 ) ;
#89 = CONICAL_SURFACE ( 'NONE', #206, 14.49999999999996803, 0.3490658503988633421 ) ;
#90 = VERTEX_POINT ( 'NONE', #234 ) ;
#91 = CARTESIAN_POINT ( 'NONE',  ( -2.999999999999988010, 14.49999999999996803, 0.000000000000000000 ) ) ;
#92 = VERTEX_POINT ( 'NONE', #18 ) ;
#93 = ORIENTED_EDGE ( 'NONE', *, *, #21, .T. ) ;
#94 = VERTEX_POINT ( 'NONE', #1 ) ;
#95 = EDGE_CURVE ( 'NONE', #110, #170, #122, .T. ) ;
#96 = LOCAL_TIME ( 8, 56, 23.00000000000000000, #26 ) ;
#97 = DIRECTION ( 'NONE',  ( 0.000000000000000000, 0.000000000000000000, 1.000000000000000000 ) ) ;
#98 = DIRECTION ( 'NONE',  ( -1.000000000000000000, -0.000000000000000000, -0.000000000000000000 ) ) ;
#99 = AXIS2_PLACEMENT_3D ( 'NONE', #34, #113, #187 ) ;
#100 = DIRECTION ( 'NONE',  ( -1.000000000000000000, -0.000000000000000000, -0.000000000000000000 ) ) ;
#101 = DIRECTION ( 'NONE',  ( 1.000000000000000000, 0.000000000000000000, 0.000000000000000000 ) ) ;
#102 = APPROVAL_STATUS ( 'not_yet_approved' ) ;
#103 = CC_DESIGN_PERSON_AND_ORGANIZATION_ASSIGNMENT ( #66, #43, ( #27 ) ) ;
#104 = DATE_AND_TIME ( #68, #14 ) ;
#105 = MECHANICAL_CONTEXT ( 'NONE', #249, 'mechanical' ) ;
#106 = VERTEX_POINT ( 'NONE', #62 ) ;
#107 = CALENDAR_DATE ( 2024, 10, 9 ) ;
#108 = PLANE ( 'NONE',  #132 ) ;
#109 = CIRCLE ( 'NONE', #99, 11.99999999999996803 ) ;
#110 = VERTEX_POINT ( 'NONE', #171 ) ;
#111 = ORIENTED_EDGE ( 'NONE', *, *, #152, .T. ) ;
#112 = ORIENTED_EDGE ( 'NONE', *, *, #223, .T. ) ;
#113 = DIRECTION ( 'NONE',  ( -1.000000000000000000, -0.000000000000000000, -0.000000000000000000 ) ) ;
#114 = CARTESIAN_POINT ( 'NONE',  ( -108.2865231617622612, 1.469576158976819806E-15, -11.99999999999996803 ) ) ;
#115 = DIRECTION ( 'NONE',  ( 0.000000000000000000, 0.000000000000000000, 1.000000000000000000 ) ) ;
#116 = ADVANCED_FACE ( 'NONE', ( #76 ), #192, .F. ) ;
#117 = DIRECTION ( 'NONE',  ( -1.000000000000000000, -0.000000000000000000, -0.000000000000000000 ) ) ;
#118 = LOCAL_TIME ( 8, 56, 23.00000000000000000, #201 ) ;
#119 = DIRECTION ( 'NONE',  ( -1.000000000000000000, -0.000000000000000000, -0.000000000000000000 ) ) ;
#120 = VECTOR ( 'NONE', #214, 1000.000000000000000 ) ;
#121 = APPROVAL_ROLE ( '' ) ;
#122 = CIRCLE ( 'NONE', #82, 11.99999999999996803 ) ;
#123 = SECURITY_CLASSIFICATION_LEVEL ( 'unclassified' ) ;
#124 = EDGE_LOOP ( 'NONE', ( #55, #49, #111, #10 ) ) ;
#125 = CC_DESIGN_PERSON_AND_ORGANIZATION_ASSIGNMENT ( #83, #162, ( #25 ) ) ;
#126 = COORDINATED_UNIVERSAL_TIME_OFFSET ( 1, 0, .AHEAD. ) ;
#127 = ORIENTED_EDGE ( 'NONE', *, *, #245, .F. ) ;
#128 = APPROVAL_DATE_TIME ( #104, #4 ) ;
#129 = AXIS2_PLACEMENT_3D ( 'NONE', #60, #117, #160 ) ;
#130 = ORIENTED_EDGE ( 'NONE', *, *, #12, .F. ) ;
#131 = ADVANCED_FACE ( 'NONE', ( #198 ), #231, .T. ) ;
#132 = AXIS2_PLACEMENT_3D ( 'NONE', #91, #181, #7 ) ;
#133 = EDGE_LOOP ( 'NONE', ( #134, #127, #179, #112 ) ) ;
#134 = ORIENTED_EDGE ( 'NONE', *, *, #46, .F. ) ;
#135 = PRODUCT_DEFINITION_SHAPE ( 'NONE', 'NONE',  #25 ) ;
#136 = CC_DESIGN_PERSON_AND_ORGANIZATION_ASSIGNMENT ( #85, #165, ( #185 ) ) ;
#137 = FACE_OUTER_BOUND ( 'NONE', #205, .T. ) ;
#138 = DIRECTION ( 'NONE',  ( 0.9396926207859092051, 4.188538737676961566E-17, 0.3420201433256662704 ) ) ;
#139 = CARTESIAN_POINT ( 'NONE',  ( -108.2865231617622612, 0.000000000000000000, 0.000000000000000000 ) ) ;
#140 = DIRECTION ( 'NONE',  ( 0.000000000000000000, 0.000000000000000000, 1.000000000000000000 ) ) ;
#141 = DESIGN_CONTEXT ( 'detailed design', #22, 'design' ) ;
#142 = APPROVAL_PERSON_ORGANIZATION ( #45, #204, #147 ) ;
#143 =( NAMED_UNIT ( * ) PLANE_ANGLE_UNIT ( ) SI_UNIT ( $, .RADIAN. ) );
#144 = VECTOR ( 'NONE', #138, 1000.000000000000114 ) ;
#145 = DATE_TIME_ROLE ( 'creation_date' ) ;
#146 = CALENDAR_DATE ( 2024, 10, 9 ) ;
#147 = APPROVAL_ROLE ( '' ) ;
#148 = ORIENTED_EDGE ( 'NONE', *, *, #245, .T. ) ;
#149 = CARTESIAN_POINT ( 'NONE',  ( -2.999999999999988898, 0.000000000000000000, 0.000000000000000000 ) ) ;
#150 = MANIFOLD_SOLID_BREP ( 'Rotation1', #173 ) ;
#151 = CARTESIAN_POINT ( 'NONE',  ( -2.999999999999988898, 0.000000000000000000, 0.000000000000000000 ) ) ;
#152 = EDGE_CURVE ( 'NONE', #170, #90, #172, .T. ) ;
#153 = PLANE ( 'NONE',  #65 ) ;
#154 = DIRECTION ( 'NONE',  ( 0.000000000000000000, 0.000000000000000000, 1.000000000000000000 ) ) ;
#155 = CARTESIAN_POINT ( 'NONE',  ( -2.999999999999988898, 0.000000000000000000, 0.000000000000000000 ) ) ;
#156 = DIRECTION ( 'NONE',  ( 1.000000000000000000, 0.000000000000000000, 0.000000000000000000 ) ) ;
#157 = PRODUCT_RELATED_PRODUCT_CATEGORY ( 'detail', '', ( #185 ) ) ;
#158 = DIRECTION ( 'NONE',  ( 0.000000000000000000, 0.000000000000000000, 1.000000000000000000 ) ) ;
#159 = DIRECTION ( 'NONE',  ( 0.000000000000000000, 0.000000000000000000, 1.000000000000000000 ) ) ;
#160 = DIRECTION ( 'NONE',  ( 0.000000000000000000, 0.000000000000000000, 1.000000000000000000 ) ) ;
#161 = CC_DESIGN_APPROVAL ( #190, ( #27 ) ) ;
#162 = PERSON_AND_ORGANIZATION_ROLE ( 'creator' ) ;
#163 = ORIENTED_EDGE ( 'NONE', *, *, #95, .F. ) ;
#164 = COORDINATED_UNIVERSAL_TIME_OFFSET ( 1, 0, .AHEAD. ) ;
#165 = PERSON_AND_ORGANIZATION_ROLE ( 'design_owner' ) ;
#166 = CARTESIAN_POINT ( 'NONE',  ( -2.999999999999988898, 0.000000000000000000, 0.000000000000000000 ) ) ;
#167 = ORIENTED_EDGE ( 'NONE', *, *, #200, .T. ) ;
#168 = ORIENTED_EDGE ( 'NONE', *, *, #61, .T. ) ;
#169 = LINE ( 'NONE', #11, #144 ) ;
#170 = VERTEX_POINT ( 'NONE', #57 ) ;
#171 = CARTESIAN_POINT ( 'NONE',  ( 1.387778780781445676E-14, 1.469576158976819806E-15, -11.99999999999996803 ) ) ;
#172 = LINE ( 'NONE', #40, #120 ) ;
#173 = CLOSED_SHELL ( 'NONE', ( #235, #52, #116, #131, #71, #211, #29 ) ) ;
#174 = FACE_OUTER_BOUND ( 'NONE', #54, .T. ) ;
#175 = CC_DESIGN_DATE_AND_TIME_ASSIGNMENT ( #86, #145, ( #25 ) ) ;
#176 = DIRECTION ( 'NONE',  ( 0.000000000000000000, 0.000000000000000000, -1.000000000000000000 ) ) ;
#177 = APPROVAL_DATE_TIME ( #180, #204 ) ;
#178 = PERSON_AND_ORGANIZATION ( #220, #73 ) ;
#179 = ORIENTED_EDGE ( 'NONE', *, *, #12, .T. ) ;
#180 = DATE_AND_TIME ( #219, #118 ) ;
#181 = DIRECTION ( 'NONE',  ( -1.000000000000000000, 0.000000000000000000, -0.000000000000000000 ) ) ;
#182 = AXIS2_PLACEMENT_3D ( 'NONE', #166, #232, #186 ) ;
#183 = ORIENTED_EDGE ( 'NONE', *, *, #61, .F. ) ;
#184 = ORIENTED_EDGE ( 'NONE', *, *, #223, .F. ) ;
#185 = PRODUCT ( '3D_M-2030P_15_174774015', '3D_M-2030P_15_174774015', '', ( #105 ) ) ;
#186 = DIRECTION ( 'NONE',  ( 0.000000000000000000, 0.000000000000000000, 1.000000000000000000 ) ) ;
#187 = DIRECTION ( 'NONE',  ( 0.000000000000000000, 0.000000000000000000, 1.000000000000000000 ) ) ;
#188 = CARTESIAN_POINT ( 'NONE',  ( 0.000000000000000000, 0.000000000000000000, 0.000000000000000000 ) ) ;
#189 = LOCAL_TIME ( 8, 56, 23.00000000000000000, #164 ) ;
#190 = APPROVAL ( #102, 'UNSPECIFIED' ) ;
#191 = VECTOR ( 'NONE', #100, 1000.000000000000000 ) ;
#192 = PLANE ( 'NONE',  #88 ) ;
#193 = CC_DESIGN_SECURITY_CLASSIFICATION ( #226, ( #27 ) ) ;
#194 = CARTESIAN_POINT ( 'NONE',  ( -8.999999999999987566, -3.315318599521195210E-14, 0.000000000000000000 ) ) ;
#195 = CIRCLE ( 'NONE', #182, 11.99999999999996803 ) ;
#196 = EDGE_CURVE ( 'NONE', #110, #208, #253, .T. ) ;
#197 = CIRCLE ( 'NONE', #129, 14.49999999999996803 ) ;
#198 = FACE_OUTER_BOUND ( 'NONE', #133, .T. ) ;
#199 = AXIS2_PLACEMENT_3D ( 'NONE', #151, #50, #154 ) ;
#200 = EDGE_CURVE ( 'NONE', #94, #106, #6, .T. ) ;
#201 = COORDINATED_UNIVERSAL_TIME_OFFSET ( 1, 0, .AHEAD. ) ;
#202 = ORIENTED_EDGE ( 'NONE', *, *, #152, .F. ) ;
#203 = SHAPE_DEFINITION_REPRESENTATION ( #135, #255 ) ;
#204 = APPROVAL ( #218, 'UNSPECIFIED' ) ;
#205 = EDGE_LOOP ( 'NONE', ( #207, #225, #93, #130 ) ) ;
#206 = AXIS2_PLACEMENT_3D ( 'NONE', #30, #70, #209 ) ;
#207 = ORIENTED_EDGE ( 'NONE', *, *, #200, .F. ) ;
#208 = VERTEX_POINT ( 'NONE', #78 ) ;
#209 = DIRECTION ( 'NONE',  ( 0.000000000000000000, 0.000000000000000000, -1.000000000000000000 ) ) ;
#210 = FACE_OUTER_BOUND ( 'NONE', #31, .T. ) ;
#211 = ADVANCED_FACE ( 'NONE', ( #236 ), #213, .T. ) ;
#212 = CARTESIAN_POINT ( 'NONE',  ( -108.2865231617622612, 0.000000000000000000, 0.000000000000000000 ) ) ;
#213 = CYLINDRICAL_SURFACE ( 'NONE', #250, 11.99999999999996803 ) ;
#214 = DIRECTION ( 'NONE',  ( -1.000000000000000000, -0.000000000000000000, -0.000000000000000000 ) ) ;
#215 = AXIS2_PLACEMENT_3D ( 'NONE', #188, #242, #23 ) ;
#216 = AXIS2_PLACEMENT_3D ( 'NONE', #155, #101, #59 ) ;
#217 = PERSON_AND_ORGANIZATION ( #220, #73 ) ;
#218 = APPROVAL_STATUS ( 'not_yet_approved' ) ;
#219 = CALENDAR_DATE ( 2024, 10, 9 ) ;
#220 = PERSON ( 'UNSPECIFIED', 'UNSPECIFIED', 'UNSPECIFIED', ('UNSPECIFIED'), ('UNSPECIFIED'), ('UNSPECIFIED') ) ;
#221 = ORIENTED_EDGE ( 'NONE', *, *, #36, .T. ) ;
#222 = APPROVAL_DATE_TIME ( #2, #190 ) ;
#223 = EDGE_CURVE ( 'NONE', #13, #92, #197, .T. ) ;
#224 = PERSON_AND_ORGANIZATION ( #220, #73 ) ;
#225 = ORIENTED_EDGE ( 'NONE', *, *, #46, .T. ) ;
#226 = SECURITY_CLASSIFICATION ( '', '', #123 ) ;
#227 = CARTESIAN_POINT ( 'NONE',  ( -2.999999999999988898, 0.000000000000000000, -14.49999999999996803 ) ) ;
#228 = DIRECTION ( 'NONE',  ( 0.9396926207859092051, 0.000000000000000000, -0.3420201433256662704 ) ) ;
#229 = CARTESIAN_POINT ( 'NONE',  ( 3.686287386450715076E-15, 11.99999999999996803, 0.000000000000000000 ) ) ;
#230 = FACE_OUTER_BOUND ( 'NONE', #247, .T. ) ;
#231 = CONICAL_SURFACE ( 'NONE', #216, 14.49999999999996803, 0.3490658503988633421 ) ;
#232 = DIRECTION ( 'NONE',  ( -1.000000000000000000, -0.000000000000000000, -0.000000000000000000 ) ) ;
#233 = CARTESIAN_POINT ( 'NONE',  ( -8.999999999999980460, 0.000000000000000000, 0.000000000000000000 ) ) ;
#234 = CARTESIAN_POINT ( 'NONE',  ( -2.999999999999988898, 0.000000000000000000, 11.99999999999996803 ) ) ;
#235 = ADVANCED_FACE ( 'NONE', ( #174 ), #254, .T. ) ;
#236 = FACE_OUTER_BOUND ( 'NONE', #124, .T. ) ;
#237 =( NAMED_UNIT ( * ) SI_UNIT ( $, .STERADIAN. ) SOLID_ANGLE_UNIT ( ) );
#238 = CC_DESIGN_PERSON_AND_ORGANIZATION_ASSIGNMENT ( #178, #67, ( #226 ) ) ;
#239 = APPLICATION_PROTOCOL_DEFINITION ( 'international standard', 'config_control_design', 1994, #22 ) ;
#240 = APPROVAL_STATUS ( 'not_yet_approved' ) ;
#241 = PERSON_AND_ORGANIZATION ( #220, #73 ) ;
#242 = DIRECTION ( 'NONE',  ( 0.000000000000000000, 0.000000000000000000, 1.000000000000000000 ) ) ;
#243 = FACE_BOUND ( 'NONE', #9, .T. ) ;
#244 = DIRECTION ( 'NONE',  ( -1.000000000000000000, 0.000000000000000000, -0.000000000000000000 ) ) ;
#245 = EDGE_CURVE ( 'NONE', #106, #94, #48, .T. ) ;
#246 = EDGE_LOOP ( 'NONE', ( #148, #167 ) ) ;
#247 = EDGE_LOOP ( 'NONE', ( #183, #163 ) ) ;
#248 = ORIENTED_EDGE ( 'NONE', *, *, #21, .F. ) ;
#249 = APPLICATION_CONTEXT ( 'configuration controlled 3d designs of mechanical parts and assemblies' ) ;
#250 = AXIS2_PLACEMENT_3D ( 'NONE', #139, #19, #17 ) ;
#251 = DIRECTION ( 'NONE',  ( -1.000000000000000000, -0.000000000000000000, -0.000000000000000000 ) ) ;
#252 = LOCAL_TIME ( 8, 56, 23.00000000000000000, #126 ) ;
#253 = LINE ( 'NONE', #114, #191 ) ;
#254 = CYLINDRICAL_SURFACE ( 'NONE', #16, 11.99999999999996803 ) ;
#255 = ADVANCED_BREP_SHAPE_REPRESENTATION ( '3D_M-2030P_15_174774015', ( #150, #215 ), #39 ) ;
ENDSEC;
END-ISO-10303-21;
