ISO-10303-21;
HEADER;
/* Generated by software containing ST-Developer
 * from STEP Tools, Inc. (www.steptools.com) 
 */
/* OPTION: using custom renumber hook */

FILE_DESCRIPTION(
/* description */ ('STEP AP203'),
/* implementation_level */ '2;1');

FILE_NAME(
/* name */ '07300020CH',
/* time_stamp */ '2024-03-19T17:25:32+01:00',
/* author */ ('License CC BY-ND 4.0'),
/* organization */ ('CADENAS'),
/* preprocessor_version */ 'ST-DEVELOPER v19.3',
/* originating_system */ 'PARTsolutions',
/* authorisation */ '  ');

FILE_SCHEMA (('CONFIG_CONTROL_DESIGN'));
ENDSEC;

DATA;
#10=PROPERTY_DEFINITION_REPRESENTATION(#14,#12);
#11=PROPERTY_DEFINITION_REPRESENTATION(#15,#13);
#12=REPRESENTATION('',(#16),#557);
#13=REPRESENTATION('',(#17),#557);
#14=PROPERTY_DEFINITION('pmi validation property','',#562);
#15=PROPERTY_DEFINITION('pmi validation property','',#562);
#16=VALUE_REPRESENTATION_ITEM('number of annotations',COUNT_MEASURE(0.));
#17=VALUE_REPRESENTATION_ITEM('number of views',COUNT_MEASURE(0.));
#18=SHAPE_REPRESENTATION_RELATIONSHIP('','',#282,#19);
#19=ADVANCED_BREP_SHAPE_REPRESENTATION('',(#280),#557);
#20=LINE('',#501,#22);
#21=LINE('',#503,#23);
#22=VECTOR('',#341,1000.);
#23=VECTOR('',#342,1000.);
#24=PLANE('',#289);
#25=PLANE('',#294);
#26=PLANE('',#301);
#27=PLANE('',#302);
#28=PLANE('',#306);
#29=PLANE('',#307);
#30=PLANE('',#311);
#31=PLANE('',#312);
#32=PLANE('',#319);
#33=PLANE('',#320);
#34=PLANE('',#323);
#35=PLANE('',#326);
#36=ELLIPSE('',#286,19.7989898732233,14.);
#37=ELLIPSE('',#288,19.7989898732233,14.);
#38=ELLIPSE('',#293,16.9705627484771,12.);
#39=CIRCLE('',#285,14.);
#40=CIRCLE('',#287,14.);
#41=CIRCLE('',#290,12.);
#42=CIRCLE('',#292,12.);
#43=CIRCLE('',#295,12.);
#44=CIRCLE('',#297,12.);
#45=CIRCLE('',#299,14.5);
#46=CIRCLE('',#300,14.5);
#47=CIRCLE('',#304,14.5);
#48=CIRCLE('',#305,14.5);
#49=CIRCLE('',#309,18.);
#50=CIRCLE('',#310,18.);
#51=CIRCLE('',#313,15.5);
#52=CIRCLE('',#315,15.5);
#53=CIRCLE('',#317,30.);
#54=CIRCLE('',#318,30.);
#55=CIRCLE('',#322,9.);
#56=CIRCLE('',#325,9.);
#57=ORIENTED_EDGE('',*,*,#109,.T.);
#58=ORIENTED_EDGE('',*,*,#110,.T.);
#59=ORIENTED_EDGE('',*,*,#111,.F.);
#60=ORIENTED_EDGE('',*,*,#112,.F.);
#61=ORIENTED_EDGE('',*,*,#113,.T.);
#62=ORIENTED_EDGE('',*,*,#114,.F.);
#63=ORIENTED_EDGE('',*,*,#115,.F.);
#64=ORIENTED_EDGE('',*,*,#116,.F.);
#65=ORIENTED_EDGE('',*,*,#113,.F.);
#66=ORIENTED_EDGE('',*,*,#117,.F.);
#67=ORIENTED_EDGE('',*,*,#118,.T.);
#68=ORIENTED_EDGE('',*,*,#119,.T.);
#69=ORIENTED_EDGE('',*,*,#118,.F.);
#70=ORIENTED_EDGE('',*,*,#120,.T.);
#71=ORIENTED_EDGE('',*,*,#121,.F.);
#72=ORIENTED_EDGE('',*,*,#111,.T.);
#73=ORIENTED_EDGE('',*,*,#122,.F.);
#74=ORIENTED_EDGE('',*,*,#121,.T.);
#75=ORIENTED_EDGE('',*,*,#123,.T.);
#76=ORIENTED_EDGE('',*,*,#124,.F.);
#77=ORIENTED_EDGE('',*,*,#123,.F.);
#78=ORIENTED_EDGE('',*,*,#119,.F.);
#79=ORIENTED_EDGE('',*,*,#124,.T.);
#80=ORIENTED_EDGE('',*,*,#125,.F.);
#81=ORIENTED_EDGE('',*,*,#126,.T.);
#82=ORIENTED_EDGE('',*,*,#125,.T.);
#83=ORIENTED_EDGE('',*,*,#122,.T.);
#84=ORIENTED_EDGE('',*,*,#126,.F.);
#85=ORIENTED_EDGE('',*,*,#127,.F.);
#86=ORIENTED_EDGE('',*,*,#128,.T.);
#87=ORIENTED_EDGE('',*,*,#115,.T.);
#88=ORIENTED_EDGE('',*,*,#117,.T.);
#89=ORIENTED_EDGE('',*,*,#112,.T.);
#90=ORIENTED_EDGE('',*,*,#128,.F.);
#91=ORIENTED_EDGE('',*,*,#114,.T.);
#92=ORIENTED_EDGE('',*,*,#116,.T.);
#93=ORIENTED_EDGE('',*,*,#120,.F.);
#94=ORIENTED_EDGE('',*,*,#129,.F.);
#95=ORIENTED_EDGE('',*,*,#127,.T.);
#96=ORIENTED_EDGE('',*,*,#130,.F.);
#97=ORIENTED_EDGE('',*,*,#129,.T.);
#98=ORIENTED_EDGE('',*,*,#131,.F.);
#99=ORIENTED_EDGE('',*,*,#132,.T.);
#100=ORIENTED_EDGE('',*,*,#131,.T.);
#101=ORIENTED_EDGE('',*,*,#130,.T.);
#102=ORIENTED_EDGE('',*,*,#132,.F.);
#103=ORIENTED_EDGE('',*,*,#133,.T.);
#104=ORIENTED_EDGE('',*,*,#110,.F.);
#105=ORIENTED_EDGE('',*,*,#133,.F.);
#106=ORIENTED_EDGE('',*,*,#134,.T.);
#107=ORIENTED_EDGE('',*,*,#109,.F.);
#108=ORIENTED_EDGE('',*,*,#134,.F.);
#109=EDGE_CURVE('',#135,#135,#158,.T.);
#110=EDGE_CURVE('',#136,#136,#159,.T.);
#111=EDGE_CURVE('',#137,#137,#39,.T.);
#112=EDGE_CURVE('',#138,#139,#36,.T.);
#113=EDGE_CURVE('',#138,#140,#40,.T.);
#114=EDGE_CURVE('',#141,#140,#37,.T.);
#115=EDGE_CURVE('',#139,#141,#160,.T.);
#116=EDGE_CURVE('',#140,#142,#20,.T.);
#117=EDGE_CURVE('',#143,#138,#21,.T.);
#118=EDGE_CURVE('',#143,#142,#41,.T.);
#119=EDGE_CURVE('',#144,#144,#42,.T.);
#120=EDGE_CURVE('',#143,#142,#38,.F.);
#121=EDGE_CURVE('',#145,#145,#43,.T.);
#122=EDGE_CURVE('',#146,#146,#44,.T.);
#123=EDGE_CURVE('',#147,#147,#45,.T.);
#124=EDGE_CURVE('',#148,#148,#46,.T.);
#125=EDGE_CURVE('',#149,#149,#47,.T.);
#126=EDGE_CURVE('',#150,#150,#48,.T.);
#127=EDGE_CURVE('',#151,#151,#49,.T.);
#128=EDGE_CURVE('',#141,#139,#50,.T.);
#129=EDGE_CURVE('',#152,#152,#51,.T.);
#130=EDGE_CURVE('',#153,#153,#52,.T.);
#131=EDGE_CURVE('',#154,#154,#53,.T.);
#132=EDGE_CURVE('',#155,#155,#54,.T.);
#133=EDGE_CURVE('',#156,#156,#55,.T.);
#134=EDGE_CURVE('',#157,#157,#56,.T.);
#135=VERTEX_POINT('',#439);
#136=VERTEX_POINT('',#460);
#137=VERTEX_POINT('',#462);
#138=VERTEX_POINT('',#464);
#139=VERTEX_POINT('',#465);
#140=VERTEX_POINT('',#467);
#141=VERTEX_POINT('',#469);
#142=VERTEX_POINT('',#502);
#143=VERTEX_POINT('',#504);
#144=VERTEX_POINT('',#508);
#145=VERTEX_POINT('',#512);
#146=VERTEX_POINT('',#515);
#147=VERTEX_POINT('',#518);
#148=VERTEX_POINT('',#520);
#149=VERTEX_POINT('',#525);
#150=VERTEX_POINT('',#527);
#151=VERTEX_POINT('',#532);
#152=VERTEX_POINT('',#537);
#153=VERTEX_POINT('',#540);
#154=VERTEX_POINT('',#543);
#155=VERTEX_POINT('',#545);
#156=VERTEX_POINT('',#550);
#157=VERTEX_POINT('',#554);
#158=B_SPLINE_CURVE_WITH_KNOTS('',3,(#419,#420,#421,#422,#423,#424,#425,
#426,#427,#428,#429,#430,#431,#432,#433,#434,#435,#436,#437,#438),
 .UNSPECIFIED.,.T.,.F.,(1,1,1,1,1,1,1,1,1,1,1,1,1,1,1,1,1,1,1,1,1,1,1,1),
(-0.00724609041666022,-0.00362304520833011,-0.00181152260416505,0.,0.00362304520833011,
0.00724609041666023,0.0108691356249903,0.0144921808333205,0.0181152260416506,
0.0217382712499807,0.0253613164583108,0.0289843616666409,0.032607406874971,
0.0362304520833011,0.0398534972916312,0.0434765424999614,0.0470995877082915,
0.0507226329166216,0.0543456781249517,0.0561572007291168,0.0579687233332818,
0.0615917685416119,0.065214813749942,0.0688378589582721),.UNSPECIFIED.);
#159=B_SPLINE_CURVE_WITH_KNOTS('',3,(#440,#441,#442,#443,#444,#445,#446,
#447,#448,#449,#450,#451,#452,#453,#454,#455,#456,#457,#458,#459),
 .UNSPECIFIED.,.T.,.F.,(1,1,1,1,1,1,1,1,1,1,1,1,1,1,1,1,1,1,1,1,1,1,1,1),
(-0.00723651786654043,-0.00361825893327022,-0.00180912946663511,0.,0.00361825893327022,
0.00723651786654043,0.0108547767998107,0.0144730357330809,0.0180912946663511,
0.0217095535996213,0.0253278125328915,0.0289460714661617,0.0325643303994319,
0.0361825893327022,0.0398008482659724,0.0434191071992426,0.0470373661325128,
0.050655625065783,0.0542738839990533,0.0560830134656884,0.0578921429323235,
0.0615104018655937,0.0651286607988639,0.0687469197321341),.UNSPECIFIED.);
#160=B_SPLINE_CURVE_WITH_KNOTS('',3,(#470,#471,#472,#473,#474,#475,#476,
#477,#478,#479,#480,#481,#482,#483,#484,#485,#486,#487,#488,#489,#490,#491,
#492,#493,#494,#495,#496,#497,#498,#499),.UNSPECIFIED.,.F.,.F.,(4,1,1,1,
1,1,1,1,1,1,1,1,1,1,1,1,1,1,1,1,1,1,1,1,1,1,1,4),(1.22969749649977E-17,
0.00296595018709134,0.00593190037418266,0.00889785056127399,0.0118638007483653,
0.0148297509354566,0.017795701122548,0.0237276014967306,0.0296595018709133,
0.0355914022450959,0.0385573524321872,0.0415233026192786,0.0444892528063699,
0.0474552029934612,0.0504211531805525,0.0533871033676439,0.0563530535547352,
0.0593190037418265,0.0622849539289178,0.0652509041160092,0.0711828044901918,
0.0771147048643745,0.0800806550514658,0.0830466052385571,0.0860125554256484,
0.0889785056127398,0.0919444557998311,0.0949104059869224),.UNSPECIFIED.);
#161=EDGE_LOOP('',(#57));
#162=EDGE_LOOP('',(#58));
#163=EDGE_LOOP('',(#59));
#164=EDGE_LOOP('',(#60,#61,#62,#63));
#165=EDGE_LOOP('',(#64,#65,#66,#67));
#166=EDGE_LOOP('',(#68));
#167=EDGE_LOOP('',(#69,#70));
#168=EDGE_LOOP('',(#71));
#169=EDGE_LOOP('',(#72));
#170=EDGE_LOOP('',(#73));
#171=EDGE_LOOP('',(#74));
#172=EDGE_LOOP('',(#75));
#173=EDGE_LOOP('',(#76));
#174=EDGE_LOOP('',(#77));
#175=EDGE_LOOP('',(#78));
#176=EDGE_LOOP('',(#79));
#177=EDGE_LOOP('',(#80));
#178=EDGE_LOOP('',(#81));
#179=EDGE_LOOP('',(#82));
#180=EDGE_LOOP('',(#83));
#181=EDGE_LOOP('',(#84));
#182=EDGE_LOOP('',(#85));
#183=EDGE_LOOP('',(#86,#87));
#184=EDGE_LOOP('',(#88,#89,#90,#91,#92,#93));
#185=EDGE_LOOP('',(#94));
#186=EDGE_LOOP('',(#95));
#187=EDGE_LOOP('',(#96));
#188=EDGE_LOOP('',(#97));
#189=EDGE_LOOP('',(#98));
#190=EDGE_LOOP('',(#99));
#191=EDGE_LOOP('',(#100));
#192=EDGE_LOOP('',(#101));
#193=EDGE_LOOP('',(#102));
#194=EDGE_LOOP('',(#103));
#195=EDGE_LOOP('',(#104));
#196=EDGE_LOOP('',(#105));
#197=EDGE_LOOP('',(#106));
#198=EDGE_LOOP('',(#107));
#199=EDGE_LOOP('',(#108));
#200=FACE_BOUND('',#161,.T.);
#201=FACE_BOUND('',#162,.T.);
#202=FACE_BOUND('',#163,.T.);
#203=FACE_BOUND('',#164,.T.);
#204=FACE_BOUND('',#165,.T.);
#205=FACE_BOUND('',#166,.T.);
#206=FACE_BOUND('',#167,.T.);
#207=FACE_BOUND('',#168,.T.);
#208=FACE_BOUND('',#169,.T.);
#209=FACE_BOUND('',#170,.T.);
#210=FACE_BOUND('',#171,.T.);
#211=FACE_BOUND('',#172,.T.);
#212=FACE_BOUND('',#173,.T.);
#213=FACE_BOUND('',#174,.T.);
#214=FACE_BOUND('',#175,.T.);
#215=FACE_BOUND('',#176,.T.);
#216=FACE_BOUND('',#177,.T.);
#217=FACE_BOUND('',#178,.T.);
#218=FACE_BOUND('',#179,.T.);
#219=FACE_BOUND('',#180,.T.);
#220=FACE_BOUND('',#181,.T.);
#221=FACE_BOUND('',#182,.T.);
#222=FACE_BOUND('',#183,.T.);
#223=FACE_BOUND('',#184,.T.);
#224=FACE_BOUND('',#185,.T.);
#225=FACE_BOUND('',#186,.T.);
#226=FACE_BOUND('',#187,.T.);
#227=FACE_BOUND('',#188,.T.);
#228=FACE_BOUND('',#189,.T.);
#229=FACE_BOUND('',#190,.T.);
#230=FACE_BOUND('',#191,.T.);
#231=FACE_BOUND('',#192,.T.);
#232=FACE_BOUND('',#193,.T.);
#233=FACE_BOUND('',#194,.T.);
#234=FACE_BOUND('',#195,.T.);
#235=FACE_BOUND('',#196,.T.);
#236=FACE_BOUND('',#197,.T.);
#237=FACE_BOUND('',#198,.T.);
#238=FACE_BOUND('',#199,.T.);
#239=CYLINDRICAL_SURFACE('',#284,14.);
#240=CYLINDRICAL_SURFACE('',#291,12.);
#241=CYLINDRICAL_SURFACE('',#296,12.);
#242=CYLINDRICAL_SURFACE('',#298,14.5);
#243=CYLINDRICAL_SURFACE('',#303,14.5);
#244=CYLINDRICAL_SURFACE('',#308,18.);
#245=CYLINDRICAL_SURFACE('',#314,15.5);
#246=CYLINDRICAL_SURFACE('',#316,30.);
#247=CYLINDRICAL_SURFACE('',#321,9.);
#248=CYLINDRICAL_SURFACE('',#324,9.);
#249=ADVANCED_FACE('',(#200,#201,#202,#203),#239,.T.);
#250=ADVANCED_FACE('',(#204),#24,.F.);
#251=ADVANCED_FACE('',(#205,#206),#240,.T.);
#252=ADVANCED_FACE('',(#207,#208),#25,.T.);
#253=ADVANCED_FACE('',(#209,#210),#241,.T.);
#254=ADVANCED_FACE('',(#211,#212),#242,.T.);
#255=ADVANCED_FACE('',(#213),#26,.F.);
#256=ADVANCED_FACE('',(#214,#215),#27,.T.);
#257=ADVANCED_FACE('',(#216,#217),#243,.T.);
#258=ADVANCED_FACE('',(#218),#28,.T.);
#259=ADVANCED_FACE('',(#219,#220),#29,.F.);
#260=ADVANCED_FACE('',(#221,#222),#244,.T.);
#261=ADVANCED_FACE('',(#223),#30,.F.);
#262=ADVANCED_FACE('',(#224,#225),#31,.T.);
#263=ADVANCED_FACE('',(#226,#227),#245,.T.);
#264=ADVANCED_FACE('',(#228,#229),#246,.T.);
#265=ADVANCED_FACE('',(#230),#32,.T.);
#266=ADVANCED_FACE('',(#231,#232),#33,.F.);
#267=ADVANCED_FACE('',(#233,#234),#247,.T.);
#268=ADVANCED_FACE('',(#235),#34,.F.);
#269=ADVANCED_FACE('',(#236,#237),#248,.T.);
#270=ADVANCED_FACE('',(#238),#35,.F.);
#271=CLOSED_SHELL('',(#249,#250,#251,#252,#253,#254,#255,#256,#257,#258,
#259,#260,#261,#262,#263,#264,#265,#266,#267,#268,#269,#270));
#272=STYLED_ITEM('',(#273),#280);
#273=PRESENTATION_STYLE_ASSIGNMENT((#274));
#274=SURFACE_STYLE_USAGE(.BOTH.,#275);
#275=SURFACE_SIDE_STYLE('',(#276));
#276=SURFACE_STYLE_FILL_AREA(#277);
#277=FILL_AREA_STYLE('',(#278));
#278=FILL_AREA_STYLE_COLOUR('',#279);
#279=COLOUR_RGB('',0.689999997615814,0.689999997615814,0.689999997615814);
#280=MANIFOLD_SOLID_BREP('07300020CH',#271);
#281=SHAPE_DEFINITION_REPRESENTATION(#562,#282);
#282=SHAPE_REPRESENTATION('07300020CH',(#283),#557);
#283=AXIS2_PLACEMENT_3D('',#417,#327,#328);
#284=AXIS2_PLACEMENT_3D('',#418,#329,#330);
#285=AXIS2_PLACEMENT_3D('',#461,#331,#332);
#286=AXIS2_PLACEMENT_3D('',#463,#333,#334);
#287=AXIS2_PLACEMENT_3D('',#466,#335,#336);
#288=AXIS2_PLACEMENT_3D('',#468,#337,#338);
#289=AXIS2_PLACEMENT_3D('',#500,#339,#340);
#290=AXIS2_PLACEMENT_3D('',#505,#343,#344);
#291=AXIS2_PLACEMENT_3D('',#506,#345,#346);
#292=AXIS2_PLACEMENT_3D('',#507,#347,#348);
#293=AXIS2_PLACEMENT_3D('',#509,#349,#350);
#294=AXIS2_PLACEMENT_3D('',#510,#351,#352);
#295=AXIS2_PLACEMENT_3D('',#511,#353,#354);
#296=AXIS2_PLACEMENT_3D('',#513,#355,#356);
#297=AXIS2_PLACEMENT_3D('',#514,#357,#358);
#298=AXIS2_PLACEMENT_3D('',#516,#359,#360);
#299=AXIS2_PLACEMENT_3D('',#517,#361,#362);
#300=AXIS2_PLACEMENT_3D('',#519,#363,#364);
#301=AXIS2_PLACEMENT_3D('',#521,#365,#366);
#302=AXIS2_PLACEMENT_3D('',#522,#367,#368);
#303=AXIS2_PLACEMENT_3D('',#523,#369,#370);
#304=AXIS2_PLACEMENT_3D('',#524,#371,#372);
#305=AXIS2_PLACEMENT_3D('',#526,#373,#374);
#306=AXIS2_PLACEMENT_3D('',#528,#375,#376);
#307=AXIS2_PLACEMENT_3D('',#529,#377,#378);
#308=AXIS2_PLACEMENT_3D('',#530,#379,#380);
#309=AXIS2_PLACEMENT_3D('',#531,#381,#382);
#310=AXIS2_PLACEMENT_3D('',#533,#383,#384);
#311=AXIS2_PLACEMENT_3D('',#534,#385,#386);
#312=AXIS2_PLACEMENT_3D('',#535,#387,#388);
#313=AXIS2_PLACEMENT_3D('',#536,#389,#390);
#314=AXIS2_PLACEMENT_3D('',#538,#391,#392);
#315=AXIS2_PLACEMENT_3D('',#539,#393,#394);
#316=AXIS2_PLACEMENT_3D('',#541,#395,#396);
#317=AXIS2_PLACEMENT_3D('',#542,#397,#398);
#318=AXIS2_PLACEMENT_3D('',#544,#399,#400);
#319=AXIS2_PLACEMENT_3D('',#546,#401,#402);
#320=AXIS2_PLACEMENT_3D('',#547,#403,#404);
#321=AXIS2_PLACEMENT_3D('',#548,#405,#406);
#322=AXIS2_PLACEMENT_3D('',#549,#407,#408);
#323=AXIS2_PLACEMENT_3D('',#551,#409,#410);
#324=AXIS2_PLACEMENT_3D('',#552,#411,#412);
#325=AXIS2_PLACEMENT_3D('',#553,#413,#414);
#326=AXIS2_PLACEMENT_3D('',#555,#415,#416);
#327=DIRECTION('',(0.,0.,1.));
#328=DIRECTION('',(1.,0.,0.));
#329=DIRECTION('',(-1.,0.,0.));
#330=DIRECTION('',(0.,0.,1.));
#331=DIRECTION('',(1.,0.,0.));
#332=DIRECTION('',(0.,0.,-1.));
#333=DIRECTION('',(0.707106781186548,0.,0.707106781186548));
#334=DIRECTION('',(-0.707106781186548,0.,0.707106781186548));
#335=DIRECTION('',(1.,0.,0.));
#336=DIRECTION('',(0.,0.,-1.));
#337=DIRECTION('',(0.707106781186548,0.,0.707106781186548));
#338=DIRECTION('',(-0.707106781186548,0.,0.707106781186548));
#339=DIRECTION('',(1.,0.,0.));
#340=DIRECTION('',(0.,0.,-1.));
#341=DIRECTION('',(0.,-1.,0.));
#342=DIRECTION('',(0.,-1.,0.));
#343=DIRECTION('',(1.,0.,0.));
#344=DIRECTION('',(0.,0.,-1.));
#345=DIRECTION('',(1.,0.,0.));
#346=DIRECTION('',(0.,0.,-1.));
#347=DIRECTION('',(1.,0.,0.));
#348=DIRECTION('',(0.,0.,-1.));
#349=DIRECTION('',(0.707106781186548,0.,0.707106781186548));
#350=DIRECTION('',(0.707106781186548,0.,-0.707106781186548));
#351=DIRECTION('',(1.,0.,0.));
#352=DIRECTION('',(0.,0.,-1.));
#353=DIRECTION('',(1.,0.,0.));
#354=DIRECTION('',(0.,0.,-1.));
#355=DIRECTION('',(-1.,0.,0.));
#356=DIRECTION('',(0.,0.,1.));
#357=DIRECTION('',(1.,0.,0.));
#358=DIRECTION('',(0.,0.,-1.));
#359=DIRECTION('',(1.,0.,0.));
#360=DIRECTION('',(0.,0.,-1.));
#361=DIRECTION('',(1.,0.,0.));
#362=DIRECTION('',(0.,0.,-1.));
#363=DIRECTION('',(1.,0.,0.));
#364=DIRECTION('',(0.,0.,-1.));
#365=DIRECTION('',(1.,0.,0.));
#366=DIRECTION('',(0.,0.,-1.));
#367=DIRECTION('',(1.,0.,0.));
#368=DIRECTION('',(0.,0.,-1.));
#369=DIRECTION('',(-1.,0.,0.));
#370=DIRECTION('',(0.,0.,1.));
#371=DIRECTION('',(1.,0.,0.));
#372=DIRECTION('',(0.,0.,-1.));
#373=DIRECTION('',(1.,0.,0.));
#374=DIRECTION('',(0.,0.,-1.));
#375=DIRECTION('',(1.,0.,0.));
#376=DIRECTION('',(0.,0.,-1.));
#377=DIRECTION('',(1.,0.,0.));
#378=DIRECTION('',(0.,0.,-1.));
#379=DIRECTION('',(-0.707106781186547,0.,-0.707106781186547));
#380=DIRECTION('',(-0.707106781186548,0.,0.707106781186548));
#381=DIRECTION('',(0.707106781186548,0.,0.707106781186548));
#382=DIRECTION('',(0.707106781186548,0.,-0.707106781186548));
#383=DIRECTION('',(0.707106781186548,0.,0.707106781186548));
#384=DIRECTION('',(0.707106781186548,0.,-0.707106781186548));
#385=DIRECTION('',(0.707106781186548,0.,0.707106781186548));
#386=DIRECTION('',(0.707106781186548,0.,-0.707106781186548));
#387=DIRECTION('',(0.707106781186548,0.,0.707106781186548));
#388=DIRECTION('',(0.707106781186548,0.,-0.707106781186548));
#389=DIRECTION('',(0.707106781186548,0.,0.707106781186548));
#390=DIRECTION('',(0.707106781186548,0.,-0.707106781186548));
#391=DIRECTION('',(-0.707106781186547,0.,-0.707106781186547));
#392=DIRECTION('',(-0.707106781186548,0.,0.707106781186548));
#393=DIRECTION('',(0.707106781186548,0.,0.707106781186548));
#394=DIRECTION('',(0.707106781186548,0.,-0.707106781186548));
#395=DIRECTION('',(-0.707106781186548,0.,-0.707106781186548));
#396=DIRECTION('',(-0.707106781186548,0.,0.707106781186548));
#397=DIRECTION('',(0.707106781186548,0.,0.707106781186548));
#398=DIRECTION('',(0.707106781186548,0.,-0.707106781186548));
#399=DIRECTION('',(0.707106781186548,0.,0.707106781186548));
#400=DIRECTION('',(0.707106781186548,0.,-0.707106781186548));
#401=DIRECTION('',(0.707106781186548,0.,0.707106781186548));
#402=DIRECTION('',(0.707106781186548,0.,-0.707106781186548));
#403=DIRECTION('',(0.707106781186548,0.,0.707106781186548));
#404=DIRECTION('',(0.707106781186548,0.,-0.707106781186548));
#405=DIRECTION('',(0.,1.,0.));
#406=DIRECTION('',(0.,0.,1.));
#407=DIRECTION('',(0.,1.,0.));
#408=DIRECTION('',(1.,0.,0.));
#409=DIRECTION('',(0.,1.,0.));
#410=DIRECTION('',(0.,0.,1.));
#411=DIRECTION('',(0.,0.,1.));
#412=DIRECTION('',(1.,0.,0.));
#413=DIRECTION('',(0.,0.,1.));
#414=DIRECTION('',(1.,0.,0.));
#415=DIRECTION('',(0.,0.,1.));
#416=DIRECTION('',(1.,0.,0.));
#417=CARTESIAN_POINT('',(0.,0.,0.));
#418=CARTESIAN_POINT('',(28.25,0.,0.));
#419=CARTESIAN_POINT('',(-9.37917082578446,-1.84784252750402,-13.9163600195695));
#420=CARTESIAN_POINT('',(-9.1217663810899,0.623265959225008,-14.0836589059559));
#421=CARTESIAN_POINT('',(-9.75824844126856,3.62981900449503,-13.6652697485496));
#422=CARTESIAN_POINT('',(-11.7554539319806,6.53509953182071,-12.4844877695609));
#423=CARTESIAN_POINT('',(-14.6012577701462,8.47852641500488,-11.1833663201842));
#424=CARTESIAN_POINT('',(-18.2351604028107,9.25598787253154,-10.4975827035714));
#425=CARTESIAN_POINT('',(-21.8582305683464,8.4974297426887,-11.169212140966));
#426=CARTESIAN_POINT('',(-24.7368389149112,6.54369216161879,-12.4792142125412));
#427=CARTESIAN_POINT('',(-26.7318536424839,3.65733549920984,-13.6591437779826));
#428=CARTESIAN_POINT('',(-27.5047947704935,0.0162472217270321,-14.1677536260625));
#429=CARTESIAN_POINT('',(-26.7488733601806,-3.62161266778965,-13.6697813436372));
#430=CARTESIAN_POINT('',(-24.7460181152693,-6.53705736371359,-12.4838961901397));
#431=CARTESIAN_POINT('',(-21.8785486815151,-8.48605920989694,-11.177559843074));
#432=CARTESIAN_POINT('',(-18.2679598381432,-9.25617611598881,-10.4976958962989));
#433=CARTESIAN_POINT('',(-14.6220868848718,-8.48918769081227,-11.1745291576966));
#434=CARTESIAN_POINT('',(-11.7595720269291,-6.54314493954633,-12.4823472969229));
#435=CARTESIAN_POINT('',(-10.0942286539062,-4.11303273547207,-13.4655414229362));
#436=CARTESIAN_POINT('',(-9.37917082578446,-1.84784252750402,-13.9163600195695));
#437=CARTESIAN_POINT('',(-9.1217663810899,0.623265959225008,-14.0836589059559));
#438=CARTESIAN_POINT('',(-9.75824844126856,3.62981900449503,-13.6652697485496));
#439=CARTESIAN_POINT('',(-9.25,0.,-14.));
#440=CARTESIAN_POINT('',(14.9095662113969,-10.8329562924171,8.87250867972796));
#441=CARTESIAN_POINT('',(17.3710458988492,-10.6132987091705,9.1272835036617));
#442=CARTESIAN_POINT('',(20.3627558533726,-11.1726095768341,8.49190506840493));
#443=CARTESIAN_POINT('',(23.2362356131649,-12.4787986147343,6.5442736976263));
#444=CARTESIAN_POINT('',(25.2252264336069,-13.6551111084151,3.66501422452416));
#445=CARTESIAN_POINT('',(26.0042671781442,-14.1674133391982,0.0496233795004746));
#446=CARTESIAN_POINT('',(25.2570863080427,-13.6748378995596,-3.60504582857027));
#447=CARTESIAN_POINT('',(23.2662091215907,-12.4961420040353,-6.51190577292262));
#448=CARTESIAN_POINT('',(20.4252097667288,-11.1927359985356,-8.46762555461213));
#449=CARTESIAN_POINT('',(16.7935360634096,-10.4973031950617,-9.25616125943623));
#450=CARTESIAN_POINT('',(13.1628699359894,-11.1614173237405,-8.5070927242295));
#451=CARTESIAN_POINT('',(10.2776199001351,-12.4713667209985,-6.55823194292947));
#452=CARTESIAN_POINT('',(8.27540315830944,-13.6545024729523,-3.67485719463697));
#453=CARTESIAN_POINT('',(7.49463816120429,-14.1679474253279,-0.0319444923693852));
#454=CARTESIAN_POINT('',(8.24638799579283,-13.6734868125577,3.60994327248422));
#455=CARTESIAN_POINT('',(10.2447420793167,-12.4864757576344,6.53119305732315));
#456=CARTESIAN_POINT('',(12.6439355936479,-11.4007545698844,8.15679814161078));
#457=CARTESIAN_POINT('',(14.9095662113969,-10.8329562924171,8.87250867972796));
#458=CARTESIAN_POINT('',(17.3710458988492,-10.6132987091705,9.1272835036617));
#459=CARTESIAN_POINT('',(20.3627558533726,-11.1726095768341,8.49190506840493));
#460=CARTESIAN_POINT('',(16.75,-10.7238052947636,9.));
#461=CARTESIAN_POINT('',(28.25,0.,0.));
#462=CARTESIAN_POINT('',(28.25,0.,-14.));
#463=CARTESIAN_POINT('',(-18.25,0.,0.));
#464=CARTESIAN_POINT('',(-28.25,-9.79795897113271,10.));
#465=CARTESIAN_POINT('',(-6.93629150101523,-8.24621125123531,-11.3137084989848));
#466=CARTESIAN_POINT('',(-28.25,0.,0.));
#467=CARTESIAN_POINT('',(-28.25,9.79795897113271,10.));
#468=CARTESIAN_POINT('',(-18.25,0.,0.));
#469=CARTESIAN_POINT('',(-6.93629150101523,8.24621125123531,-11.3137084989848));
#470=CARTESIAN_POINT('',(-6.93629150101524,-8.24621125123532,-11.3137084989848));
#471=CARTESIAN_POINT('',(-6.93629150101524,-9.05478688821237,-10.7243627936651));
#472=CARTESIAN_POINT('',(-6.89344390672462,-10.522252576827,-9.39345783511034));
#473=CARTESIAN_POINT('',(-6.51070213374907,-12.2622615748342,-6.96648447013228));
#474=CARTESIAN_POINT('',(-5.57271301884952,-13.4006378319378,-4.34705153798732));
#475=CARTESIAN_POINT('',(-3.99563304594023,-13.945064171382,-1.84423152059874));
#476=CARTESIAN_POINT('',(-1.97967644453064,-14.0456432253765,0.351052959626541));
#477=CARTESIAN_POINT('',(1.04900019169241,-13.7876669288012,2.92587472056526));
#478=CARTESIAN_POINT('',(5.09389018370945,-12.9610928139489,5.61203578165863));
#479=CARTESIAN_POINT('',(10.0688796720809,-11.331962428074,8.43585628641348));
#480=CARTESIAN_POINT('',(14.0965058656743,-9.38084455304169,10.521209034852));
#481=CARTESIAN_POINT('',(17.1167222274148,-7.2669968735163,12.0249391241396));
#482=CARTESIAN_POINT('',(19.1560578515498,-5.32026790876659,13.018705965399));
#483=CARTESIAN_POINT('',(20.7636906405571,-2.90353482629491,13.7898810477654));
#484=CARTESIAN_POINT('',(21.441589524639,0.0729326081529827,14.1120528307684));
#485=CARTESIAN_POINT('',(20.7028160389622,3.03132851740682,13.7608600006614));
#486=CARTESIAN_POINT('',(19.0663101518937,5.42331958014257,12.9753807928762));
#487=CARTESIAN_POINT('',(17.0120130246932,7.34881185675902,11.9732775336727));
#488=CARTESIAN_POINT('',(14.7691759962696,8.90370245677463,10.8557250174082));
#489=CARTESIAN_POINT('',(12.3829381023374,10.2075900975196,9.6332175784115));
#490=CARTESIAN_POINT('',(9.15836493442195,11.6343266604269,7.92025654647677));
#491=CARTESIAN_POINT('',(5.06444185434285,12.9673533871249,5.59361186165685));
#492=CARTESIAN_POINT('',(0.997147754757889,13.7968226562207,2.88945259418114));
#493=CARTESIAN_POINT('',(-2.01971512131214,14.0455447856192,0.310926472255807));
#494=CARTESIAN_POINT('',(-3.99947219868158,13.9428710069856,-1.85182755623281));
#495=CARTESIAN_POINT('',(-5.57625903850102,13.3989516831307,-4.35353283977741));
#496=CARTESIAN_POINT('',(-6.5106593921635,12.2591562684898,-6.96962165059862));
#497=CARTESIAN_POINT('',(-6.89271472423865,10.5305768394199,-9.38456894912371));
#498=CARTESIAN_POINT('',(-6.93629150101524,9.05273740102895,-10.7258566013121));
#499=CARTESIAN_POINT('',(-6.93629150101524,8.24621125123532,-11.3137084989848));
#500=CARTESIAN_POINT('',(-28.25,0.,0.));
#501=CARTESIAN_POINT('',(-28.25,0.,10.));
#502=CARTESIAN_POINT('',(-28.25,6.63324958071079,10.));
#503=CARTESIAN_POINT('',(-28.25,0.,10.));
#504=CARTESIAN_POINT('',(-28.25,-6.63324958071079,10.));
#505=CARTESIAN_POINT('',(-28.25,0.,0.));
#506=CARTESIAN_POINT('',(-57.75,0.,0.));
#507=CARTESIAN_POINT('',(-57.75,0.,0.));
#508=CARTESIAN_POINT('',(-57.75,0.,-12.));
#509=CARTESIAN_POINT('',(-18.25,0.,0.));
#510=CARTESIAN_POINT('',(28.25,0.,0.));
#511=CARTESIAN_POINT('',(28.25,0.,0.));
#512=CARTESIAN_POINT('',(28.25,0.,-12.));
#513=CARTESIAN_POINT('',(57.75,0.,0.));
#514=CARTESIAN_POINT('',(57.75,0.,0.));
#515=CARTESIAN_POINT('',(57.75,0.,-12.));
#516=CARTESIAN_POINT('',(-62.5,0.,0.));
#517=CARTESIAN_POINT('',(-62.5,0.,0.));
#518=CARTESIAN_POINT('',(-62.5,0.,-14.5));
#519=CARTESIAN_POINT('',(-57.75,0.,0.));
#520=CARTESIAN_POINT('',(-57.75,0.,-14.5));
#521=CARTESIAN_POINT('',(-62.5,0.,0.));
#522=CARTESIAN_POINT('',(-57.75,0.,0.));
#523=CARTESIAN_POINT('',(62.5,0.,0.));
#524=CARTESIAN_POINT('',(62.5,0.,0.));
#525=CARTESIAN_POINT('',(62.5,0.,-14.5));
#526=CARTESIAN_POINT('',(57.75,0.,0.));
#527=CARTESIAN_POINT('',(57.75,0.,-14.5));
#528=CARTESIAN_POINT('',(62.5,0.,0.));
#529=CARTESIAN_POINT('',(57.75,0.,0.));
#530=CARTESIAN_POINT('',(14.9840187157677,0.,33.2340187157677));
#531=CARTESIAN_POINT('',(14.9840187157677,0.,33.2340187157677));
#532=CARTESIAN_POINT('',(27.7119407771256,0.,20.5060966544099));
#533=CARTESIAN_POINT('',(-18.25,0.,0.));
#534=CARTESIAN_POINT('',(-18.25,0.,0.));
#535=CARTESIAN_POINT('',(14.9840187157677,0.,33.2340187157677));
#536=CARTESIAN_POINT('',(14.9840187157677,0.,33.2340187157677));
#537=CARTESIAN_POINT('',(25.9441738241592,0.,22.2738636073763));
#538=CARTESIAN_POINT('',(57.0010107606536,0.,75.2510107606536));
#539=CARTESIAN_POINT('',(57.0010107606536,0.,75.2510107606536));
#540=CARTESIAN_POINT('',(67.9611658690451,0.,64.2908556522621));
#541=CARTESIAN_POINT('',(60.5365446665863,0.,78.7865446665863));
#542=CARTESIAN_POINT('',(60.5365446665863,0.,78.7865446665863));
#543=CARTESIAN_POINT('',(81.7497481021827,0.,57.5733412309899));
#544=CARTESIAN_POINT('',(57.0010107606536,0.,75.2510107606536));
#545=CARTESIAN_POINT('',(78.21421419625,0.,54.0378073250572));
#546=CARTESIAN_POINT('',(60.5365446665863,0.,78.7865446665863));
#547=CARTESIAN_POINT('',(57.0010107606536,0.,75.2510107606536));
#548=CARTESIAN_POINT('',(16.75,-19.,0.));
#549=CARTESIAN_POINT('',(16.75,-19.,0.));
#550=CARTESIAN_POINT('',(25.75,-19.,0.));
#551=CARTESIAN_POINT('',(16.75,-19.,0.));
#552=CARTESIAN_POINT('',(-18.25,0.,-19.));
#553=CARTESIAN_POINT('',(-18.25,0.,-19.));
#554=CARTESIAN_POINT('',(-9.25,0.,-19.));
#555=CARTESIAN_POINT('',(-18.25,0.,-19.));
#556=MECHANICAL_DESIGN_GEOMETRIC_PRESENTATION_REPRESENTATION('',(#272),
#557);
#557=(
GEOMETRIC_REPRESENTATION_CONTEXT(3)
GLOBAL_UNCERTAINTY_ASSIGNED_CONTEXT((#558))
GLOBAL_UNIT_ASSIGNED_CONTEXT((#561,#560,#559))
REPRESENTATION_CONTEXT('07300020CH','TOP_LEVEL_ASSEMBLY_PART')
);
#558=UNCERTAINTY_MEASURE_WITH_UNIT(LENGTH_MEASURE(0.005),#561,
'DISTANCE_ACCURACY_VALUE','Maximum Tolerance applied to model');
#559=(
NAMED_UNIT(*)
SI_UNIT($,.STERADIAN.)
SOLID_ANGLE_UNIT()
);
#560=(
NAMED_UNIT(*)
PLANE_ANGLE_UNIT()
SI_UNIT($,.RADIAN.)
);
#561=(
LENGTH_UNIT()
NAMED_UNIT(*)
SI_UNIT(.MILLI.,.METRE.)
);
#562=PRODUCT_DEFINITION_SHAPE('','',#563);
#563=PRODUCT_DEFINITION('','',#565,#564);
#564=DESIGN_CONTEXT('',#571,'design');
#565=PRODUCT_DEFINITION_FORMATION_WITH_SPECIFIED_SOURCE('','',#567,
 .NOT_KNOWN.);
#566=PRODUCT_RELATED_PRODUCT_CATEGORY('','',(#567));
#567=PRODUCT('07300020CH','07300020CH','07300020CH',(#569));
#568=PRODUCT_CATEGORY('','');
#569=MECHANICAL_CONTEXT('',#571,'mechanical');
#570=APPLICATION_PROTOCOL_DEFINITION('international standard',
'config_control_design',2010,#571);
#571=APPLICATION_CONTEXT(
'configuration controlled 3D designs of mechanical parts and assemblie
s');
ENDSEC;
END-ISO-10303-21;
