ISO-10303-21;
HEADER;
FILE_DESCRIPTION (( 'STEP AP203' ),
    '1' );
FILE_NAME ('19-0408-74_outokumpu.step',
    '2015-08-11T09:38:23',
    ( '' ),
    ( '' ),
    'SwSTEP 2.0',
    'SolidWorks 2008',
    '' );
FILE_SCHEMA (( 'CONFIG_CONTROL_DESIGN' ));
ENDSEC;

DATA;
#1 = EDGE_CURVE ( 'NONE', #3, #41, #134, .T. ) ;
#2 = ORIENTED_EDGE ( 'NONE', *, *, #1, .T. ) ;
#3 = VERTEX_POINT ( 'NONE', #130 ) ;
#4 = VERTEX_POINT ( 'NONE', #129 ) ;
#5 = VERTEX_POINT ( 'NONE', #165 ) ;
#6 = ORIENTED_EDGE ( 'NONE', *, *, #7, .T. ) ;
#7 = EDGE_CURVE ( 'NONE', #4, #8, #157, .T. ) ;
#8 = VERTEX_POINT ( 'NONE', #156 ) ;
#9 = ORIENTED_EDGE ( 'NONE', *, *, #10, .F. ) ;
#10 = EDGE_CURVE ( 'NONE', #5, #62, #206, .T. ) ;
#11 = VERTEX_POINT ( 'NONE', #244 ) ;
#12 = ORIENTED_EDGE ( 'NONE', *, *, #13, .F. ) ;
#13 = EDGE_CURVE ( 'NONE', #108, #8, #266, .T. ) ;
#14 = EDGE_CURVE ( 'NONE', #11, #4, #203, .T. ) ;
#15 = ORIENTED_EDGE ( 'NONE', *, *, #14, .T. ) ;
#16 = ADVANCED_FACE ( 'NONE', ( #146 ), #155, .F. ) ;
#17 = EDGE_CURVE ( 'NONE', #20, #3, #142, .T. ) ;
#18 = ORIENTED_EDGE ( 'NONE', *, *, #22, .F. ) ;
#19 = ORIENTED_EDGE ( 'NONE', *, *, #17, .T. ) ;
#20 = VERTEX_POINT ( 'NONE', #246 ) ;
#21 = VERTEX_POINT ( 'NONE', #245 ) ;
#22 = EDGE_CURVE ( 'NONE', #20, #21, #254, .T. ) ;
#23 = ADVANCED_FACE ( 'NONE', ( #265 ), #264, .T. ) ;
#24 = EDGE_CURVE ( 'NONE', #120, #11, #168, .T. ) ;
#25 = MANIFOLD_SOLID_BREP ( 'NONE', #124 ) ;
#26 = ORIENTED_EDGE ( 'NONE', *, *, #24, .T. ) ;
#27 = EDGE_LOOP ( 'NONE', ( #49, #50 ) ) ;
#28 = ORIENTED_EDGE ( 'NONE', *, *, #29, .F. ) ;
#29 = EDGE_CURVE ( 'NONE', #59, #8, #169, .T. ) ;
#30 = ORIENTED_EDGE ( 'NONE', *, *, #31, .T. ) ;
#31 = EDGE_CURVE ( 'NONE', #58, #108, #164, .T. ) ;
#32 = ORIENTED_EDGE ( 'NONE', *, *, #127, .F. ) ;
#33 = ORIENTED_EDGE ( 'NONE', *, *, #13, .T. ) ;
#34 = ADVANCED_FACE ( 'NONE', ( #160 ), #158, .F. ) ;
#35 = PERSON_AND_ORGANIZATION ( #391, #390 ) ;
#36 = CC_DESIGN_APPROVAL ( #359, ( #362 ) ) ;
#37 = APPROVAL_DATE_TIME ( #38, #359 ) ;
#38 = DATE_AND_TIME ( #39, #355 ) ;
#39 = CALENDAR_DATE ( 2015, 11, 8 ) ;
#40 = EDGE_LOOP ( 'NONE', ( #32, #30, #33, #28 ) ) ;
#41 = VERTEX_POINT ( 'NONE', #219 ) ;
#42 = ORIENTED_EDGE ( 'NONE', *, *, #43, .F. ) ;
#43 = EDGE_CURVE ( 'NONE', #21, #41, #224, .T. ) ;
#44 = ORIENTED_EDGE ( 'NONE', *, *, #10, .T. ) ;
#45 = ORIENTED_EDGE ( 'NONE', *, *, #46, .T. ) ;
#46 = EDGE_CURVE ( 'NONE', #62, #5, #233, .T. ) ;
#47 = EDGE_CURVE ( 'NONE', #3, #20, #229, .T. ) ;
#48 = EDGE_LOOP ( 'NONE', ( #44, #45 ) ) ;
#49 = ORIENTED_EDGE ( 'NONE', *, *, #17, .F. ) ;
#50 = ORIENTED_EDGE ( 'NONE', *, *, #47, .F. ) ;
#51 = ADVANCED_FACE ( 'NONE', ( #201, #200 ), #199, .F. ) ;
#52 = EDGE_LOOP ( 'NONE', ( #81, #82, #83, #84, #85 ) ) ;
#53 = ORIENTED_EDGE ( 'NONE', *, *, #29, .T. ) ;
#54 = ORIENTED_EDGE ( 'NONE', *, *, #14, .F. ) ;
#55 = ADVANCED_FACE ( 'NONE', ( #197 ), #193, .T. ) ;
#56 = EDGE_LOOP ( 'NONE', ( #73, #74, #125, #97 ) ) ;
#57 = ORIENTED_EDGE ( 'NONE', *, *, #110, .F. ) ;
#58 = VERTEX_POINT ( 'NONE', #243 ) ;
#59 = VERTEX_POINT ( 'NONE', #240 ) ;
#60 = ORIENTED_EDGE ( 'NONE', *, *, #61, .T. ) ;
#61 = EDGE_CURVE ( 'NONE', #59, #62, #239, .T. ) ;
#62 = VERTEX_POINT ( 'NONE', #235 ) ;
#63 = VERTEX_POINT ( 'NONE', #234 ) ;
#64 = ORIENTED_EDGE ( 'NONE', *, *, #65, .T. ) ;
#65 = EDGE_CURVE ( 'NONE', #95, #11, #261, .T. ) ;
#66 = ADVANCED_FACE ( 'NONE', ( #257 ), #255, .F. ) ;
#67 = ORIENTED_EDGE ( 'NONE', *, *, #65, .F. ) ;
#68 = EDGE_CURVE ( 'NONE', #4, #104, #187, .T. ) ;
#69 = EDGE_LOOP ( 'NONE', ( #67, #79, #109, #103, #54 ) ) ;
#70 = ORIENTED_EDGE ( 'NONE', *, *, #111, .T. ) ;
#71 = EDGE_CURVE ( 'NONE', #63, #95, #182, .T. ) ;
#72 = ADVANCED_FACE ( 'NONE', ( #177 ), #176, .F. ) ;
#73 = ORIENTED_EDGE ( 'NONE', *, *, #1, .F. ) ;
#74 = ORIENTED_EDGE ( 'NONE', *, *, #47, .T. ) ;
#75 = ORIENTED_EDGE ( 'NONE', *, *, #31, .F. ) ;
#76 = ADVANCED_FACE ( 'NONE', ( #281 ), #279, .F. ) ;
#77 = ORIENTED_EDGE ( 'NONE', *, *, #61, .F. ) ;
#78 = ADVANCED_FACE ( 'NONE', ( #318 ), #313, .F. ) ;
#79 = ORIENTED_EDGE ( 'NONE', *, *, #71, .F. ) ;
#80 = EDGE_LOOP ( 'NONE', ( #75, #57, #53, #70 ) ) ;
#81 = ORIENTED_EDGE ( 'NONE', *, *, #7, .F. ) ;
#82 = ORIENTED_EDGE ( 'NONE', *, *, #68, .T. ) ;
#83 = ORIENTED_EDGE ( 'NONE', *, *, #92, .T. ) ;
#84 = ORIENTED_EDGE ( 'NONE', *, *, #119, .T. ) ;
#85 = ORIENTED_EDGE ( 'NONE', *, *, #111, .F. ) ;
#86 = EDGE_LOOP ( 'NONE', ( #77, #121, #122, #123 ) ) ;
#87 = EDGE_LOOP ( 'NONE', ( #88, #64, #90, #91, #105 ) ) ;
#88 = ORIENTED_EDGE ( 'NONE', *, *, #89, .F. ) ;
#89 = EDGE_CURVE ( 'NONE', #95, #63, #308, .T. ) ;
#90 = ORIENTED_EDGE ( 'NONE', *, *, #24, .F. ) ;
#91 = ORIENTED_EDGE ( 'NONE', *, *, #92, .F. ) ;
#92 = EDGE_CURVE ( 'NONE', #104, #120, #302, .T. ) ;
#93 = EDGE_CURVE ( 'NONE', #58, #5, #303, .T. ) ;
#94 = ADVANCED_FACE ( 'NONE', ( #295 ), #294, .F. ) ;
#95 = VERTEX_POINT ( 'NONE', #278 ) ;
#96 = ORIENTED_EDGE ( 'NONE', *, *, #93, .F. ) ;
#97 = ORIENTED_EDGE ( 'NONE', *, *, #98, .F. ) ;
#98 = EDGE_CURVE ( 'NONE', #41, #21, #274, .T. ) ;
#99 = ADVANCED_FACE ( 'NONE', ( #275, #269 ), #268, .F. ) ;
#100 = EDGE_LOOP ( 'NONE', ( #101, #102 ) ) ;
#101 = ORIENTED_EDGE ( 'NONE', *, *, #71, .T. ) ;
#102 = ORIENTED_EDGE ( 'NONE', *, *, #89, .T. ) ;
#103 = ORIENTED_EDGE ( 'NONE', *, *, #68, .F. ) ;
#104 = VERTEX_POINT ( 'NONE', #340 ) ;
#105 = ORIENTED_EDGE ( 'NONE', *, *, #106, .F. ) ;
#106 = EDGE_CURVE ( 'NONE', #63, #104, #339, .T. ) ;
#107 = EDGE_LOOP ( 'NONE', ( #15, #6, #12, #118, #26 ) ) ;
#108 = VERTEX_POINT ( 'NONE', #335 ) ;
#109 = ORIENTED_EDGE ( 'NONE', *, *, #106, .T. ) ;
#110 = EDGE_CURVE ( 'NONE', #59, #58, #334, .T. ) ;
#111 = EDGE_CURVE ( 'NONE', #8, #108, #329, .T. ) ;
#112 = EDGE_LOOP ( 'NONE', ( #113, #114 ) ) ;
#113 = ORIENTED_EDGE ( 'NONE', *, *, #43, .T. ) ;
#114 = ORIENTED_EDGE ( 'NONE', *, *, #98, .T. ) ;
#115 = ADVANCED_FACE ( 'NONE', ( #287 ), #286, .F. ) ;
#116 = EDGE_LOOP ( 'NONE', ( #126, #60, #9, #96 ) ) ;
#117 = EDGE_LOOP ( 'NONE', ( #19, #2, #42, #18 ) ) ;
#118 = ORIENTED_EDGE ( 'NONE', *, *, #119, .F. ) ;
#119 = EDGE_CURVE ( 'NONE', #120, #108, #328, .T. ) ;
#120 = VERTEX_POINT ( 'NONE', #324 ) ;
#121 = ORIENTED_EDGE ( 'NONE', *, *, #110, .T. ) ;
#122 = ORIENTED_EDGE ( 'NONE', *, *, #93, .T. ) ;
#123 = ORIENTED_EDGE ( 'NONE', *, *, #46, .F. ) ;
#124 = CLOSED_SHELL ( 'NONE', ( #16, #94, #23, #66, #34, #51, #78, #72, #55, #99, #115, #76 ) ) ;
#125 = ORIENTED_EDGE ( 'NONE', *, *, #22, .T. ) ;
#126 = ORIENTED_EDGE ( 'NONE', *, *, #127, .T. ) ;
#127 = EDGE_CURVE ( 'NONE', #58, #59, #322, .T. ) ;
#128 = DIRECTION ( 'NONE',  ( 1.000000000000000000, 0.0000000000000000000, 0.0000000000000000000 ) ) ;
#129 = CARTESIAN_POINT ( 'NONE',  ( 9.315499999999987700, 1.211931678060314700E-015, -65.00000000000000000 ) ) ;
#130 = CARTESIAN_POINT ( 'NONE',  ( -13.15000000000000200, 1.610357355276426400E-015, -80.00000000000000000 ) ) ;
#131 = DIRECTION ( 'NONE',  ( -0.0000000000000000000, -0.0000000000000000000, 1.000000000000000000 ) ) ;
#132 = VECTOR ( 'NONE', #131, 1000.000000000000000 ) ;
#133 = CARTESIAN_POINT ( 'NONE',  ( -13.15000000000000200, 1.610357355276426400E-015, -4.336808689942017700E-016 ) ) ;
#134 = LINE ( 'NONE', #133, #132 ) ;
#135 = CC_DESIGN_PERSON_AND_ORGANIZATION_ASSIGNMENT ( #137, #136, ( #362 ) ) ;
#136 = PERSON_AND_ORGANIZATION_ROLE ( 'design_supplier' ) ;
#137 = PERSON_AND_ORGANIZATION ( #391, #390 ) ;
#138 = CC_DESIGN_PERSON_AND_ORGANIZATION_ASSIGNMENT ( #35, #139, ( #362 ) ) ;
#139 = PERSON_AND_ORGANIZATION_ROLE ( 'creator' ) ;
#140 = CARTESIAN_POINT ( 'NONE',  ( 0.0000000000000000000, 0.0000000000000000000, -80.00000000000000000 ) ) ;
#141 = AXIS2_PLACEMENT_3D ( 'NONE', #140, #248, #247 ) ;
#142 = CIRCLE ( 'NONE', #141, 13.15000000000000200 ) ;
#143 = AXIS2_PLACEMENT_3D ( 'NONE', #205, #204, #145 ) ;
#144 = VECTOR ( 'NONE', #207, 1000.000000000000100 ) ;
#145 = DIRECTION ( 'NONE',  ( 1.000000000000000000, 0.0000000000000000000, 0.0000000000000000000 ) ) ;
#146 = FACE_OUTER_BOUND ( 'NONE', #116, .T. ) ;
#147 = DIRECTION ( 'NONE',  ( 1.000000000000000000, 0.0000000000000000000, 0.0000000000000000000 ) ) ;
#148 = DIRECTION ( 'NONE',  ( -0.0000000000000000000, -0.0000000000000000000, 1.000000000000000000 ) ) ;
#149 = AXIS2_PLACEMENT_3D ( 'NONE', #152, #148, #147 ) ;
#150 = CARTESIAN_POINT ( 'NONE',  ( 0.0000000000000000000, 0.0000000000000000000, -65.90699999999999600 ) ) ;
#151 = AXIS2_PLACEMENT_3D ( 'NONE', #150, #250, #249 ) ;
#152 = CARTESIAN_POINT ( 'NONE',  ( 0.0000000000000000000, 0.0000000000000000000, -65.00000000000000000 ) ) ;
#153 = CARTESIAN_POINT ( 'NONE',  ( 10.47749999999999700, 1.283081307217395400E-015, -65.90699999999999600 ) ) ;
#154 = CARTESIAN_POINT ( 'NONE',  ( 0.0000000000000000000, 0.0000000000000000000, -80.00000000000000000 ) ) ;
#155 = CONICAL_SURFACE ( 'NONE', #215, 10.84338236234973300, 0.7853981633974530500 ) ;
#156 = CARTESIAN_POINT ( 'NONE',  ( 10.47749999999999700, 0.0000000000000000000, -65.90699999999999600 ) ) ;
#157 = LINE ( 'NONE', #153, #144 ) ;
#158 = CYLINDRICAL_SURFACE ( 'NONE', #159, 10.47749999999999700 ) ;
#159 = AXIS2_PLACEMENT_3D ( 'NONE', #218, #217, #216 ) ;
#160 = FACE_OUTER_BOUND ( 'NONE', #40, .T. ) ;
#161 = DIRECTION ( 'NONE',  ( -0.0000000000000000000, -0.0000000000000000000, 1.000000000000000000 ) ) ;
#162 = VECTOR ( 'NONE', #161, 1000.000000000000000 ) ;
#163 = CARTESIAN_POINT ( 'NONE',  ( -10.47749999999999700, 1.283081307217395400E-015, -4.336808689942017700E-016 ) ) ;
#164 = LINE ( 'NONE', #163, #162 ) ;
#165 = CARTESIAN_POINT ( 'NONE',  ( -10.84338236234973300, 0.0000000000000000000, -80.00000000000000000 ) ) ;
#166 = CARTESIAN_POINT ( 'NONE',  ( 0.0000000000000000000, 0.0000000000000000000, -65.00000000000000000 ) ) ;
#167 = AXIS2_PLACEMENT_3D ( 'NONE', #166, #212, #211 ) ;
#168 = CIRCLE ( 'NONE', #167, 9.315499999999987700 ) ;
#169 = LINE ( 'NONE', #210, #209 ) ;
#170 = DIRECTION ( 'NONE',  ( 1.000000000000000000, 0.0000000000000000000, 0.0000000000000000000 ) ) ;
#171 = DIRECTION ( 'NONE',  ( -0.0000000000000000000, -0.0000000000000000000, 1.000000000000000000 ) ) ;
#172 = DIRECTION ( 'NONE',  ( 0.0000000000000000000, 1.000000000000000000, 0.0000000000000000000 ) ) ;
#173 = DIRECTION ( 'NONE',  ( -0.0000000000000000000, -2.556168068605763200E-018, -1.000000000000000000 ) ) ;
#174 = CARTESIAN_POINT ( 'NONE',  ( 0.0000000000000000000, -3.673940397442076500E-015, -80.00000000000004300 ) ) ;
#175 = AXIS2_PLACEMENT_3D ( 'NONE', #174, #173, #172 ) ;
#176 = CYLINDRICAL_SURFACE ( 'NONE', #175, 9.315500000000000100 ) ;
#177 = FACE_OUTER_BOUND ( 'NONE', #69, .T. ) ;
#178 = DIRECTION ( 'NONE',  ( 0.0000000000000000000, 1.000000000000000000, -2.556168068605762800E-018 ) ) ;
#179 = DIRECTION ( 'NONE',  ( -0.0000000000000000000, -2.556168068605763200E-018, -1.000000000000000000 ) ) ;
#180 = CARTESIAN_POINT ( 'NONE',  ( 0.0000000000000000000, -3.469446951953615000E-015, 0.0000000000000000000 ) ) ;
#181 = AXIS2_PLACEMENT_3D ( 'NONE', #180, #179, #178 ) ;
#182 = CIRCLE ( 'NONE', #181, 9.315499999999991200 ) ;
#183 = DIRECTION ( 'NONE',  ( 1.000000000000000000, 0.0000000000000000000, 0.0000000000000000000 ) ) ;
#184 = DIRECTION ( 'NONE',  ( -0.0000000000000000000, -0.0000000000000000000, 1.000000000000000000 ) ) ;
#185 = CARTESIAN_POINT ( 'NONE',  ( 0.0000000000000000000, 0.0000000000000000000, -65.00000000000000000 ) ) ;
#186 = AXIS2_PLACEMENT_3D ( 'NONE', #185, #184, #183 ) ;
#187 = CIRCLE ( 'NONE', #186, 9.315499999999987700 ) ;
#188 = DIRECTION ( 'NONE',  ( 0.0000000000000000000, 1.000000000000000000, 0.0000000000000000000 ) ) ;
#189 = DIRECTION ( 'NONE',  ( -0.0000000000000000000, -2.556168068605763200E-018, -1.000000000000000000 ) ) ;
#190 = CARTESIAN_POINT ( 'NONE',  ( 0.0000000000000000000, -3.673940397442076500E-015, -80.00000000000004300 ) ) ;
#191 = CARTESIAN_POINT ( 'NONE',  ( 0.0000000000000000000, 0.0000000000000000000, -4.336808689942017700E-016 ) ) ;
#192 = AXIS2_PLACEMENT_3D ( 'NONE', #191, #242, #241 ) ;
#193 = CYLINDRICAL_SURFACE ( 'NONE', #192, 13.15000000000000200 ) ;
#194 = DIRECTION ( 'NONE',  ( 1.000000000000000000, 0.0000000000000000000, 0.0000000000000000000 ) ) ;
#195 = DIRECTION ( 'NONE',  ( 0.0000000000000000000, -0.0000000000000000000, 1.000000000000000000 ) ) ;
#196 = AXIS2_PLACEMENT_3D ( 'NONE', #198, #195, #194 ) ;
#197 = FACE_OUTER_BOUND ( 'NONE', #56, .T. ) ;
#198 = CARTESIAN_POINT ( 'NONE',  ( 0.0000000000000000000, 13.15000000000000200, -80.00000000000000000 ) ) ;
#199 = PLANE ( 'NONE',  #196 ) ;
#200 = FACE_BOUND ( 'NONE', #48, .T. ) ;
#201 = FACE_OUTER_BOUND ( 'NONE', #27, .T. ) ;
#202 = DIRECTION ( 'NONE',  ( 1.000000000000000000, 0.0000000000000000000, 0.0000000000000000000 ) ) ;
#203 = CIRCLE ( 'NONE', #149, 9.315499999999987700 ) ;
#204 = DIRECTION ( 'NONE',  ( -0.0000000000000000000, -0.0000000000000000000, 1.000000000000000000 ) ) ;
#205 = CARTESIAN_POINT ( 'NONE',  ( 0.0000000000000000000, 0.0000000000000000000, -80.00000000000000000 ) ) ;
#206 = CIRCLE ( 'NONE', #143, 10.84338236234973300 ) ;
#207 = DIRECTION ( 'NONE',  ( 0.7882917068561162700, 9.653470328814866600E-017, -0.6153017023394871100 ) ) ;
#208 = DIRECTION ( 'NONE',  ( -0.0000000000000000000, -0.0000000000000000000, 1.000000000000000000 ) ) ;
#209 = VECTOR ( 'NONE', #208, 1000.000000000000000 ) ;
#210 = CARTESIAN_POINT ( 'NONE',  ( 10.47749999999999700, 0.0000000000000000000, -4.336808689942017700E-016 ) ) ;
#211 = DIRECTION ( 'NONE',  ( 1.000000000000000000, 0.0000000000000000000, 0.0000000000000000000 ) ) ;
#212 = DIRECTION ( 'NONE',  ( -0.0000000000000000000, -0.0000000000000000000, 1.000000000000000000 ) ) ;
#213 = DIRECTION ( 'NONE',  ( -1.000000000000000000, 0.0000000000000000000, 0.0000000000000000000 ) ) ;
#214 = DIRECTION ( 'NONE',  ( 0.0000000000000000000, 0.0000000000000000000, -1.000000000000000000 ) ) ;
#215 = AXIS2_PLACEMENT_3D ( 'NONE', #154, #214, #213 ) ;
#216 = DIRECTION ( 'NONE',  ( 1.000000000000000000, 0.0000000000000000000, 0.0000000000000000000 ) ) ;
#217 = DIRECTION ( 'NONE',  ( -0.0000000000000000000, -0.0000000000000000000, 1.000000000000000000 ) ) ;
#218 = CARTESIAN_POINT ( 'NONE',  ( 0.0000000000000000000, 0.0000000000000000000, -4.336808689942017700E-016 ) ) ;
#219 = CARTESIAN_POINT ( 'NONE',  ( -13.15000000000000000, 1.610357355276426200E-015, 0.0000000000000000000 ) ) ;
#220 = DIRECTION ( 'NONE',  ( 1.000000000000000000, 0.0000000000000000000, 0.0000000000000000000 ) ) ;
#221 = DIRECTION ( 'NONE',  ( -0.0000000000000000000, -0.0000000000000000000, 1.000000000000000000 ) ) ;
#222 = CARTESIAN_POINT ( 'NONE',  ( 0.0000000000000000000, 0.0000000000000000000, 0.0000000000000000000 ) ) ;
#223 = AXIS2_PLACEMENT_3D ( 'NONE', #222, #221, #220 ) ;
#224 = CIRCLE ( 'NONE', #223, 13.15000000000000000 ) ;
#225 = CARTESIAN_POINT ( 'NONE',  ( 0.0000000000000000000, 0.0000000000000000000, -80.00000000000000000 ) ) ;
#226 = DIRECTION ( 'NONE',  ( -0.0000000000000000000, -0.0000000000000000000, 1.000000000000000000 ) ) ;
#227 = CARTESIAN_POINT ( 'NONE',  ( 0.0000000000000000000, 0.0000000000000000000, -80.00000000000000000 ) ) ;
#228 = AXIS2_PLACEMENT_3D ( 'NONE', #227, #226, #202 ) ;
#229 = CIRCLE ( 'NONE', #228, 13.15000000000000200 ) ;
#230 = DIRECTION ( 'NONE',  ( 1.000000000000000000, 0.0000000000000000000, 0.0000000000000000000 ) ) ;
#231 = DIRECTION ( 'NONE',  ( -0.0000000000000000000, -0.0000000000000000000, 1.000000000000000000 ) ) ;
#232 = AXIS2_PLACEMENT_3D ( 'NONE', #225, #231, #230 ) ;
#233 = CIRCLE ( 'NONE', #232, 10.84338236234973300 ) ;
#234 = CARTESIAN_POINT ( 'NONE',  ( 0.0000000000000000000, 9.315499999999987700, -2.381198364309696200E-017 ) ) ;
#235 = CARTESIAN_POINT ( 'NONE',  ( 10.84338236234973300, 1.327887493785898100E-015, -80.00000000000000000 ) ) ;
#236 = DIRECTION ( 'NONE',  ( 0.7071067811865507900, 8.659274570719396100E-017, -0.7071067811865441300 ) ) ;
#237 = VECTOR ( 'NONE', #236, 1000.000000000000000 ) ;
#238 = CARTESIAN_POINT ( 'NONE',  ( 10.84338236234973300, 1.327887493785898100E-015, -80.00000000000000000 ) ) ;
#239 = LINE ( 'NONE', #238, #237 ) ;
#240 = CARTESIAN_POINT ( 'NONE',  ( 10.47749999999999700, 0.0000000000000000000, -79.63411763765026300 ) ) ;
#241 = DIRECTION ( 'NONE',  ( 1.000000000000000000, 0.0000000000000000000, 0.0000000000000000000 ) ) ;
#242 = DIRECTION ( 'NONE',  ( -0.0000000000000000000, -0.0000000000000000000, 1.000000000000000000 ) ) ;
#243 = CARTESIAN_POINT ( 'NONE',  ( -10.47749999999999700, 1.283081307217395400E-015, -79.63411763765026300 ) ) ;
#244 = CARTESIAN_POINT ( 'NONE',  ( 1.140782048903234800E-015, -9.315499999999987700, -65.00000000000000000 ) ) ;
#245 = CARTESIAN_POINT ( 'NONE',  ( 13.15000000000000000, 0.0000000000000000000, 0.0000000000000000000 ) ) ;
#246 = CARTESIAN_POINT ( 'NONE',  ( 13.15000000000000200, 0.0000000000000000000, -80.00000000000000000 ) ) ;
#247 = DIRECTION ( 'NONE',  ( 1.000000000000000000, 0.0000000000000000000, 0.0000000000000000000 ) ) ;
#248 = DIRECTION ( 'NONE',  ( -0.0000000000000000000, -0.0000000000000000000, 1.000000000000000000 ) ) ;
#249 = DIRECTION ( 'NONE',  ( 1.000000000000000000, 0.0000000000000000000, 0.0000000000000000000 ) ) ;
#250 = DIRECTION ( 'NONE',  ( -0.0000000000000000000, -0.0000000000000000000, 1.000000000000000000 ) ) ;
#251 = DIRECTION ( 'NONE',  ( -0.0000000000000000000, -0.0000000000000000000, 1.000000000000000000 ) ) ;
#252 = VECTOR ( 'NONE', #251, 1000.000000000000000 ) ;
#253 = CARTESIAN_POINT ( 'NONE',  ( 13.15000000000000200, 0.0000000000000000000, -4.336808689942017700E-016 ) ) ;
#254 = LINE ( 'NONE', #253, #252 ) ;
#255 = CYLINDRICAL_SURFACE ( 'NONE', #256, 9.315500000000000100 ) ;
#256 = AXIS2_PLACEMENT_3D ( 'NONE', #190, #189, #188 ) ;
#257 = FACE_OUTER_BOUND ( 'NONE', #87, .T. ) ;
#258 = DIRECTION ( 'NONE',  ( -0.0000000000000000000, -2.556168068605763200E-018, -1.000000000000000000 ) ) ;
#259 = VECTOR ( 'NONE', #258, 1000.000000000000000 ) ;
#260 = CARTESIAN_POINT ( 'NONE',  ( 1.140782048903235600E-015, -9.315500000000003700, -80.00000000000004300 ) ) ;
#261 = LINE ( 'NONE', #260, #259 ) ;
#262 = CARTESIAN_POINT ( 'NONE',  ( 0.0000000000000000000, 0.0000000000000000000, -4.336808689942017700E-016 ) ) ;
#263 = AXIS2_PLACEMENT_3D ( 'NONE', #262, #171, #170 ) ;
#264 = CYLINDRICAL_SURFACE ( 'NONE', #263, 13.15000000000000200 ) ;
#265 = FACE_OUTER_BOUND ( 'NONE', #117, .T. ) ;
#266 = CIRCLE ( 'NONE', #151, 10.47749999999999700 ) ;
#267 = AXIS2_PLACEMENT_3D ( 'NONE', #343, #342, #341 ) ;
#268 = PLANE ( 'NONE',  #267 ) ;
#269 = FACE_OUTER_BOUND ( 'NONE', #112, .T. ) ;
#270 = DIRECTION ( 'NONE',  ( 1.000000000000000000, 0.0000000000000000000, 0.0000000000000000000 ) ) ;
#271 = DIRECTION ( 'NONE',  ( -0.0000000000000000000, -0.0000000000000000000, 1.000000000000000000 ) ) ;
#272 = CARTESIAN_POINT ( 'NONE',  ( 0.0000000000000000000, 0.0000000000000000000, 0.0000000000000000000 ) ) ;
#273 = AXIS2_PLACEMENT_3D ( 'NONE', #272, #271, #270 ) ;
#274 = CIRCLE ( 'NONE', #273, 13.15000000000000000 ) ;
#275 = FACE_BOUND ( 'NONE', #100, .T. ) ;
#276 = DIRECTION ( 'NONE',  ( -1.000000000000000000, 0.0000000000000000000, 0.0000000000000000000 ) ) ;
#277 = DIRECTION ( 'NONE',  ( 0.0000000000000000000, 0.0000000000000000000, -1.000000000000000000 ) ) ;
#278 = CARTESIAN_POINT ( 'NONE',  ( 1.140782048903235200E-015, -9.315499999999994800, 2.381198364309696200E-017 ) ) ;
#279 = CONICAL_SURFACE ( 'NONE', #316, 10.84338236234973300, 0.7853981633974530500 ) ;
#280 = CARTESIAN_POINT ( 'NONE',  ( 0.0000000000000000000, 0.0000000000000000000, -80.00000000000000000 ) ) ;
#281 = FACE_OUTER_BOUND ( 'NONE', #86, .T. ) ;
#282 = DIRECTION ( 'NONE',  ( -1.000000000000000000, 0.0000000000000000000, 0.0000000000000000000 ) ) ;
#283 = DIRECTION ( 'NONE',  ( 0.0000000000000000000, 0.0000000000000000000, -1.000000000000000000 ) ) ;
#284 = CARTESIAN_POINT ( 'NONE',  ( 0.0000000000000000000, 0.0000000000000000000, -65.90699999999999600 ) ) ;
#285 = AXIS2_PLACEMENT_3D ( 'NONE', #284, #283, #282 ) ;
#286 = CONICAL_SURFACE ( 'NONE', #285, 10.47749999999999700, 0.9080276881268838400 ) ;
#287 = FACE_OUTER_BOUND ( 'NONE', #52, .T. ) ;
#288 = DIRECTION ( 'NONE',  ( 1.000000000000000000, 0.0000000000000000000, 0.0000000000000000000 ) ) ;
#289 = DIRECTION ( 'NONE',  ( -0.0000000000000000000, -0.0000000000000000000, 1.000000000000000000 ) ) ;
#290 = CARTESIAN_POINT ( 'NONE',  ( 0.0000000000000000000, 0.0000000000000000000, -65.90699999999999600 ) ) ;
#291 = AXIS2_PLACEMENT_3D ( 'NONE', #290, #289, #288 ) ;
#292 = CARTESIAN_POINT ( 'NONE',  ( 0.0000000000000000000, 0.0000000000000000000, -65.90699999999999600 ) ) ;
#293 = AXIS2_PLACEMENT_3D ( 'NONE', #292, #277, #276 ) ;
#294 = CONICAL_SURFACE ( 'NONE', #293, 10.47749999999999700, 0.9080276881268838400 ) ;
#295 = FACE_OUTER_BOUND ( 'NONE', #107, .T. ) ;
#296 = DIRECTION ( 'NONE',  ( -0.7071067811865507900, 0.0000000000000000000, -0.7071067811865441300 ) ) ;
#297 = VECTOR ( 'NONE', #296, 1000.000000000000000 ) ;
#298 = CARTESIAN_POINT ( 'NONE',  ( -10.84338236234973300, 0.0000000000000000000, -80.00000000000000000 ) ) ;
#299 = DIRECTION ( 'NONE',  ( 1.000000000000000000, 0.0000000000000000000, 0.0000000000000000000 ) ) ;
#300 = DIRECTION ( 'NONE',  ( -0.0000000000000000000, -0.0000000000000000000, 1.000000000000000000 ) ) ;
#301 = AXIS2_PLACEMENT_3D ( 'NONE', #309, #300, #299 ) ;
#302 = CIRCLE ( 'NONE', #301, 9.315499999999987700 ) ;
#303 = LINE ( 'NONE', #298, #297 ) ;
#304 = DIRECTION ( 'NONE',  ( 0.0000000000000000000, 1.000000000000000000, -2.556168068605762800E-018 ) ) ;
#305 = DIRECTION ( 'NONE',  ( -0.0000000000000000000, -2.556168068605763200E-018, -1.000000000000000000 ) ) ;
#306 = CARTESIAN_POINT ( 'NONE',  ( 0.0000000000000000000, -3.469446951953615000E-015, 0.0000000000000000000 ) ) ;
#307 = AXIS2_PLACEMENT_3D ( 'NONE', #306, #305, #304 ) ;
#308 = CIRCLE ( 'NONE', #307, 9.315499999999991200 ) ;
#309 = CARTESIAN_POINT ( 'NONE',  ( 0.0000000000000000000, 0.0000000000000000000, -65.00000000000000000 ) ) ;
#310 = DIRECTION ( 'NONE',  ( 1.000000000000000000, 0.0000000000000000000, 0.0000000000000000000 ) ) ;
#311 = DIRECTION ( 'NONE',  ( -0.0000000000000000000, -0.0000000000000000000, 1.000000000000000000 ) ) ;
#312 = AXIS2_PLACEMENT_3D ( 'NONE', #317, #311, #310 ) ;
#313 = CYLINDRICAL_SURFACE ( 'NONE', #312, 10.47749999999999700 ) ;
#314 = DIRECTION ( 'NONE',  ( -1.000000000000000000, 0.0000000000000000000, 0.0000000000000000000 ) ) ;
#315 = DIRECTION ( 'NONE',  ( 0.0000000000000000000, 0.0000000000000000000, -1.000000000000000000 ) ) ;
#316 = AXIS2_PLACEMENT_3D ( 'NONE', #280, #315, #314 ) ;
#317 = CARTESIAN_POINT ( 'NONE',  ( 0.0000000000000000000, 0.0000000000000000000, -4.336808689942017700E-016 ) ) ;
#318 = FACE_OUTER_BOUND ( 'NONE', #80, .T. ) ;
#319 = DIRECTION ( 'NONE',  ( -0.0000000000000000000, -0.0000000000000000000, 1.000000000000000000 ) ) ;
#320 = CARTESIAN_POINT ( 'NONE',  ( 0.0000000000000000000, 0.0000000000000000000, -79.63411763765026300 ) ) ;
#321 = AXIS2_PLACEMENT_3D ( 'NONE', #320, #319, #128 ) ;
#322 = CIRCLE ( 'NONE', #321, 10.47749999999999700 ) ;
#323 = SECURITY_CLASSIFICATION_LEVEL ( 'unclassified' ) ;
#324 = CARTESIAN_POINT ( 'NONE',  ( -9.315499999999987700, 0.0000000000000000000, -65.00000000000000000 ) ) ;
#325 = DIRECTION ( 'NONE',  ( -0.7882917068561162700, 0.0000000000000000000, -0.6153017023394871100 ) ) ;
#326 = VECTOR ( 'NONE', #325, 1000.000000000000100 ) ;
#327 = CARTESIAN_POINT ( 'NONE',  ( -10.47749999999999700, 0.0000000000000000000, -65.90699999999999600 ) ) ;
#328 = LINE ( 'NONE', #327, #326 ) ;
#329 = CIRCLE ( 'NONE', #291, 10.47749999999999700 ) ;
#330 = DIRECTION ( 'NONE',  ( 1.000000000000000000, 0.0000000000000000000, 0.0000000000000000000 ) ) ;
#331 = DIRECTION ( 'NONE',  ( -0.0000000000000000000, -0.0000000000000000000, 1.000000000000000000 ) ) ;
#332 = CARTESIAN_POINT ( 'NONE',  ( 0.0000000000000000000, 0.0000000000000000000, -79.63411763765026300 ) ) ;
#333 = AXIS2_PLACEMENT_3D ( 'NONE', #332, #331, #330 ) ;
#334 = CIRCLE ( 'NONE', #333, 10.47749999999999700 ) ;
#335 = CARTESIAN_POINT ( 'NONE',  ( -10.47749999999999700, 1.283081307217395400E-015, -65.90699999999999600 ) ) ;
#336 = DIRECTION ( 'NONE',  ( -0.0000000000000000000, -2.556168068605763200E-018, -1.000000000000000000 ) ) ;
#337 = VECTOR ( 'NONE', #336, 1000.000000000000000 ) ;
#338 = CARTESIAN_POINT ( 'NONE',  ( 0.0000000000000000000, 9.315499999999996600, -80.00000000000004300 ) ) ;
#339 = LINE ( 'NONE', #338, #337 ) ;
#340 = CARTESIAN_POINT ( 'NONE',  ( 0.0000000000000000000, 9.315499999999987700, -65.00000000000000000 ) ) ;
#341 = DIRECTION ( 'NONE',  ( -1.000000000000000000, 0.0000000000000000000, -0.0000000000000000000 ) ) ;
#342 = DIRECTION ( 'NONE',  ( 0.0000000000000000000, 0.0000000000000000000, -1.000000000000000000 ) ) ;
#343 = CARTESIAN_POINT ( 'NONE',  ( 0.0000000000000000000, 13.15000000000000000, -2.168404344971008900E-016 ) ) ;
#344 = DIRECTION ( 'NONE',  ( 1.000000000000000000, 0.0000000000000000000, 0.0000000000000000000 ) ) ;
#345 = AXIS2_PLACEMENT_3D ( 'NONE', #347, #346, #344 ) ;
#346 = DIRECTION ( 'NONE',  ( 0.0000000000000000000, 0.0000000000000000000, 1.000000000000000000 ) ) ;
#347 = CARTESIAN_POINT ( 'NONE',  ( 0.0000000000000000000, 0.0000000000000000000, 0.0000000000000000000 ) ) ;
#348 = APPLICATION_CONTEXT ( 'configuration controlled 3d designs of mechanical parts and assemblies' ) ;
#349 = ADVANCED_BREP_SHAPE_REPRESENTATION ( '19-0408-74_outokumpu', ( #25, #345 ), #350 ) ;
#350 =( GEOMETRIC_REPRESENTATION_CONTEXT ( 3 ) GLOBAL_UNCERTAINTY_ASSIGNED_CONTEXT ( ( #351 ) ) GLOBAL_UNIT_ASSIGNED_CONTEXT ( ( #354, #353, #352 ) ) REPRESENTATION_CONTEXT ( 'NONE', 'WORKASPACE' ) );
#351 = UNCERTAINTY_MEASURE_WITH_UNIT (LENGTH_MEASURE( 1.000000000000000100E-005 ), #354, 'distance_accuracy_value', 'NONE');
#352 =( NAMED_UNIT ( * ) SI_UNIT ( $, .STERADIAN. ) SOLID_ANGLE_UNIT ( ) );
#353 =( NAMED_UNIT ( * ) PLANE_ANGLE_UNIT ( ) SI_UNIT ( $, .RADIAN. ) );
#354 =( LENGTH_UNIT ( ) NAMED_UNIT ( * ) SI_UNIT ( .MILLI., .METRE. ) );
#355 = LOCAL_TIME ( 11, 38, 23.00000000000000000, #356 ) ;
#356 = COORDINATED_UNIVERSAL_TIME_OFFSET ( 1, 0, .AHEAD. ) ;
#357 = APPROVAL_PERSON_ORGANIZATION ( #361, #359, #358 ) ;
#358 = APPROVAL_ROLE ( '' ) ;
#359 = APPROVAL ( #360, 'UNSPECIFIED' ) ;
#360 = APPROVAL_STATUS ( 'not_yet_approved' ) ;
#361 = PERSON_AND_ORGANIZATION ( #391, #390 ) ;
#362 = PRODUCT_DEFINITION_FORMATION_WITH_SPECIFIED_SOURCE ( 'ANY', '', #392, .NOT_KNOWN. ) ;
#363 = CC_DESIGN_DATE_AND_TIME_ASSIGNMENT ( #365, #364, ( #383 ) ) ;
#364 = DATE_TIME_ROLE ( 'creation_date' ) ;
#365 = DATE_AND_TIME ( #366, #367 ) ;
#366 = CALENDAR_DATE ( 2015, 11, 8 ) ;
#367 = LOCAL_TIME ( 11, 38, 23.00000000000000000, #368 ) ;
#368 = COORDINATED_UNIVERSAL_TIME_OFFSET ( 1, 0, .AHEAD. ) ;
#369 = CC_DESIGN_PERSON_AND_ORGANIZATION_ASSIGNMENT ( #371, #370, ( #383 ) ) ;
#370 = PERSON_AND_ORGANIZATION_ROLE ( 'creator' ) ;
#371 = PERSON_AND_ORGANIZATION ( #391, #390 ) ;
#372 = CC_DESIGN_APPROVAL ( #380, ( #383 ) ) ;
#373 = APPROVAL_DATE_TIME ( #374, #380 ) ;
#374 = DATE_AND_TIME ( #375, #376 ) ;
#375 = CALENDAR_DATE ( 2015, 11, 8 ) ;
#376 = LOCAL_TIME ( 11, 38, 23.00000000000000000, #377 ) ;
#377 = COORDINATED_UNIVERSAL_TIME_OFFSET ( 1, 0, .AHEAD. ) ;
#378 = APPROVAL_PERSON_ORGANIZATION ( #382, #380, #379 ) ;
#379 = APPROVAL_ROLE ( '' ) ;
#380 = APPROVAL ( #381, 'UNSPECIFIED' ) ;
#381 = APPROVAL_STATUS ( 'not_yet_approved' ) ;
#382 = PERSON_AND_ORGANIZATION ( #391, #390 ) ;
#383 = PRODUCT_DEFINITION ( 'UNKNOWN', '', #362, #384 ) ;
#384 = DESIGN_CONTEXT ( 'detailed design', #386, 'design' ) ;
#385 = APPLICATION_PROTOCOL_DEFINITION ( 'international standard', 'config_control_design', 1994, #386 ) ;
#386 = APPLICATION_CONTEXT ( 'configuration controlled 3d designs of mechanical parts and assemblies' ) ;
#387 = CC_DESIGN_PERSON_AND_ORGANIZATION_ASSIGNMENT ( #389, #388, ( #392 ) ) ;
#388 = PERSON_AND_ORGANIZATION_ROLE ( 'design_owner' ) ;
#389 = PERSON_AND_ORGANIZATION ( #391, #390 ) ;
#390 = ORGANIZATION ( 'UNSPECIFIED', 'UNSPECIFIED', '' ) ;
#391 = PERSON ( 'UNSPECIFIED', 'UNSPECIFIED', 'UNSPECIFIED', ('UNSPECIFIED'), ('UNSPECIFIED'), ('UNSPECIFIED') ) ;
#392 = PRODUCT ( '19-0408-74_outokumpu', '19-0408-74_outokumpu', '', ( #393 ) ) ;
#393 = MECHANICAL_CONTEXT ( 'NONE', #348, 'mechanical' ) ;
#394 = APPLICATION_PROTOCOL_DEFINITION ( 'international standard', 'config_control_design', 1994, #348 ) ;
#395 = LOCAL_TIME ( 11, 38, 23.00000000000000000, #396 ) ;
#396 = COORDINATED_UNIVERSAL_TIME_OFFSET ( 1, 0, .AHEAD. ) ;
#397 = PERSON_AND_ORGANIZATION ( #391, #390 ) ;
#398 = CALENDAR_DATE ( 2015, 11, 8 ) ;
#399 = APPROVAL_ROLE ( '' ) ;
#400 = APPROVAL_STATUS ( 'not_yet_approved' ) ;
#401 = CC_DESIGN_DATE_AND_TIME_ASSIGNMENT ( #412, #411, ( #415 ) ) ;
#402 = LOCAL_TIME ( 11, 38, 23.00000000000000000, #407 ) ;
#403 = CC_DESIGN_APPROVAL ( #409, ( #415 ) ) ;
#404 = APPROVAL_DATE_TIME ( #405, #409 ) ;
#405 = DATE_AND_TIME ( #406, #395 ) ;
#406 = CALENDAR_DATE ( 2015, 11, 8 ) ;
#407 = COORDINATED_UNIVERSAL_TIME_OFFSET ( 1, 0, .AHEAD. ) ;
#408 = APPROVAL_PERSON_ORGANIZATION ( #419, #409, #399 ) ;
#409 = APPROVAL ( #400, 'UNSPECIFIED' ) ;
#410 = PERSON_AND_ORGANIZATION_ROLE ( 'classification_officer' ) ;
#411 = DATE_TIME_ROLE ( 'classification_date' ) ;
#412 = DATE_AND_TIME ( #398, #402 ) ;
#413 = PRODUCT_RELATED_PRODUCT_CATEGORY ( 'detail', '', ( #392 ) ) ;
#414 = CC_DESIGN_SECURITY_CLASSIFICATION ( #415, ( #362 ) ) ;
#415 = SECURITY_CLASSIFICATION ( '', '', #323 ) ;
#416 = SHAPE_DEFINITION_REPRESENTATION ( #417, #349 ) ;
#417 = PRODUCT_DEFINITION_SHAPE ( 'NONE', 'NONE',  #383 ) ;
#418 = CC_DESIGN_PERSON_AND_ORGANIZATION_ASSIGNMENT ( #397, #410, ( #415 ) ) ;
#419 = PERSON_AND_ORGANIZATION ( #391, #390 ) ;
ENDSEC;
END-ISO-10303-21;
