ISO-10303-21;
HEADER;
FILE_DESCRIPTION (( 'STEP AP203' ),
    '1' );
FILE_NAME ('19-0408-11_outokumpu.step',
    '2015-08-11T09:45:22',
    ( '' ),
    ( '' ),
    'SwSTEP 2.0',
    'SolidWorks 2008',
    '' );
FILE_SCHEMA (( 'CONFIG_CONTROL_DESIGN' ));
ENDSEC;

DATA;
#1 = EDGE_LOOP ( 'NONE', ( #53, #54, #55, #56, #57 ) ) ;
#2 = ORIENTED_EDGE ( 'NONE', *, *, #18, .T. ) ;
#3 = ADVANCED_FACE ( 'NONE', ( #219 ), #218, .F. ) ;
#4 = ORIENTED_EDGE ( 'NONE', *, *, #115, .T. ) ;
#5 = EDGE_LOOP ( 'NONE', ( #27, #28, #30, #31, #33 ) ) ;
#6 = ORIENTED_EDGE ( 'NONE', *, *, #9, .T. ) ;
#7 = ORIENTED_EDGE ( 'NONE', *, *, #71, .T. ) ;
#8 = ADVANCED_FACE ( 'NONE', ( #172 ), #168, .F. ) ;
#9 = EDGE_CURVE ( 'NONE', #44, #83, #164, .T. ) ;
#10 = EDGE_CURVE ( 'NONE', #76, #52, #159, .T. ) ;
#11 = ORIENTED_EDGE ( 'NONE', *, *, #10, .F. ) ;
#12 = ORIENTED_EDGE ( 'NONE', *, *, #68, .F. ) ;
#13 = EDGE_LOOP ( 'NONE', ( #12, #11, #7, #6 ) ) ;
#14 = EDGE_CURVE ( 'NONE', #94, #93, #154, .T. ) ;
#15 = ORIENTED_EDGE ( 'NONE', *, *, #14, .T. ) ;
#16 = ORIENTED_EDGE ( 'NONE', *, *, #113, .T. ) ;
#17 = ORIENTED_EDGE ( 'NONE', *, *, #18, .F. ) ;
#18 = EDGE_CURVE ( 'NONE', #82, #117, #241, .T. ) ;
#19 = ADVANCED_FACE ( 'NONE', ( #236, #235 ), #234, .F. ) ;
#20 = EDGE_LOOP ( 'NONE', ( #21, #22 ) ) ;
#21 = ORIENTED_EDGE ( 'NONE', *, *, #29, .T. ) ;
#22 = ORIENTED_EDGE ( 'NONE', *, *, #106, .T. ) ;
#23 = EDGE_LOOP ( 'NONE', ( #4, #2 ) ) ;
#24 = ORIENTED_EDGE ( 'NONE', *, *, #25, .F. ) ;
#25 = EDGE_CURVE ( 'NONE', #107, #38, #229, .T. ) ;
#26 = EDGE_LOOP ( 'NONE', ( #66, #67, #69, #70 ) ) ;
#27 = ORIENTED_EDGE ( 'NONE', *, *, #105, .F. ) ;
#28 = ORIENTED_EDGE ( 'NONE', *, *, #29, .F. ) ;
#29 = EDGE_CURVE ( 'NONE', #107, #104, #224, .T. ) ;
#30 = ORIENTED_EDGE ( 'NONE', *, *, #25, .T. ) ;
#31 = ORIENTED_EDGE ( 'NONE', *, *, #32, .F. ) ;
#32 = EDGE_CURVE ( 'NONE', #41, #38, #270, .T. ) ;
#33 = ORIENTED_EDGE ( 'NONE', *, *, #39, .F. ) ;
#34 = ADVANCED_FACE ( 'NONE', ( #271 ), #264, .T. ) ;
#35 = EDGE_LOOP ( 'NONE', ( #36, #15, #16, #17 ) ) ;
#36 = ORIENTED_EDGE ( 'NONE', *, *, #81, .F. ) ;
#37 = EDGE_CURVE ( 'NONE', #38, #86, #265, .T. ) ;
#38 = VERTEX_POINT ( 'NONE', #256 ) ;
#39 = EDGE_CURVE ( 'NONE', #40, #41, #255, .T. ) ;
#40 = VERTEX_POINT ( 'NONE', #250 ) ;
#41 = VERTEX_POINT ( 'NONE', #249 ) ;
#42 = ORIENTED_EDGE ( 'NONE', *, *, #43, .T. ) ;
#43 = EDGE_CURVE ( 'NONE', #41, #44, #248, .T. ) ;
#44 = VERTEX_POINT ( 'NONE', #244 ) ;
#45 = ORIENTED_EDGE ( 'NONE', *, *, #46, .F. ) ;
#46 = EDGE_CURVE ( 'NONE', #83, #44, #304, .T. ) ;
#47 = MANIFOLD_SOLID_BREP ( 'NONE', #64 ) ;
#48 = ADVANCED_FACE ( 'NONE', ( #243 ), #297, .F. ) ;
#49 = EDGE_LOOP ( 'NONE', ( #50, #77, #95, #98 ) ) ;
#50 = ORIENTED_EDGE ( 'NONE', *, *, #51, .T. ) ;
#51 = EDGE_CURVE ( 'NONE', #52, #76, #298, .T. ) ;
#52 = VERTEX_POINT ( 'NONE', #289 ) ;
#53 = ORIENTED_EDGE ( 'NONE', *, *, #43, .F. ) ;
#54 = ORIENTED_EDGE ( 'NONE', *, *, #32, .T. ) ;
#55 = ORIENTED_EDGE ( 'NONE', *, *, #37, .T. ) ;
#56 = ORIENTED_EDGE ( 'NONE', *, *, #85, .T. ) ;
#57 = ORIENTED_EDGE ( 'NONE', *, *, #9, .F. ) ;
#58 = ADVANCED_FACE ( 'NONE', ( #288 ), #287, .F. ) ;
#59 = EDGE_LOOP ( 'NONE', ( #60, #61, #62, #63 ) ) ;
#60 = ORIENTED_EDGE ( 'NONE', *, *, #78, .F. ) ;
#61 = ORIENTED_EDGE ( 'NONE', *, *, #10, .T. ) ;
#62 = ORIENTED_EDGE ( 'NONE', *, *, #99, .T. ) ;
#63 = ORIENTED_EDGE ( 'NONE', *, *, #217, .F. ) ;
#64 = CLOSED_SHELL ( 'NONE', ( #48, #100, #89, #110, #65, #72, #216, #8, #34, #19, #3, #58 ) ) ;
#65 = ADVANCED_FACE ( 'NONE', ( #286 ), #281, .F. ) ;
#66 = ORIENTED_EDGE ( 'NONE', *, *, #51, .F. ) ;
#67 = ORIENTED_EDGE ( 'NONE', *, *, #68, .T. ) ;
#68 = EDGE_CURVE ( 'NONE', #52, #83, #276, .T. ) ;
#69 = ORIENTED_EDGE ( 'NONE', *, *, #46, .T. ) ;
#70 = ORIENTED_EDGE ( 'NONE', *, *, #71, .F. ) ;
#71 = EDGE_CURVE ( 'NONE', #76, #44, #272, .T. ) ;
#72 = ADVANCED_FACE ( 'NONE', ( #335, #334 ), #333, .F. ) ;
#73 = EDGE_LOOP ( 'NONE', ( #74, #75 ) ) ;
#74 = ORIENTED_EDGE ( 'NONE', *, *, #92, .F. ) ;
#75 = ORIENTED_EDGE ( 'NONE', *, *, #14, .F. ) ;
#76 = VERTEX_POINT ( 'NONE', #328 ) ;
#77 = ORIENTED_EDGE ( 'NONE', *, *, #78, .T. ) ;
#78 = EDGE_CURVE ( 'NONE', #76, #79, #327, .T. ) ;
#79 = VERTEX_POINT ( 'NONE', #323 ) ;
#80 = ORIENTED_EDGE ( 'NONE', *, *, #81, .T. ) ;
#81 = EDGE_CURVE ( 'NONE', #94, #82, #322, .T. ) ;
#82 = VERTEX_POINT ( 'NONE', #318 ) ;
#83 = VERTEX_POINT ( 'NONE', #317 ) ;
#84 = ORIENTED_EDGE ( 'NONE', *, *, #85, .F. ) ;
#85 = EDGE_CURVE ( 'NONE', #86, #83, #316, .T. ) ;
#86 = VERTEX_POINT ( 'NONE', #312 ) ;
#87 = ORIENTED_EDGE ( 'NONE', *, *, #88, .T. ) ;
#88 = EDGE_CURVE ( 'NONE', #86, #40, #311, .T. ) ;
#89 = ADVANCED_FACE ( 'NONE', ( #306 ), #305, .T. ) ;
#90 = EDGE_LOOP ( 'NONE', ( #91, #80, #116, #114 ) ) ;
#91 = ORIENTED_EDGE ( 'NONE', *, *, #92, .T. ) ;
#92 = EDGE_CURVE ( 'NONE', #93, #94, #204, .T. ) ;
#93 = VERTEX_POINT ( 'NONE', #195 ) ;
#94 = VERTEX_POINT ( 'NONE', #194 ) ;
#95 = ORIENTED_EDGE ( 'NONE', *, *, #96, .F. ) ;
#96 = EDGE_CURVE ( 'NONE', #97, #79, #193, .T. ) ;
#97 = VERTEX_POINT ( 'NONE', #188 ) ;
#98 = ORIENTED_EDGE ( 'NONE', *, *, #99, .F. ) ;
#99 = EDGE_CURVE ( 'NONE', #52, #97, #187, .T. ) ;
#100 = ADVANCED_FACE ( 'NONE', ( #183 ), #181, .F. ) ;
#101 = EDGE_LOOP ( 'NONE', ( #102, #42, #45, #84, #87 ) ) ;
#102 = ORIENTED_EDGE ( 'NONE', *, *, #39, .T. ) ;
#103 = ORIENTED_EDGE ( 'NONE', *, *, #105, .T. ) ;
#104 = VERTEX_POINT ( 'NONE', #182 ) ;
#105 = EDGE_CURVE ( 'NONE', #104, #40, #176, .T. ) ;
#106 = EDGE_CURVE ( 'NONE', #104, #107, #147, .T. ) ;
#107 = VERTEX_POINT ( 'NONE', #142 ) ;
#108 = ORIENTED_EDGE ( 'NONE', *, *, #37, .F. ) ;
#109 = ORIENTED_EDGE ( 'NONE', *, *, #88, .F. ) ;
#110 = ADVANCED_FACE ( 'NONE', ( #141 ), #139, .F. ) ;
#111 = ORIENTED_EDGE ( 'NONE', *, *, #106, .F. ) ;
#112 = EDGE_LOOP ( 'NONE', ( #111, #103, #109, #108, #24 ) ) ;
#113 = EDGE_CURVE ( 'NONE', #93, #117, #135, .T. ) ;
#114 = ORIENTED_EDGE ( 'NONE', *, *, #113, .F. ) ;
#115 = EDGE_CURVE ( 'NONE', #117, #82, #131, .T. ) ;
#116 = ORIENTED_EDGE ( 'NONE', *, *, #115, .F. ) ;
#117 = VERTEX_POINT ( 'NONE', #126 ) ;
#118 = CIRCLE ( 'NONE', #123, 45.47648845300609800 ) ;
#119 = DIRECTION ( 'NONE',  ( 1.000000000000000000, 0.0000000000000000000, 0.0000000000000000000 ) ) ;
#120 = DIRECTION ( 'NONE',  ( -0.0000000000000000000, -0.0000000000000000000, 1.000000000000000000 ) ) ;
#121 = CARTESIAN_POINT ( 'NONE',  ( 0.0000000000000000000, 0.0000000000000000000, -4.336808689942017700E-016 ) ) ;
#122 = AXIS2_PLACEMENT_3D ( 'NONE', #121, #120, #119 ) ;
#123 = AXIS2_PLACEMENT_3D ( 'NONE', #212, #211, #210 ) ;
#124 = CYLINDRICAL_SURFACE ( 'NONE', #122, 43.94200000000000700 ) ;
#125 = FACE_OUTER_BOUND ( 'NONE', #13, .T. ) ;
#126 = CARTESIAN_POINT ( 'NONE',  ( 47.50000000000000000, 0.0000000000000000000, 0.0000000000000000000 ) ) ;
#127 = DIRECTION ( 'NONE',  ( 1.000000000000000000, 0.0000000000000000000, 0.0000000000000000000 ) ) ;
#128 = DIRECTION ( 'NONE',  ( -0.0000000000000000000, -0.0000000000000000000, 1.000000000000000000 ) ) ;
#129 = CARTESIAN_POINT ( 'NONE',  ( 0.0000000000000000000, 0.0000000000000000000, 0.0000000000000000000 ) ) ;
#130 = AXIS2_PLACEMENT_3D ( 'NONE', #129, #128, #127 ) ;
#131 = CIRCLE ( 'NONE', #130, 47.50000000000000000 ) ;
#132 = DIRECTION ( 'NONE',  ( -0.0000000000000000000, -0.0000000000000000000, 1.000000000000000000 ) ) ;
#133 = VECTOR ( 'NONE', #132, 1000.000000000000000 ) ;
#134 = CARTESIAN_POINT ( 'NONE',  ( 47.50000000000000000, 0.0000000000000000000, -4.336808689942017700E-016 ) ) ;
#135 = LINE ( 'NONE', #134, #133 ) ;
#136 = DIRECTION ( 'NONE',  ( 0.0000000000000000000, 1.000000000000000000, 0.0000000000000000000 ) ) ;
#137 = DIRECTION ( 'NONE',  ( -0.0000000000000000000, 3.911744792584153700E-017, -1.000000000000000000 ) ) ;
#138 = AXIS2_PLACEMENT_3D ( 'NONE', #140, #137, #136 ) ;
#139 = CYLINDRICAL_SURFACE ( 'NONE', #138, 42.46300000000000100 ) ;
#140 = CARTESIAN_POINT ( 'NONE',  ( 0.0000000000000000000, 1.224646799147375100E-015, -120.0000000000001600 ) ) ;
#141 = FACE_OUTER_BOUND ( 'NONE', #112, .T. ) ;
#142 = CARTESIAN_POINT ( 'NONE',  ( 0.0000000000000000000, 42.46299999999998700, 1.661044191275009000E-015 ) ) ;
#143 = DIRECTION ( 'NONE',  ( 0.0000000000000000000, 1.000000000000000000, 3.911744792584153700E-017 ) ) ;
#144 = DIRECTION ( 'NONE',  ( -0.0000000000000000000, 3.911744792584153700E-017, -1.000000000000000000 ) ) ;
#145 = CARTESIAN_POINT ( 'NONE',  ( 0.0000000000000000000, -3.469446951953615800E-015, 0.0000000000000000000 ) ) ;
#146 = AXIS2_PLACEMENT_3D ( 'NONE', #145, #144, #143 ) ;
#147 = CIRCLE ( 'NONE', #146, 42.46299999999999400 ) ;
#148 = DIRECTION ( 'NONE',  ( -0.0000000000000000000, 3.911744792584153700E-017, -1.000000000000000000 ) ) ;
#149 = VECTOR ( 'NONE', #148, 1000.000000000000000 ) ;
#150 = CARTESIAN_POINT ( 'NONE',  ( 5.200045960235960600E-015, -42.46300000000000100, -120.0000000000001600 ) ) ;
#151 = DIRECTION ( 'NONE',  ( -0.0000000000000000000, -0.0000000000000000000, 1.000000000000000000 ) ) ;
#152 = CARTESIAN_POINT ( 'NONE',  ( 0.0000000000000000000, 0.0000000000000000000, -120.0000000000000000 ) ) ;
#153 = AXIS2_PLACEMENT_3D ( 'NONE', #152, #151, #242 ) ;
#154 = CIRCLE ( 'NONE', #153, 47.50000000000000000 ) ;
#155 = DIRECTION ( 'NONE',  ( 1.000000000000000000, 0.0000000000000000000, 0.0000000000000000000 ) ) ;
#156 = DIRECTION ( 'NONE',  ( -0.0000000000000000000, -0.0000000000000000000, 1.000000000000000000 ) ) ;
#157 = CARTESIAN_POINT ( 'NONE',  ( 0.0000000000000000000, 0.0000000000000000000, -118.4655115469939200 ) ) ;
#158 = AXIS2_PLACEMENT_3D ( 'NONE', #157, #156, #155 ) ;
#159 = CIRCLE ( 'NONE', #158, 43.94200000000000000 ) ;
#160 = DIRECTION ( 'NONE',  ( 1.000000000000000000, 0.0000000000000000000, 0.0000000000000000000 ) ) ;
#161 = DIRECTION ( 'NONE',  ( -0.0000000000000000000, -0.0000000000000000000, 1.000000000000000000 ) ) ;
#162 = CARTESIAN_POINT ( 'NONE',  ( 0.0000000000000000000, 0.0000000000000000000, -87.15449999999999900 ) ) ;
#163 = AXIS2_PLACEMENT_3D ( 'NONE', #162, #161, #160 ) ;
#164 = CIRCLE ( 'NONE', #163, 43.94200000000000700 ) ;
#165 = DIRECTION ( 'NONE',  ( 0.0000000000000000000, 1.000000000000000000, 0.0000000000000000000 ) ) ;
#166 = DIRECTION ( 'NONE',  ( -0.0000000000000000000, 3.911744792584153700E-017, -1.000000000000000000 ) ) ;
#167 = AXIS2_PLACEMENT_3D ( 'NONE', #171, #166, #165 ) ;
#168 = CYLINDRICAL_SURFACE ( 'NONE', #167, 42.46300000000000100 ) ;
#169 = DIRECTION ( 'NONE',  ( -1.000000000000000000, 0.0000000000000000000, 0.0000000000000000000 ) ) ;
#170 = DIRECTION ( 'NONE',  ( 0.0000000000000000000, 0.0000000000000000000, -1.000000000000000000 ) ) ;
#171 = CARTESIAN_POINT ( 'NONE',  ( 0.0000000000000000000, 1.224646799147375100E-015, -120.0000000000001600 ) ) ;
#172 = FACE_OUTER_BOUND ( 'NONE', #5, .T. ) ;
#173 =( LENGTH_UNIT ( ) NAMED_UNIT ( * ) SI_UNIT ( .MILLI., .METRE. ) );
#174 = CARTESIAN_POINT ( 'NONE',  ( 0.0000000000000000000, 0.0000000000000000000, -87.15449999999999900 ) ) ;
#175 = AXIS2_PLACEMENT_3D ( 'NONE', #174, #170, #169 ) ;
#176 = LINE ( 'NONE', #150, #149 ) ;
#177 = DIRECTION ( 'NONE',  ( -1.000000000000000000, 0.0000000000000000000, 0.0000000000000000000 ) ) ;
#178 = DIRECTION ( 'NONE',  ( 0.0000000000000000000, 0.0000000000000000000, -1.000000000000000000 ) ) ;
#179 = CARTESIAN_POINT ( 'NONE',  ( 0.0000000000000000000, 0.0000000000000000000, -87.15449999999999900 ) ) ;
#180 = AXIS2_PLACEMENT_3D ( 'NONE', #179, #178, #177 ) ;
#181 = CONICAL_SURFACE ( 'NONE', #180, 43.94200000000000700, 0.9080002089392087400 ) ;
#182 = CARTESIAN_POINT ( 'NONE',  ( 5.200045960235960600E-015, -42.46300000000000100, -1.661044191275009000E-015 ) ) ;
#183 = FACE_OUTER_BOUND ( 'NONE', #101, .T. ) ;
#184 = DIRECTION ( 'NONE',  ( -0.7071067811865522400, 0.0000000000000000000, -0.7071067811865426900 ) ) ;
#185 = VECTOR ( 'NONE', #184, 1000.000000000000100 ) ;
#186 = CARTESIAN_POINT ( 'NONE',  ( -45.47648845300609800, 0.0000000000000000000, -120.0000000000000000 ) ) ;
#187 = LINE ( 'NONE', #186, #185 ) ;
#188 = CARTESIAN_POINT ( 'NONE',  ( -45.47648845300609800, 0.0000000000000000000, -120.0000000000000000 ) ) ;
#189 = DIRECTION ( 'NONE',  ( 1.000000000000000000, 0.0000000000000000000, 0.0000000000000000000 ) ) ;
#190 = DIRECTION ( 'NONE',  ( -0.0000000000000000000, -0.0000000000000000000, 1.000000000000000000 ) ) ;
#191 = CARTESIAN_POINT ( 'NONE',  ( 0.0000000000000000000, 0.0000000000000000000, -120.0000000000000000 ) ) ;
#192 = AXIS2_PLACEMENT_3D ( 'NONE', #191, #190, #189 ) ;
#193 = CIRCLE ( 'NONE', #192, 45.47648845300609800 ) ;
#194 = CARTESIAN_POINT ( 'NONE',  ( -47.50000000000000000, 5.816880180656292000E-015, -120.0000000000000000 ) ) ;
#195 = CARTESIAN_POINT ( 'NONE',  ( 47.50000000000000000, 0.0000000000000000000, -120.0000000000000000 ) ) ;
#196 = DIRECTION ( 'NONE',  ( 1.000000000000000000, 0.0000000000000000000, 0.0000000000000000000 ) ) ;
#197 = DIRECTION ( 'NONE',  ( -0.0000000000000000000, -0.0000000000000000000, 1.000000000000000000 ) ) ;
#198 = CARTESIAN_POINT ( 'NONE',  ( 0.0000000000000000000, 0.0000000000000000000, -120.0000000000000000 ) ) ;
#199 = AXIS2_PLACEMENT_3D ( 'NONE', #198, #197, #196 ) ;
#200 = DIRECTION ( 'NONE',  ( 1.000000000000000000, 0.0000000000000000000, 0.0000000000000000000 ) ) ;
#201 = DIRECTION ( 'NONE',  ( -0.0000000000000000000, -0.0000000000000000000, 1.000000000000000000 ) ) ;
#202 = CARTESIAN_POINT ( 'NONE',  ( 0.0000000000000000000, 0.0000000000000000000, -4.336808689942017700E-016 ) ) ;
#203 = AXIS2_PLACEMENT_3D ( 'NONE', #202, #201, #200 ) ;
#204 = CIRCLE ( 'NONE', #199, 47.50000000000000000 ) ;
#205 = ADVANCED_BREP_SHAPE_REPRESENTATION ( '19-0408-11_outokumpu', ( #47, #387 ), #206 ) ;
#206 =( GEOMETRIC_REPRESENTATION_CONTEXT ( 3 ) GLOBAL_UNCERTAINTY_ASSIGNED_CONTEXT ( ( #207 ) ) GLOBAL_UNIT_ASSIGNED_CONTEXT ( ( #173, #209, #208 ) ) REPRESENTATION_CONTEXT ( 'NONE', 'WORKASPACE' ) );
#207 = UNCERTAINTY_MEASURE_WITH_UNIT (LENGTH_MEASURE( 1.000000000000000100E-005 ), #173, 'distance_accuracy_value', 'NONE');
#208 =( NAMED_UNIT ( * ) SI_UNIT ( $, .STERADIAN. ) SOLID_ANGLE_UNIT ( ) );
#209 =( NAMED_UNIT ( * ) PLANE_ANGLE_UNIT ( ) SI_UNIT ( $, .RADIAN. ) );
#210 = DIRECTION ( 'NONE',  ( 1.000000000000000000, 0.0000000000000000000, 0.0000000000000000000 ) ) ;
#211 = DIRECTION ( 'NONE',  ( -0.0000000000000000000, -0.0000000000000000000, 1.000000000000000000 ) ) ;
#212 = CARTESIAN_POINT ( 'NONE',  ( 0.0000000000000000000, 0.0000000000000000000, -120.0000000000000000 ) ) ;
#213 = EDGE_LOOP ( 'NONE', ( #214, #215 ) ) ;
#214 = ORIENTED_EDGE ( 'NONE', *, *, #96, .T. ) ;
#215 = ORIENTED_EDGE ( 'NONE', *, *, #217, .T. ) ;
#216 = ADVANCED_FACE ( 'NONE', ( #125 ), #124, .F. ) ;
#217 = EDGE_CURVE ( 'NONE', #79, #97, #118, .T. ) ;
#218 = CONICAL_SURFACE ( 'NONE', #175, 43.94200000000000700, 0.9080002089392087400 ) ;
#219 = FACE_OUTER_BOUND ( 'NONE', #1, .T. ) ;
#220 = DIRECTION ( 'NONE',  ( 0.0000000000000000000, 1.000000000000000000, 3.911744792584153700E-017 ) ) ;
#221 = DIRECTION ( 'NONE',  ( -0.0000000000000000000, 3.911744792584153700E-017, -1.000000000000000000 ) ) ;
#222 = CARTESIAN_POINT ( 'NONE',  ( 0.0000000000000000000, -3.469446951953615800E-015, 0.0000000000000000000 ) ) ;
#223 = AXIS2_PLACEMENT_3D ( 'NONE', #222, #221, #220 ) ;
#224 = CIRCLE ( 'NONE', #223, 42.46299999999999400 ) ;
#225 = CARTESIAN_POINT ( 'NONE',  ( 0.0000000000000000000, 0.0000000000000000000, -86.00000000000000000 ) ) ;
#226 = DIRECTION ( 'NONE',  ( -0.0000000000000000000, 3.911744792584153700E-017, -1.000000000000000000 ) ) ;
#227 = VECTOR ( 'NONE', #226, 1000.000000000000000 ) ;
#228 = CARTESIAN_POINT ( 'NONE',  ( 0.0000000000000000000, 42.46300000000000100, -120.0000000000001600 ) ) ;
#229 = LINE ( 'NONE', #228, #227 ) ;
#230 = DIRECTION ( 'NONE',  ( -1.000000000000000000, 0.0000000000000000000, -0.0000000000000000000 ) ) ;
#231 = DIRECTION ( 'NONE',  ( 0.0000000000000000000, 0.0000000000000000000, -1.000000000000000000 ) ) ;
#232 = AXIS2_PLACEMENT_3D ( 'NONE', #233, #231, #230 ) ;
#233 = CARTESIAN_POINT ( 'NONE',  ( 0.0000000000000000000, 47.50000000000000000, -2.168404344971008900E-016 ) ) ;
#234 = PLANE ( 'NONE',  #232 ) ;
#235 = FACE_OUTER_BOUND ( 'NONE', #23, .T. ) ;
#236 = FACE_BOUND ( 'NONE', #20, .T. ) ;
#237 = DIRECTION ( 'NONE',  ( 1.000000000000000000, 0.0000000000000000000, 0.0000000000000000000 ) ) ;
#238 = DIRECTION ( 'NONE',  ( -0.0000000000000000000, -0.0000000000000000000, 1.000000000000000000 ) ) ;
#239 = CARTESIAN_POINT ( 'NONE',  ( 0.0000000000000000000, 0.0000000000000000000, 0.0000000000000000000 ) ) ;
#240 = AXIS2_PLACEMENT_3D ( 'NONE', #239, #238, #237 ) ;
#241 = CIRCLE ( 'NONE', #240, 47.50000000000000000 ) ;
#242 = DIRECTION ( 'NONE',  ( 1.000000000000000000, 0.0000000000000000000, 0.0000000000000000000 ) ) ;
#243 = FACE_OUTER_BOUND ( 'NONE', #49, .T. ) ;
#244 = CARTESIAN_POINT ( 'NONE',  ( 43.94200000000000700, 0.0000000000000000000, -87.15449999999999900 ) ) ;
#245 = DIRECTION ( 'NONE',  ( 0.7882747985675412300, 9.653263268838656100E-017, -0.6153233637229309500 ) ) ;
#246 = VECTOR ( 'NONE', #245, 1000.000000000000000 ) ;
#247 = CARTESIAN_POINT ( 'NONE',  ( 43.94200000000000700, 5.381165239966291100E-015, -87.15449999999999900 ) ) ;
#248 = LINE ( 'NONE', #247, #246 ) ;
#249 = CARTESIAN_POINT ( 'NONE',  ( 42.46299999999998700, 5.290605600101125100E-015, -86.00000000000000000 ) ) ;
#250 = CARTESIAN_POINT ( 'NONE',  ( 5.200045960235959800E-015, -42.46299999999998700, -86.00000000000000000 ) ) ;
#251 = DIRECTION ( 'NONE',  ( 1.000000000000000000, 0.0000000000000000000, 0.0000000000000000000 ) ) ;
#252 = DIRECTION ( 'NONE',  ( -0.0000000000000000000, -0.0000000000000000000, 1.000000000000000000 ) ) ;
#253 = CARTESIAN_POINT ( 'NONE',  ( 0.0000000000000000000, 0.0000000000000000000, -86.00000000000000000 ) ) ;
#254 = AXIS2_PLACEMENT_3D ( 'NONE', #253, #252, #251 ) ;
#255 = CIRCLE ( 'NONE', #254, 42.46299999999998700 ) ;
#256 = CARTESIAN_POINT ( 'NONE',  ( 0.0000000000000000000, 42.46299999999998700, -86.00000000000000000 ) ) ;
#257 = DIRECTION ( 'NONE',  ( 1.000000000000000000, 0.0000000000000000000, 0.0000000000000000000 ) ) ;
#258 = DIRECTION ( 'NONE',  ( -0.0000000000000000000, -0.0000000000000000000, 1.000000000000000000 ) ) ;
#259 = CARTESIAN_POINT ( 'NONE',  ( 0.0000000000000000000, 0.0000000000000000000, -86.00000000000000000 ) ) ;
#260 = AXIS2_PLACEMENT_3D ( 'NONE', #259, #258, #257 ) ;
#261 = DIRECTION ( 'NONE',  ( 1.000000000000000000, 0.0000000000000000000, 0.0000000000000000000 ) ) ;
#262 = DIRECTION ( 'NONE',  ( -0.0000000000000000000, -0.0000000000000000000, 1.000000000000000000 ) ) ;
#263 = AXIS2_PLACEMENT_3D ( 'NONE', #266, #262, #261 ) ;
#264 = CYLINDRICAL_SURFACE ( 'NONE', #263, 47.50000000000000000 ) ;
#265 = CIRCLE ( 'NONE', #260, 42.46299999999998700 ) ;
#266 = CARTESIAN_POINT ( 'NONE',  ( 0.0000000000000000000, 0.0000000000000000000, -4.336808689942017700E-016 ) ) ;
#267 = DIRECTION ( 'NONE',  ( 1.000000000000000000, 0.0000000000000000000, 0.0000000000000000000 ) ) ;
#268 = DIRECTION ( 'NONE',  ( -0.0000000000000000000, -0.0000000000000000000, 1.000000000000000000 ) ) ;
#269 = AXIS2_PLACEMENT_3D ( 'NONE', #225, #268, #267 ) ;
#270 = CIRCLE ( 'NONE', #269, 42.46299999999998700 ) ;
#271 = FACE_OUTER_BOUND ( 'NONE', #35, .T. ) ;
#272 = LINE ( 'NONE', #338, #337 ) ;
#273 = DIRECTION ( 'NONE',  ( -0.0000000000000000000, -0.0000000000000000000, 1.000000000000000000 ) ) ;
#274 = VECTOR ( 'NONE', #273, 1000.000000000000000 ) ;
#275 = CARTESIAN_POINT ( 'NONE',  ( -43.94200000000000700, 5.381165239966291100E-015, -4.336808689942017700E-016 ) ) ;
#276 = LINE ( 'NONE', #275, #274 ) ;
#277 = DIRECTION ( 'NONE',  ( 1.000000000000000000, 0.0000000000000000000, 0.0000000000000000000 ) ) ;
#278 = DIRECTION ( 'NONE',  ( -0.0000000000000000000, -0.0000000000000000000, 1.000000000000000000 ) ) ;
#279 = CARTESIAN_POINT ( 'NONE',  ( 0.0000000000000000000, 0.0000000000000000000, -4.336808689942017700E-016 ) ) ;
#280 = AXIS2_PLACEMENT_3D ( 'NONE', #279, #278, #277 ) ;
#281 = CYLINDRICAL_SURFACE ( 'NONE', #280, 43.94200000000000700 ) ;
#282 = DIRECTION ( 'NONE',  ( -1.000000000000000000, 0.0000000000000000000, 0.0000000000000000000 ) ) ;
#283 = DIRECTION ( 'NONE',  ( 0.0000000000000000000, 0.0000000000000000000, -1.000000000000000000 ) ) ;
#284 = CARTESIAN_POINT ( 'NONE',  ( 0.0000000000000000000, 0.0000000000000000000, -120.0000000000000000 ) ) ;
#285 = AXIS2_PLACEMENT_3D ( 'NONE', #284, #283, #282 ) ;
#286 = FACE_OUTER_BOUND ( 'NONE', #26, .T. ) ;
#287 = CONICAL_SURFACE ( 'NONE', #285, 45.47648845300609800, 0.7853981633974550500 ) ;
#288 = FACE_OUTER_BOUND ( 'NONE', #59, .T. ) ;
#289 = CARTESIAN_POINT ( 'NONE',  ( -43.94200000000000000, 5.381165239966290300E-015, -118.4655115469939200 ) ) ;
#290 = DIRECTION ( 'NONE',  ( 1.000000000000000000, 0.0000000000000000000, 0.0000000000000000000 ) ) ;
#291 = DIRECTION ( 'NONE',  ( -0.0000000000000000000, -0.0000000000000000000, 1.000000000000000000 ) ) ;
#292 = CARTESIAN_POINT ( 'NONE',  ( 0.0000000000000000000, 0.0000000000000000000, -118.4655115469939200 ) ) ;
#293 = AXIS2_PLACEMENT_3D ( 'NONE', #292, #291, #290 ) ;
#294 = DIRECTION ( 'NONE',  ( -1.000000000000000000, 0.0000000000000000000, 0.0000000000000000000 ) ) ;
#295 = DIRECTION ( 'NONE',  ( 0.0000000000000000000, 0.0000000000000000000, -1.000000000000000000 ) ) ;
#296 = AXIS2_PLACEMENT_3D ( 'NONE', #299, #295, #294 ) ;
#297 = CONICAL_SURFACE ( 'NONE', #296, 45.47648845300609800, 0.7853981633974550500 ) ;
#298 = CIRCLE ( 'NONE', #293, 43.94200000000000000 ) ;
#299 = CARTESIAN_POINT ( 'NONE',  ( 0.0000000000000000000, 0.0000000000000000000, -120.0000000000000000 ) ) ;
#300 = DIRECTION ( 'NONE',  ( 1.000000000000000000, 0.0000000000000000000, 0.0000000000000000000 ) ) ;
#301 = DIRECTION ( 'NONE',  ( -0.0000000000000000000, -0.0000000000000000000, 1.000000000000000000 ) ) ;
#302 = CARTESIAN_POINT ( 'NONE',  ( 0.0000000000000000000, 0.0000000000000000000, -87.15449999999999900 ) ) ;
#303 = AXIS2_PLACEMENT_3D ( 'NONE', #302, #301, #300 ) ;
#304 = CIRCLE ( 'NONE', #303, 43.94200000000000700 ) ;
#305 = CYLINDRICAL_SURFACE ( 'NONE', #203, 47.50000000000000000 ) ;
#306 = FACE_OUTER_BOUND ( 'NONE', #90, .T. ) ;
#307 = DIRECTION ( 'NONE',  ( 1.000000000000000000, 0.0000000000000000000, 0.0000000000000000000 ) ) ;
#308 = DIRECTION ( 'NONE',  ( -0.0000000000000000000, -0.0000000000000000000, 1.000000000000000000 ) ) ;
#309 = CARTESIAN_POINT ( 'NONE',  ( 0.0000000000000000000, 0.0000000000000000000, -86.00000000000000000 ) ) ;
#310 = AXIS2_PLACEMENT_3D ( 'NONE', #309, #308, #307 ) ;
#311 = CIRCLE ( 'NONE', #310, 42.46299999999998700 ) ;
#312 = CARTESIAN_POINT ( 'NONE',  ( -42.46299999999998700, 0.0000000000000000000, -86.00000000000000000 ) ) ;
#313 = DIRECTION ( 'NONE',  ( -0.7882747985675412300, 0.0000000000000000000, -0.6153233637229309500 ) ) ;
#314 = VECTOR ( 'NONE', #313, 1000.000000000000000 ) ;
#315 = CARTESIAN_POINT ( 'NONE',  ( -43.94200000000000700, 0.0000000000000000000, -87.15449999999999900 ) ) ;
#316 = LINE ( 'NONE', #315, #314 ) ;
#317 = CARTESIAN_POINT ( 'NONE',  ( -43.94200000000000700, 5.381165239966291100E-015, -87.15449999999999900 ) ) ;
#318 = CARTESIAN_POINT ( 'NONE',  ( -47.50000000000000000, 5.816880180656292000E-015, 0.0000000000000000000 ) ) ;
#319 = DIRECTION ( 'NONE',  ( -0.0000000000000000000, -0.0000000000000000000, 1.000000000000000000 ) ) ;
#320 = VECTOR ( 'NONE', #319, 1000.000000000000000 ) ;
#321 = CARTESIAN_POINT ( 'NONE',  ( -47.50000000000000000, 5.816880180656292000E-015, -4.336808689942017700E-016 ) ) ;
#322 = LINE ( 'NONE', #321, #320 ) ;
#323 = CARTESIAN_POINT ( 'NONE',  ( 45.47648845300609800, 5.569079670908124300E-015, -120.0000000000000000 ) ) ;
#324 = DIRECTION ( 'NONE',  ( 0.7071067811865522400, 8.659274570719413300E-017, -0.7071067811865426900 ) ) ;
#325 = VECTOR ( 'NONE', #324, 1000.000000000000100 ) ;
#326 = CARTESIAN_POINT ( 'NONE',  ( 45.47648845300609800, 5.569079670908124300E-015, -120.0000000000000000 ) ) ;
#327 = LINE ( 'NONE', #326, #325 ) ;
#328 = CARTESIAN_POINT ( 'NONE',  ( 43.94200000000000000, 0.0000000000000000000, -118.4655115469939200 ) ) ;
#329 = DIRECTION ( 'NONE',  ( 1.000000000000000000, 0.0000000000000000000, 0.0000000000000000000 ) ) ;
#330 = DIRECTION ( 'NONE',  ( 0.0000000000000000000, -0.0000000000000000000, 1.000000000000000000 ) ) ;
#331 = AXIS2_PLACEMENT_3D ( 'NONE', #332, #330, #329 ) ;
#332 = CARTESIAN_POINT ( 'NONE',  ( 0.0000000000000000000, 47.50000000000000000, -120.0000000000000000 ) ) ;
#333 = PLANE ( 'NONE',  #331 ) ;
#334 = FACE_BOUND ( 'NONE', #213, .T. ) ;
#335 = FACE_OUTER_BOUND ( 'NONE', #73, .T. ) ;
#336 = DIRECTION ( 'NONE',  ( -0.0000000000000000000, -0.0000000000000000000, 1.000000000000000000 ) ) ;
#337 = VECTOR ( 'NONE', #336, 1000.000000000000000 ) ;
#338 = CARTESIAN_POINT ( 'NONE',  ( 43.94200000000000700, 0.0000000000000000000, -4.336808689942017700E-016 ) ) ;
#339 = PERSON_AND_ORGANIZATION ( #340, #419 ) ;
#340 = PERSON ( 'UNSPECIFIED', 'UNSPECIFIED', 'UNSPECIFIED', ('UNSPECIFIED'), ('UNSPECIFIED'), ('UNSPECIFIED') ) ;
#341 = PRODUCT ( '19-0408-11_outokumpu', '19-0408-11_outokumpu', '', ( #342 ) ) ;
#342 = MECHANICAL_CONTEXT ( 'NONE', #388, 'mechanical' ) ;
#343 = APPLICATION_PROTOCOL_DEFINITION ( 'international standard', 'config_control_design', 1994, #388 ) ;
#344 = PRODUCT_DEFINITION_SHAPE ( 'NONE', 'NONE',  #413 ) ;
#345 = PRODUCT_RELATED_PRODUCT_CATEGORY ( 'detail', '', ( #341 ) ) ;
#346 = CC_DESIGN_SECURITY_CLASSIFICATION ( #367, ( #386 ) ) ;
#347 = CC_DESIGN_APPROVAL ( #355, ( #367 ) ) ;
#348 = APPROVAL_DATE_TIME ( #349, #355 ) ;
#349 = DATE_AND_TIME ( #350, #351 ) ;
#350 = CALENDAR_DATE ( 2015, 11, 8 ) ;
#351 = LOCAL_TIME ( 11, 45, 22.00000000000000000, #352 ) ;
#352 = COORDINATED_UNIVERSAL_TIME_OFFSET ( 1, 0, .AHEAD. ) ;
#353 = APPROVAL_PERSON_ORGANIZATION ( #357, #355, #354 ) ;
#354 = APPROVAL_ROLE ( '' ) ;
#355 = APPROVAL ( #356, 'UNSPECIFIED' ) ;
#356 = APPROVAL_STATUS ( 'not_yet_approved' ) ;
#357 = PERSON_AND_ORGANIZATION ( #340, #419 ) ;
#358 = CC_DESIGN_DATE_AND_TIME_ASSIGNMENT ( #360, #359, ( #367 ) ) ;
#359 = DATE_TIME_ROLE ( 'classification_date' ) ;
#360 = DATE_AND_TIME ( #361, #362 ) ;
#361 = CALENDAR_DATE ( 2015, 11, 8 ) ;
#362 = LOCAL_TIME ( 11, 45, 22.00000000000000000, #363 ) ;
#363 = COORDINATED_UNIVERSAL_TIME_OFFSET ( 1, 0, .AHEAD. ) ;
#364 = CC_DESIGN_PERSON_AND_ORGANIZATION_ASSIGNMENT ( #366, #365, ( #367 ) ) ;
#365 = PERSON_AND_ORGANIZATION_ROLE ( 'classification_officer' ) ;
#366 = PERSON_AND_ORGANIZATION ( #340, #419 ) ;
#367 = SECURITY_CLASSIFICATION ( '', '', #368 ) ;
#368 = SECURITY_CLASSIFICATION_LEVEL ( 'unclassified' ) ;
#369 = CC_DESIGN_PERSON_AND_ORGANIZATION_ASSIGNMENT ( #371, #370, ( #386 ) ) ;
#370 = PERSON_AND_ORGANIZATION_ROLE ( 'design_supplier' ) ;
#371 = PERSON_AND_ORGANIZATION ( #340, #419 ) ;
#372 = CC_DESIGN_PERSON_AND_ORGANIZATION_ASSIGNMENT ( #374, #373, ( #386 ) ) ;
#373 = PERSON_AND_ORGANIZATION_ROLE ( 'creator' ) ;
#374 = PERSON_AND_ORGANIZATION ( #340, #419 ) ;
#375 = CC_DESIGN_APPROVAL ( #383, ( #386 ) ) ;
#376 = APPROVAL_DATE_TIME ( #377, #383 ) ;
#377 = DATE_AND_TIME ( #378, #379 ) ;
#378 = CALENDAR_DATE ( 2015, 11, 8 ) ;
#379 = LOCAL_TIME ( 11, 45, 22.00000000000000000, #380 ) ;
#380 = COORDINATED_UNIVERSAL_TIME_OFFSET ( 1, 0, .AHEAD. ) ;
#381 = APPROVAL_PERSON_ORGANIZATION ( #385, #383, #382 ) ;
#382 = APPROVAL_ROLE ( '' ) ;
#383 = APPROVAL ( #384, 'UNSPECIFIED' ) ;
#384 = APPROVAL_STATUS ( 'not_yet_approved' ) ;
#385 = PERSON_AND_ORGANIZATION ( #340, #419 ) ;
#386 = PRODUCT_DEFINITION_FORMATION_WITH_SPECIFIED_SOURCE ( 'ANY', '', #341, .NOT_KNOWN. ) ;
#387 = AXIS2_PLACEMENT_3D ( 'NONE', #392, #391, #390 ) ;
#388 = APPLICATION_CONTEXT ( 'configuration controlled 3d designs of mechanical parts and assemblies' ) ;
#389 = SHAPE_DEFINITION_REPRESENTATION ( #344, #205 ) ;
#390 = DIRECTION ( 'NONE',  ( 1.000000000000000000, 0.0000000000000000000, 0.0000000000000000000 ) ) ;
#391 = DIRECTION ( 'NONE',  ( 0.0000000000000000000, 0.0000000000000000000, 1.000000000000000000 ) ) ;
#392 = CARTESIAN_POINT ( 'NONE',  ( 0.0000000000000000000, 0.0000000000000000000, 0.0000000000000000000 ) ) ;
#393 = CC_DESIGN_DATE_AND_TIME_ASSIGNMENT ( #395, #394, ( #413 ) ) ;
#394 = DATE_TIME_ROLE ( 'creation_date' ) ;
#395 = DATE_AND_TIME ( #396, #397 ) ;
#396 = CALENDAR_DATE ( 2015, 11, 8 ) ;
#397 = LOCAL_TIME ( 11, 45, 22.00000000000000000, #398 ) ;
#398 = COORDINATED_UNIVERSAL_TIME_OFFSET ( 1, 0, .AHEAD. ) ;
#399 = CC_DESIGN_PERSON_AND_ORGANIZATION_ASSIGNMENT ( #401, #400, ( #413 ) ) ;
#400 = PERSON_AND_ORGANIZATION_ROLE ( 'creator' ) ;
#401 = PERSON_AND_ORGANIZATION ( #340, #419 ) ;
#402 = CC_DESIGN_APPROVAL ( #410, ( #413 ) ) ;
#403 = APPROVAL_DATE_TIME ( #404, #410 ) ;
#404 = DATE_AND_TIME ( #405, #406 ) ;
#405 = CALENDAR_DATE ( 2015, 11, 8 ) ;
#406 = LOCAL_TIME ( 11, 45, 22.00000000000000000, #407 ) ;
#407 = COORDINATED_UNIVERSAL_TIME_OFFSET ( 1, 0, .AHEAD. ) ;
#408 = APPROVAL_PERSON_ORGANIZATION ( #412, #410, #409 ) ;
#409 = APPROVAL_ROLE ( '' ) ;
#410 = APPROVAL ( #411, 'UNSPECIFIED' ) ;
#411 = APPROVAL_STATUS ( 'not_yet_approved' ) ;
#412 = PERSON_AND_ORGANIZATION ( #340, #419 ) ;
#413 = PRODUCT_DEFINITION ( 'UNKNOWN', '', #386, #414 ) ;
#414 = DESIGN_CONTEXT ( 'detailed design', #416, 'design' ) ;
#415 = APPLICATION_PROTOCOL_DEFINITION ( 'international standard', 'config_control_design', 1994, #416 ) ;
#416 = APPLICATION_CONTEXT ( 'configuration controlled 3d designs of mechanical parts and assemblies' ) ;
#417 = CC_DESIGN_PERSON_AND_ORGANIZATION_ASSIGNMENT ( #339, #418, ( #341 ) ) ;
#418 = PERSON_AND_ORGANIZATION_ROLE ( 'design_owner' ) ;
#419 = ORGANIZATION ( 'UNSPECIFIED', 'UNSPECIFIED', '' ) ;
ENDSEC;
END-ISO-10303-21;
