ISO-10303-21;
HEADER;
FILE_DESCRIPTION (( 'STEP AP203' ),
    '1' );
FILE_NAME ('19-0408-72_outokumpu.step',
    '2015-08-11T09:37:04',
    ( '' ),
    ( '' ),
    'SwSTEP 2.0',
    'SolidWorks 2008',
    '' );
FILE_SCHEMA (( 'CONFIG_CONTROL_DESIGN' ));
ENDSEC;

DATA;
#1 = VERTEX_POINT ( 'NONE', #111 ) ;
#2 = ORIENTED_EDGE ( 'NONE', *, *, #37, .F. ) ;
#3 = ORIENTED_EDGE ( 'NONE', *, *, #4, .F. ) ;
#4 = EDGE_CURVE ( 'NONE', #1, #418, #119, .T. ) ;
#5 = ORIENTED_EDGE ( 'NONE', *, *, #12, .F. ) ;
#6 = VERTEX_POINT ( 'NONE', #139 ) ;
#7 = EDGE_CURVE ( 'NONE', #6, #57, #123, .T. ) ;
#8 = EDGE_LOOP ( 'NONE', ( #49, #58, #60, #3, #54 ) ) ;
#9 = ORIENTED_EDGE ( 'NONE', *, *, #7, .T. ) ;
#10 = EDGE_CURVE ( 'NONE', #45, #14, #145, .T. ) ;
#11 = ORIENTED_EDGE ( 'NONE', *, *, #10, .F. ) ;
#12 = EDGE_CURVE ( 'NONE', #14, #57, #130, .T. ) ;
#13 = VERTEX_POINT ( 'NONE', #125 ) ;
#14 = VERTEX_POINT ( 'NONE', #124 ) ;
#15 = EDGE_CURVE ( 'NONE', #69, #21, #154, .T. ) ;
#16 = ORIENTED_EDGE ( 'NONE', *, *, #15, .T. ) ;
#17 = EDGE_CURVE ( 'NONE', #75, #416, #150, .T. ) ;
#18 = ORIENTED_EDGE ( 'NONE', *, *, #39, .T. ) ;
#19 = ORIENTED_EDGE ( 'NONE', *, *, #37, .T. ) ;
#20 = ORIENTED_EDGE ( 'NONE', *, *, #24, .F. ) ;
#21 = VERTEX_POINT ( 'NONE', #146 ) ;
#22 = EDGE_CURVE ( 'NONE', #418, #21, #161, .T. ) ;
#23 = ADVANCED_FACE ( 'NONE', ( #157 ), #156, .F. ) ;
#24 = EDGE_CURVE ( 'NONE', #70, #416, #135, .T. ) ;
#25 = ORIENTED_EDGE ( 'NONE', *, *, #419, .T. ) ;
#26 = EDGE_LOOP ( 'NONE', ( #27, #16, #19, #20 ) ) ;
#27 = ORIENTED_EDGE ( 'NONE', *, *, #68, .F. ) ;
#28 = ORIENTED_EDGE ( 'NONE', *, *, #30, .T. ) ;
#29 = ADVANCED_FACE ( 'NONE', ( #131 ), #187, .T. ) ;
#30 = EDGE_CURVE ( 'NONE', #45, #6, #176, .T. ) ;
#31 = ADVANCED_FACE ( 'NONE', ( #177 ), #172, .F. ) ;
#32 = EDGE_LOOP ( 'NONE', ( #33, #43, #81, #84 ) ) ;
#33 = ORIENTED_EDGE ( 'NONE', *, *, #15, .F. ) ;
#34 = EDGE_LOOP ( 'NONE', ( #52, #78, #2, #46, #47 ) ) ;
#35 = EDGE_CURVE ( 'NONE', #69, #40, #186, .T. ) ;
#36 = VERTEX_POINT ( 'NONE', #182 ) ;
#37 = EDGE_CURVE ( 'NONE', #21, #416, #202, .T. ) ;
#38 = ORIENTED_EDGE ( 'NONE', *, *, #39, .F. ) ;
#39 = EDGE_CURVE ( 'NONE', #40, #73, #170, .T. ) ;
#40 = VERTEX_POINT ( 'NONE', #165 ) ;
#41 = MANIFOLD_SOLID_BREP ( 'NONE', #113 ) ;
#42 = ADVANCED_FACE ( 'NONE', ( #164 ), #198, .F. ) ;
#43 = ORIENTED_EDGE ( 'NONE', *, *, #102, .F. ) ;
#44 = EDGE_LOOP ( 'NONE', ( #18, #25 ) ) ;
#45 = VERTEX_POINT ( 'NONE', #197 ) ;
#46 = ORIENTED_EDGE ( 'NONE', *, *, #22, .F. ) ;
#47 = ORIENTED_EDGE ( 'NONE', *, *, #56, .T. ) ;
#48 = ADVANCED_FACE ( 'NONE', ( #192 ), #204, .F. ) ;
#49 = ORIENTED_EDGE ( 'NONE', *, *, #50, .F. ) ;
#50 = EDGE_CURVE ( 'NONE', #13, #36, #297, .T. ) ;
#51 = ADVANCED_FACE ( 'NONE', ( #298 ), #224, .F. ) ;
#52 = ORIENTED_EDGE ( 'NONE', *, *, #76, .T. ) ;
#53 = ORIENTED_EDGE ( 'NONE', *, *, #7, .F. ) ;
#54 = ORIENTED_EDGE ( 'NONE', *, *, #55, .F. ) ;
#55 = EDGE_CURVE ( 'NONE', #36, #1, #225, .T. ) ;
#56 = EDGE_CURVE ( 'NONE', #418, #74, #214, .T. ) ;
#57 = VERTEX_POINT ( 'NONE', #247 ) ;
#58 = ORIENTED_EDGE ( 'NONE', *, *, #59, .T. ) ;
#59 = EDGE_CURVE ( 'NONE', #13, #74, #246, .T. ) ;
#60 = ORIENTED_EDGE ( 'NONE', *, *, #56, .F. ) ;
#61 = ADVANCED_FACE ( 'NONE', ( #267, #266 ), #264, .F. ) ;
#62 = EDGE_LOOP ( 'NONE', ( #63, #64 ) ) ;
#63 = ORIENTED_EDGE ( 'NONE', *, *, #30, .F. ) ;
#64 = ORIENTED_EDGE ( 'NONE', *, *, #65, .F. ) ;
#65 = EDGE_CURVE ( 'NONE', #6, #45, #307, .T. ) ;
#66 = EDGE_LOOP ( 'NONE', ( #67, #71, #38, #79 ) ) ;
#67 = ORIENTED_EDGE ( 'NONE', *, *, #68, .T. ) ;
#68 = EDGE_CURVE ( 'NONE', #69, #70, #306, .T. ) ;
#69 = VERTEX_POINT ( 'NONE', #302 ) ;
#70 = VERTEX_POINT ( 'NONE', #301 ) ;
#71 = ORIENTED_EDGE ( 'NONE', *, *, #72, .T. ) ;
#72 = EDGE_CURVE ( 'NONE', #70, #73, #274, .T. ) ;
#73 = VERTEX_POINT ( 'NONE', #270 ) ;
#74 = VERTEX_POINT ( 'NONE', #269 ) ;
#75 = VERTEX_POINT ( 'NONE', #290 ) ;
#76 = EDGE_CURVE ( 'NONE', #74, #75, #288, .T. ) ;
#77 = ORIENTED_EDGE ( 'NONE', *, *, #65, .T. ) ;
#78 = ORIENTED_EDGE ( 'NONE', *, *, #17, .T. ) ;
#79 = ORIENTED_EDGE ( 'NONE', *, *, #35, .F. ) ;
#80 = EDGE_CURVE ( 'NONE', #416, #21, #233, .T. ) ;
#81 = ORIENTED_EDGE ( 'NONE', *, *, #24, .T. ) ;
#82 = EDGE_LOOP ( 'NONE', ( #92, #93 ) ) ;
#83 = ORIENTED_EDGE ( 'NONE', *, *, #87, .F. ) ;
#84 = ORIENTED_EDGE ( 'NONE', *, *, #80, .T. ) ;
#85 = ADVANCED_FACE ( 'NONE', ( #294 ), #229, .T. ) ;
#86 = ADVANCED_FACE ( 'NONE', ( #262 ), #258, .F. ) ;
#87 = EDGE_CURVE ( 'NONE', #36, #13, #284, .T. ) ;
#88 = ORIENTED_EDGE ( 'NONE', *, *, #12, .T. ) ;
#89 = EDGE_CURVE ( 'NONE', #57, #14, #279, .T. ) ;
#90 = ADVANCED_FACE ( 'NONE', ( #275, #243 ), #242, .F. ) ;
#91 = ORIENTED_EDGE ( 'NONE', *, *, #59, .F. ) ;
#92 = ORIENTED_EDGE ( 'NONE', *, *, #87, .T. ) ;
#93 = ORIENTED_EDGE ( 'NONE', *, *, #50, .T. ) ;
#94 = EDGE_LOOP ( 'NONE', ( #88, #106 ) ) ;
#95 = ORIENTED_EDGE ( 'NONE', *, *, #89, .F. ) ;
#96 = ORIENTED_EDGE ( 'NONE', *, *, #55, .T. ) ;
#97 = ORIENTED_EDGE ( 'NONE', *, *, #98, .F. ) ;
#98 = EDGE_CURVE ( 'NONE', #75, #1, #236, .T. ) ;
#99 = ORIENTED_EDGE ( 'NONE', *, *, #76, .F. ) ;
#100 = EDGE_LOOP ( 'NONE', ( #53, #77, #415, #95 ) ) ;
#101 = EDGE_LOOP ( 'NONE', ( #91, #83, #96, #97, #99 ) ) ;
#102 = EDGE_CURVE ( 'NONE', #70, #69, #222, .T. ) ;
#103 = EDGE_LOOP ( 'NONE', ( #104, #108, #107, #110, #118 ) ) ;
#104 = ORIENTED_EDGE ( 'NONE', *, *, #17, .F. ) ;
#105 = ADVANCED_FACE ( 'NONE', ( #217 ), #313, .F. ) ;
#106 = ORIENTED_EDGE ( 'NONE', *, *, #89, .T. ) ;
#107 = ORIENTED_EDGE ( 'NONE', *, *, #4, .T. ) ;
#108 = ORIENTED_EDGE ( 'NONE', *, *, #98, .T. ) ;
#109 = ADVANCED_FACE ( 'NONE', ( #322 ), #336, .F. ) ;
#110 = ORIENTED_EDGE ( 'NONE', *, *, #22, .T. ) ;
#111 = CARTESIAN_POINT ( 'NONE',  ( 0.0000000000000000000, 5.722499999999985900, -69.00000000000000000 ) ) ;
#112 = ORIENTED_EDGE ( 'NONE', *, *, #419, .F. ) ;
#113 = CLOSED_SHELL ( 'NONE', ( #42, #51, #29, #48, #23, #61, #31, #86, #85, #90, #105, #109 ) ) ;
#114 = ORIENTED_EDGE ( 'NONE', *, *, #35, .T. ) ;
#115 = ORIENTED_EDGE ( 'NONE', *, *, #102, .T. ) ;
#116 = ORIENTED_EDGE ( 'NONE', *, *, #72, .F. ) ;
#117 = EDGE_LOOP ( 'NONE', ( #116, #115, #114, #112 ) ) ;
#118 = ORIENTED_EDGE ( 'NONE', *, *, #80, .F. ) ;
#119 = CIRCLE ( 'NONE', #141, 5.722499999999985900 ) ;
#120 = DIRECTION ( 'NONE',  ( -0.0000000000000000000, -0.0000000000000000000, 1.000000000000000000 ) ) ;
#121 = VECTOR ( 'NONE', #120, 1000.000000000000000 ) ;
#122 = CARTESIAN_POINT ( 'NONE',  ( -9.250000000000000000, 1.132760877285699000E-015, -4.336808689942017700E-016 ) ) ;
#123 = LINE ( 'NONE', #122, #121 ) ;
#124 = CARTESIAN_POINT ( 'NONE',  ( 9.250000000000000000, 0.0000000000000000000, 0.0000000000000000000 ) ) ;
#125 = CARTESIAN_POINT ( 'NONE',  ( 7.007809859748548200E-016, -5.722499999999993000, 1.462767177259646200E-017 ) ) ;
#126 = DIRECTION ( 'NONE',  ( 1.000000000000000000, 0.0000000000000000000, 0.0000000000000000000 ) ) ;
#127 = DIRECTION ( 'NONE',  ( -0.0000000000000000000, -0.0000000000000000000, 1.000000000000000000 ) ) ;
#128 = CARTESIAN_POINT ( 'NONE',  ( 0.0000000000000000000, 0.0000000000000000000, 0.0000000000000000000 ) ) ;
#129 = AXIS2_PLACEMENT_3D ( 'NONE', #128, #127, #126 ) ;
#130 = CIRCLE ( 'NONE', #129, 9.250000000000000000 ) ;
#131 = FACE_OUTER_BOUND ( 'NONE', #417, .T. ) ;
#132 = DIRECTION ( 'NONE',  ( -0.0000000000000000000, -0.0000000000000000000, 1.000000000000000000 ) ) ;
#133 = VECTOR ( 'NONE', #132, 1000.000000000000000 ) ;
#134 = CARTESIAN_POINT ( 'NONE',  ( 6.578499999999999100, 0.0000000000000000000, -4.336808689942017700E-016 ) ) ;
#135 = LINE ( 'NONE', #134, #133 ) ;
#136 = DIRECTION ( 'NONE',  ( 1.000000000000000000, 0.0000000000000000000, 0.0000000000000000000 ) ) ;
#137 = DIRECTION ( 'NONE',  ( -0.0000000000000000000, -0.0000000000000000000, 1.000000000000000000 ) ) ;
#138 = AXIS2_PLACEMENT_3D ( 'NONE', #155, #137, #136 ) ;
#139 = CARTESIAN_POINT ( 'NONE',  ( -9.250000000000000000, 1.132760877285699000E-015, -80.00000000000000000 ) ) ;
#140 = CARTESIAN_POINT ( 'NONE',  ( 0.0000000000000000000, 0.0000000000000000000, -69.00000000000000000 ) ) ;
#141 = AXIS2_PLACEMENT_3D ( 'NONE', #140, #163, #162 ) ;
#142 = DIRECTION ( 'NONE',  ( -0.0000000000000000000, -0.0000000000000000000, 1.000000000000000000 ) ) ;
#143 = VECTOR ( 'NONE', #142, 1000.000000000000000 ) ;
#144 = CARTESIAN_POINT ( 'NONE',  ( 9.250000000000000000, 0.0000000000000000000, -4.336808689942017700E-016 ) ) ;
#145 = LINE ( 'NONE', #144, #143 ) ;
#146 = CARTESIAN_POINT ( 'NONE',  ( -6.578499999999999100, 8.056072898620507900E-016, -69.66850000000000900 ) ) ;
#147 = DIRECTION ( 'NONE',  ( 0.7881360308231405400, 9.651563910223668400E-017, -0.6155010941650271800 ) ) ;
#148 = VECTOR ( 'NONE', #147, 1000.000000000000000 ) ;
#149 = CARTESIAN_POINT ( 'NONE',  ( 6.578499999999999100, 8.056072898620507900E-016, -69.66850000000000900 ) ) ;
#150 = LINE ( 'NONE', #149, #148 ) ;
#151 = DIRECTION ( 'NONE',  ( -0.0000000000000000000, -0.0000000000000000000, 1.000000000000000000 ) ) ;
#152 = VECTOR ( 'NONE', #151, 1000.000000000000000 ) ;
#153 = CARTESIAN_POINT ( 'NONE',  ( -6.578499999999999100, 8.056072898620507900E-016, -4.336808689942017700E-016 ) ) ;
#154 = LINE ( 'NONE', #153, #152 ) ;
#155 = CARTESIAN_POINT ( 'NONE',  ( 0.0000000000000000000, 0.0000000000000000000, -4.336808689942017700E-016 ) ) ;
#156 = CYLINDRICAL_SURFACE ( 'NONE', #138, 6.578499999999999100 ) ;
#157 = FACE_OUTER_BOUND ( 'NONE', #26, .T. ) ;
#158 = DIRECTION ( 'NONE',  ( -0.7881360308231405400, 0.0000000000000000000, -0.6155010941650271800 ) ) ;
#159 = VECTOR ( 'NONE', #158, 1000.000000000000000 ) ;
#160 = CARTESIAN_POINT ( 'NONE',  ( -6.578499999999999100, 0.0000000000000000000, -69.66850000000000900 ) ) ;
#161 = LINE ( 'NONE', #160, #159 ) ;
#162 = DIRECTION ( 'NONE',  ( 1.000000000000000000, 0.0000000000000000000, 0.0000000000000000000 ) ) ;
#163 = DIRECTION ( 'NONE',  ( -0.0000000000000000000, -0.0000000000000000000, 1.000000000000000000 ) ) ;
#164 = FACE_OUTER_BOUND ( 'NONE', #66, .T. ) ;
#165 = CARTESIAN_POINT ( 'NONE',  ( -6.808226282101427000, 0.0000000000000000000, -80.00000000000000000 ) ) ;
#166 = DIRECTION ( 'NONE',  ( 1.000000000000000000, 0.0000000000000000000, 0.0000000000000000000 ) ) ;
#167 = DIRECTION ( 'NONE',  ( -0.0000000000000000000, -0.0000000000000000000, 1.000000000000000000 ) ) ;
#168 = CARTESIAN_POINT ( 'NONE',  ( 0.0000000000000000000, 0.0000000000000000000, -80.00000000000000000 ) ) ;
#169 = AXIS2_PLACEMENT_3D ( 'NONE', #168, #167, #166 ) ;
#170 = CIRCLE ( 'NONE', #169, 6.808226282101427000 ) ;
#171 = CARTESIAN_POINT ( 'NONE',  ( 0.0000000000000000000, 0.0000000000000000000, -4.336808689942017700E-016 ) ) ;
#172 = CYLINDRICAL_SURFACE ( 'NONE', #191, 6.578499999999999100 ) ;
#173 = DIRECTION ( 'NONE',  ( 1.000000000000000000, 0.0000000000000000000, 0.0000000000000000000 ) ) ;
#174 = DIRECTION ( 'NONE',  ( -0.0000000000000000000, -0.0000000000000000000, 1.000000000000000000 ) ) ;
#175 = AXIS2_PLACEMENT_3D ( 'NONE', #178, #174, #173 ) ;
#176 = CIRCLE ( 'NONE', #175, 9.250000000000000000 ) ;
#177 = FACE_OUTER_BOUND ( 'NONE', #32, .T. ) ;
#178 = CARTESIAN_POINT ( 'NONE',  ( 0.0000000000000000000, 0.0000000000000000000, -80.00000000000000000 ) ) ;
#179 = AXIS2_PLACEMENT_3D ( 'NONE', #171, #203, #180 ) ;
#180 = DIRECTION ( 'NONE',  ( 1.000000000000000000, 0.0000000000000000000, 0.0000000000000000000 ) ) ;
#181 = CARTESIAN_POINT ( 'NONE',  ( 0.0000000000000000000, 0.0000000000000000000, -69.66850000000000900 ) ) ;
#182 = CARTESIAN_POINT ( 'NONE',  ( 0.0000000000000000000, 5.722499999999985900, -1.462767177259645900E-017 ) ) ;
#183 = DIRECTION ( 'NONE',  ( -0.7071067811865727700, 0.0000000000000000000, -0.7071067811865221500 ) ) ;
#184 = VECTOR ( 'NONE', #183, 1000.000000000000100 ) ;
#185 = CARTESIAN_POINT ( 'NONE',  ( -6.808226282101427000, 0.0000000000000000000, -80.00000000000000000 ) ) ;
#186 = LINE ( 'NONE', #185, #184 ) ;
#187 = CYLINDRICAL_SURFACE ( 'NONE', #179, 9.250000000000000000 ) ;
#188 = DIRECTION ( 'NONE',  ( 1.000000000000000000, 0.0000000000000000000, 0.0000000000000000000 ) ) ;
#189 = DIRECTION ( 'NONE',  ( -0.0000000000000000000, -0.0000000000000000000, 1.000000000000000000 ) ) ;
#190 = CARTESIAN_POINT ( 'NONE',  ( 0.0000000000000000000, 0.0000000000000000000, -4.336808689942017700E-016 ) ) ;
#191 = AXIS2_PLACEMENT_3D ( 'NONE', #190, #189, #188 ) ;
#192 = FACE_OUTER_BOUND ( 'NONE', #8, .T. ) ;
#193 = DIRECTION ( 'NONE',  ( -1.000000000000000000, 0.0000000000000000000, 0.0000000000000000000 ) ) ;
#194 = DIRECTION ( 'NONE',  ( 0.0000000000000000000, 0.0000000000000000000, -1.000000000000000000 ) ) ;
#195 = CARTESIAN_POINT ( 'NONE',  ( 0.0000000000000000000, 0.0000000000000000000, -80.00000000000000000 ) ) ;
#196 = AXIS2_PLACEMENT_3D ( 'NONE', #195, #194, #193 ) ;
#197 = CARTESIAN_POINT ( 'NONE',  ( 9.250000000000000000, 0.0000000000000000000, -80.00000000000000000 ) ) ;
#198 = CONICAL_SURFACE ( 'NONE', #196, 6.808226282101427000, 0.7853981633974841400 ) ;
#199 = DIRECTION ( 'NONE',  ( 1.000000000000000000, 0.0000000000000000000, 0.0000000000000000000 ) ) ;
#200 = DIRECTION ( 'NONE',  ( -0.0000000000000000000, -0.0000000000000000000, 1.000000000000000000 ) ) ;
#201 = AXIS2_PLACEMENT_3D ( 'NONE', #181, #200, #199 ) ;
#202 = CIRCLE ( 'NONE', #201, 6.578499999999999100 ) ;
#203 = DIRECTION ( 'NONE',  ( -0.0000000000000000000, -0.0000000000000000000, 1.000000000000000000 ) ) ;
#204 = CYLINDRICAL_SURFACE ( 'NONE', #253, 5.722500000000000100 ) ;
#205 = CARTESIAN_POINT ( 'NONE',  ( 0.0000000000000000000, 0.0000000000000000000, -79.77027371789859000 ) ) ;
#206 = DIRECTION ( 'NONE',  ( 1.000000000000000000, 0.0000000000000000000, 0.0000000000000000000 ) ) ;
#207 = DIRECTION ( 'NONE',  ( -0.0000000000000000000, -0.0000000000000000000, 1.000000000000000000 ) ) ;
#208 = CARTESIAN_POINT ( 'NONE',  ( 0.0000000000000000000, 0.0000000000000000000, -80.00000000000000000 ) ) ;
#209 = AXIS2_PLACEMENT_3D ( 'NONE', #208, #207, #206 ) ;
#210 = CARTESIAN_POINT ( 'NONE',  ( 0.0000000000000000000, -3.469446951953615000E-015, 0.0000000000000000000 ) ) ;
#211 = DIRECTION ( 'NONE',  ( 0.0000000000000000000, 1.000000000000000000, 0.0000000000000000000 ) ) ;
#212 = CARTESIAN_POINT ( 'NONE',  ( 0.0000000000000000000, 0.0000000000000000000, -69.00000000000000000 ) ) ;
#213 = AXIS2_PLACEMENT_3D ( 'NONE', #212, #249, #248 ) ;
#214 = CIRCLE ( 'NONE', #213, 5.722499999999985900 ) ;
#215 = DIRECTION ( 'NONE',  ( -0.0000000000000000000, -2.556168068605764400E-018, -1.000000000000000000 ) ) ;
#216 = VECTOR ( 'NONE', #215, 1000.000000000000000 ) ;
#217 = FACE_OUTER_BOUND ( 'NONE', #103, .T. ) ;
#218 = DIRECTION ( 'NONE',  ( 1.000000000000000000, 0.0000000000000000000, 0.0000000000000000000 ) ) ;
#219 = DIRECTION ( 'NONE',  ( -0.0000000000000000000, -0.0000000000000000000, 1.000000000000000000 ) ) ;
#220 = CARTESIAN_POINT ( 'NONE',  ( 0.0000000000000000000, 0.0000000000000000000, -79.77027371789859000 ) ) ;
#221 = AXIS2_PLACEMENT_3D ( 'NONE', #220, #219, #218 ) ;
#222 = CIRCLE ( 'NONE', #221, 6.578499999999999100 ) ;
#223 = DIRECTION ( 'NONE',  ( 1.000000000000000000, 0.0000000000000000000, 0.0000000000000000000 ) ) ;
#224 = CONICAL_SURFACE ( 'NONE', #291, 6.578499999999999100, 0.9077747214735943900 ) ;
#225 = LINE ( 'NONE', #226, #216 ) ;
#226 = CARTESIAN_POINT ( 'NONE',  ( 0.0000000000000000000, 5.722499999999996600, -80.00000000000001400 ) ) ;
#227 = CARTESIAN_POINT ( 'NONE',  ( 0.0000000000000000000, 0.0000000000000000000, -4.336808689942017700E-016 ) ) ;
#228 = AXIS2_PLACEMENT_3D ( 'NONE', #227, #260, #259 ) ;
#229 = CYLINDRICAL_SURFACE ( 'NONE', #228, 9.250000000000000000 ) ;
#230 = DIRECTION ( 'NONE',  ( 1.000000000000000000, 0.0000000000000000000, 0.0000000000000000000 ) ) ;
#231 = DIRECTION ( 'NONE',  ( -0.0000000000000000000, -0.0000000000000000000, 1.000000000000000000 ) ) ;
#232 = AXIS2_PLACEMENT_3D ( 'NONE', #289, #231, #230 ) ;
#233 = CIRCLE ( 'NONE', #232, 6.578499999999999100 ) ;
#234 = DIRECTION ( 'NONE',  ( -0.0000000000000000000, -0.0000000000000000000, 1.000000000000000000 ) ) ;
#235 = AXIS2_PLACEMENT_3D ( 'NONE', #240, #234, #223 ) ;
#236 = CIRCLE ( 'NONE', #235, 5.722499999999985900 ) ;
#237 = DIRECTION ( 'NONE',  ( -1.000000000000000000, 0.0000000000000000000, -0.0000000000000000000 ) ) ;
#238 = DIRECTION ( 'NONE',  ( 0.0000000000000000000, 0.0000000000000000000, -1.000000000000000000 ) ) ;
#239 = AXIS2_PLACEMENT_3D ( 'NONE', #241, #238, #237 ) ;
#240 = CARTESIAN_POINT ( 'NONE',  ( 0.0000000000000000000, 0.0000000000000000000, -69.00000000000000000 ) ) ;
#241 = CARTESIAN_POINT ( 'NONE',  ( 0.0000000000000000000, 9.250000000000000000, -2.168404344971008900E-016 ) ) ;
#242 = PLANE ( 'NONE',  #239 ) ;
#243 = FACE_OUTER_BOUND ( 'NONE', #94, .T. ) ;
#244 = VECTOR ( 'NONE', #268, 1000.000000000000000 ) ;
#245 = CARTESIAN_POINT ( 'NONE',  ( 7.007809859748554100E-016, -5.722500000000003700, -80.00000000000001400 ) ) ;
#246 = LINE ( 'NONE', #245, #244 ) ;
#247 = CARTESIAN_POINT ( 'NONE',  ( -9.250000000000000000, 1.132760877285699000E-015, 0.0000000000000000000 ) ) ;
#248 = DIRECTION ( 'NONE',  ( 1.000000000000000000, 0.0000000000000000000, 0.0000000000000000000 ) ) ;
#249 = DIRECTION ( 'NONE',  ( -0.0000000000000000000, -0.0000000000000000000, 1.000000000000000000 ) ) ;
#250 = DIRECTION ( 'NONE',  ( -1.000000000000000000, 0.0000000000000000000, 0.0000000000000000000 ) ) ;
#251 = DIRECTION ( 'NONE',  ( 0.0000000000000000000, 0.0000000000000000000, -1.000000000000000000 ) ) ;
#252 = CARTESIAN_POINT ( 'NONE',  ( 0.0000000000000000000, 0.0000000000000000000, -69.66850000000000900 ) ) ;
#253 = AXIS2_PLACEMENT_3D ( 'NONE', #293, #299, #211 ) ;
#254 = DIRECTION ( 'NONE',  ( 0.0000000000000000000, 1.000000000000000000, -2.556168068605764400E-018 ) ) ;
#255 = DIRECTION ( 'NONE',  ( 0.0000000000000000000, 1.000000000000000000, 0.0000000000000000000 ) ) ;
#256 = DIRECTION ( 'NONE',  ( -0.0000000000000000000, -2.556168068605764400E-018, -1.000000000000000000 ) ) ;
#257 = AXIS2_PLACEMENT_3D ( 'NONE', #261, #256, #255 ) ;
#258 = CYLINDRICAL_SURFACE ( 'NONE', #257, 5.722500000000000100 ) ;
#259 = DIRECTION ( 'NONE',  ( 1.000000000000000000, 0.0000000000000000000, 0.0000000000000000000 ) ) ;
#260 = DIRECTION ( 'NONE',  ( -0.0000000000000000000, -0.0000000000000000000, 1.000000000000000000 ) ) ;
#261 = CARTESIAN_POINT ( 'NONE',  ( 0.0000000000000000000, -3.673940397442076500E-015, -80.00000000000001400 ) ) ;
#262 = FACE_OUTER_BOUND ( 'NONE', #101, .T. ) ;
#263 = CARTESIAN_POINT ( 'NONE',  ( 0.0000000000000000000, 9.250000000000000000, -80.00000000000000000 ) ) ;
#264 = PLANE ( 'NONE',  #265 ) ;
#265 = AXIS2_PLACEMENT_3D ( 'NONE', #263, #309, #308 ) ;
#266 = FACE_BOUND ( 'NONE', #44, .T. ) ;
#267 = FACE_OUTER_BOUND ( 'NONE', #62, .T. ) ;
#268 = DIRECTION ( 'NONE',  ( -0.0000000000000000000, -2.556168068605764400E-018, -1.000000000000000000 ) ) ;
#269 = CARTESIAN_POINT ( 'NONE',  ( 7.007809859748544300E-016, -5.722499999999985900, -69.00000000000000000 ) ) ;
#270 = CARTESIAN_POINT ( 'NONE',  ( 6.808226282101427000, 8.337397163321907900E-016, -80.00000000000000000 ) ) ;
#271 = DIRECTION ( 'NONE',  ( 0.7071067811865727700, 8.659274570719666000E-017, -0.7071067811865221500 ) ) ;
#272 = VECTOR ( 'NONE', #271, 1000.000000000000100 ) ;
#273 = CARTESIAN_POINT ( 'NONE',  ( 6.808226282101427000, 8.337397163321907900E-016, -80.00000000000000000 ) ) ;
#274 = LINE ( 'NONE', #273, #272 ) ;
#275 = FACE_BOUND ( 'NONE', #82, .T. ) ;
#276 = DIRECTION ( 'NONE',  ( 1.000000000000000000, 0.0000000000000000000, 0.0000000000000000000 ) ) ;
#277 = DIRECTION ( 'NONE',  ( -0.0000000000000000000, -0.0000000000000000000, 1.000000000000000000 ) ) ;
#278 = AXIS2_PLACEMENT_3D ( 'NONE', #285, #277, #276 ) ;
#279 = CIRCLE ( 'NONE', #278, 9.250000000000000000 ) ;
#280 = DIRECTION ( 'NONE',  ( 0.0000000000000000000, 1.000000000000000000, -2.556168068605764400E-018 ) ) ;
#281 = DIRECTION ( 'NONE',  ( -0.0000000000000000000, -2.556168068605764400E-018, -1.000000000000000000 ) ) ;
#282 = CARTESIAN_POINT ( 'NONE',  ( 0.0000000000000000000, -3.469446951953615000E-015, 0.0000000000000000000 ) ) ;
#283 = AXIS2_PLACEMENT_3D ( 'NONE', #282, #281, #280 ) ;
#284 = CIRCLE ( 'NONE', #283, 5.722499999999989500 ) ;
#285 = CARTESIAN_POINT ( 'NONE',  ( 0.0000000000000000000, 0.0000000000000000000, 0.0000000000000000000 ) ) ;
#286 = CARTESIAN_POINT ( 'NONE',  ( 0.0000000000000000000, 0.0000000000000000000, -69.00000000000000000 ) ) ;
#287 = AXIS2_PLACEMENT_3D ( 'NONE', #286, #296, #295 ) ;
#288 = CIRCLE ( 'NONE', #287, 5.722499999999985900 ) ;
#289 = CARTESIAN_POINT ( 'NONE',  ( 0.0000000000000000000, 0.0000000000000000000, -69.66850000000000900 ) ) ;
#290 = CARTESIAN_POINT ( 'NONE',  ( 5.722499999999985900, 7.531941379184522200E-016, -69.00000000000000000 ) ) ;
#291 = AXIS2_PLACEMENT_3D ( 'NONE', #252, #251, #250 ) ;
#292 = AXIS2_PLACEMENT_3D ( 'NONE', #210, #300, #254 ) ;
#293 = CARTESIAN_POINT ( 'NONE',  ( 0.0000000000000000000, -3.673940397442076500E-015, -80.00000000000001400 ) ) ;
#294 = FACE_OUTER_BOUND ( 'NONE', #100, .T. ) ;
#295 = DIRECTION ( 'NONE',  ( 1.000000000000000000, 0.0000000000000000000, 0.0000000000000000000 ) ) ;
#296 = DIRECTION ( 'NONE',  ( -0.0000000000000000000, -0.0000000000000000000, 1.000000000000000000 ) ) ;
#297 = CIRCLE ( 'NONE', #292, 5.722499999999989500 ) ;
#298 = FACE_OUTER_BOUND ( 'NONE', #34, .T. ) ;
#299 = DIRECTION ( 'NONE',  ( -0.0000000000000000000, -2.556168068605764400E-018, -1.000000000000000000 ) ) ;
#300 = DIRECTION ( 'NONE',  ( -0.0000000000000000000, -2.556168068605764400E-018, -1.000000000000000000 ) ) ;
#301 = CARTESIAN_POINT ( 'NONE',  ( 6.578499999999999100, 0.0000000000000000000, -79.77027371789859000 ) ) ;
#302 = CARTESIAN_POINT ( 'NONE',  ( -6.578499999999999100, 8.056072898620507900E-016, -79.77027371789859000 ) ) ;
#303 = DIRECTION ( 'NONE',  ( 1.000000000000000000, 0.0000000000000000000, 0.0000000000000000000 ) ) ;
#304 = DIRECTION ( 'NONE',  ( -0.0000000000000000000, -0.0000000000000000000, 1.000000000000000000 ) ) ;
#305 = AXIS2_PLACEMENT_3D ( 'NONE', #205, #304, #303 ) ;
#306 = CIRCLE ( 'NONE', #305, 6.578499999999999100 ) ;
#307 = CIRCLE ( 'NONE', #209, 9.250000000000000000 ) ;
#308 = DIRECTION ( 'NONE',  ( 1.000000000000000000, 0.0000000000000000000, 0.0000000000000000000 ) ) ;
#309 = DIRECTION ( 'NONE',  ( 0.0000000000000000000, -0.0000000000000000000, 1.000000000000000000 ) ) ;
#310 = DIRECTION ( 'NONE',  ( 0.0000000000000000000, 0.0000000000000000000, -1.000000000000000000 ) ) ;
#311 = AXIS2_PLACEMENT_3D ( 'NONE', #318, #314, #323 ) ;
#312 = DIRECTION ( 'NONE',  ( 1.000000000000000000, 0.0000000000000000000, 0.0000000000000000000 ) ) ;
#313 = CONICAL_SURFACE ( 'NONE', #311, 6.578499999999999100, 0.9077747214735943900 ) ;
#314 = DIRECTION ( 'NONE',  ( 0.0000000000000000000, 0.0000000000000000000, -1.000000000000000000 ) ) ;
#315 = UNCERTAINTY_MEASURE_WITH_UNIT (LENGTH_MEASURE( 1.000000000000000100E-005 ), #342, 'distance_accuracy_value', 'NONE');
#316 =( NAMED_UNIT ( * ) SI_UNIT ( $, .STERADIAN. ) SOLID_ANGLE_UNIT ( ) );
#317 =( NAMED_UNIT ( * ) PLANE_ANGLE_UNIT ( ) SI_UNIT ( $, .RADIAN. ) );
#318 = CARTESIAN_POINT ( 'NONE',  ( 0.0000000000000000000, 0.0000000000000000000, -69.66850000000000900 ) ) ;
#319 = CARTESIAN_POINT ( 'NONE',  ( -5.722499999999985900, 0.0000000000000000000, -69.00000000000000000 ) ) ;
#320 = DIRECTION ( 'NONE',  ( 1.000000000000000000, 0.0000000000000000000, 0.0000000000000000000 ) ) ;
#321 = DIRECTION ( 'NONE',  ( -0.0000000000000000000, -0.0000000000000000000, 1.000000000000000000 ) ) ;
#322 = FACE_OUTER_BOUND ( 'NONE', #117, .T. ) ;
#323 = DIRECTION ( 'NONE',  ( -1.000000000000000000, 0.0000000000000000000, 0.0000000000000000000 ) ) ;
#324 = PERSON_AND_ORGANIZATION ( #351, #345 ) ;
#325 = PRODUCT ( '19-0408-72_outokumpu', '19-0408-72_outokumpu', '', ( #326 ) ) ;
#326 = MECHANICAL_CONTEXT ( 'NONE', #328, 'mechanical' ) ;
#327 = APPLICATION_PROTOCOL_DEFINITION ( 'international standard', 'config_control_design', 1994, #328 ) ;
#328 = APPLICATION_CONTEXT ( 'configuration controlled 3d designs of mechanical parts and assemblies' ) ;
#329 = CARTESIAN_POINT ( 'NONE',  ( 6.578499999999999100, 0.0000000000000000000, -69.66850000000000900 ) ) ;
#330 =( GEOMETRIC_REPRESENTATION_CONTEXT ( 3 ) GLOBAL_UNCERTAINTY_ASSIGNED_CONTEXT ( ( #315 ) ) GLOBAL_UNIT_ASSIGNED_CONTEXT ( ( #342, #317, #316 ) ) REPRESENTATION_CONTEXT ( 'NONE', 'WORKASPACE' ) );
#331 = AXIS2_PLACEMENT_3D ( 'NONE', #333, #321, #320 ) ;
#332 = CIRCLE ( 'NONE', #331, 6.808226282101427000 ) ;
#333 = CARTESIAN_POINT ( 'NONE',  ( 0.0000000000000000000, 0.0000000000000000000, -80.00000000000000000 ) ) ;
#334 = CARTESIAN_POINT ( 'NONE',  ( 0.0000000000000000000, 0.0000000000000000000, 0.0000000000000000000 ) ) ;
#335 = CARTESIAN_POINT ( 'NONE',  ( 0.0000000000000000000, 0.0000000000000000000, -80.00000000000000000 ) ) ;
#336 = CONICAL_SURFACE ( 'NONE', #341, 6.808226282101427000, 0.7853981633974841400 ) ;
#337 = DIRECTION ( 'NONE',  ( 0.0000000000000000000, 0.0000000000000000000, 1.000000000000000000 ) ) ;
#338 = AXIS2_PLACEMENT_3D ( 'NONE', #334, #337, #312 ) ;
#339 = ADVANCED_BREP_SHAPE_REPRESENTATION ( '19-0408-72_outokumpu', ( #41, #338 ), #330 ) ;
#340 = DIRECTION ( 'NONE',  ( -1.000000000000000000, 0.0000000000000000000, 0.0000000000000000000 ) ) ;
#341 = AXIS2_PLACEMENT_3D ( 'NONE', #335, #310, #340 ) ;
#342 =( LENGTH_UNIT ( ) NAMED_UNIT ( * ) SI_UNIT ( .MILLI., .METRE. ) );
#343 = APPROVAL_STATUS ( 'not_yet_approved' ) ;
#344 = PERSON_AND_ORGANIZATION_ROLE ( 'design_owner' ) ;
#345 = ORGANIZATION ( 'UNSPECIFIED', 'UNSPECIFIED', '' ) ;
#346 = PRODUCT_DEFINITION ( 'UNKNOWN', '', #380, #347 ) ;
#347 = DESIGN_CONTEXT ( 'detailed design', #349, 'design' ) ;
#348 = APPLICATION_PROTOCOL_DEFINITION ( 'international standard', 'config_control_design', 1994, #349 ) ;
#349 = APPLICATION_CONTEXT ( 'configuration controlled 3d designs of mechanical parts and assemblies' ) ;
#350 = PERSON_AND_ORGANIZATION ( #351, #345 ) ;
#351 = PERSON ( 'UNSPECIFIED', 'UNSPECIFIED', 'UNSPECIFIED', ('UNSPECIFIED'), ('UNSPECIFIED'), ('UNSPECIFIED') ) ;
#352 = CC_DESIGN_PERSON_AND_ORGANIZATION_ASSIGNMENT ( #350, #344, ( #325 ) ) ;
#353 = APPROVAL_ROLE ( '' ) ;
#354 = APPROVAL ( #343, 'UNSPECIFIED' ) ;
#355 = CALENDAR_DATE ( 2015, 11, 8 ) ;
#356 = LOCAL_TIME ( 11, 37, 4.000000000000000000, #359 ) ;
#357 = PERSON_AND_ORGANIZATION ( #351, #345 ) ;
#358 = CC_DESIGN_APPROVAL ( #354, ( #346 ) ) ;
#359 = COORDINATED_UNIVERSAL_TIME_OFFSET ( 1, 0, .AHEAD. ) ;
#360 = APPROVAL_PERSON_ORGANIZATION ( #324, #354, #353 ) ;
#361 = APPROVAL_DATE_TIME ( #362, #354 ) ;
#362 = DATE_AND_TIME ( #355, #356 ) ;
#363 = CC_DESIGN_PERSON_AND_ORGANIZATION_ASSIGNMENT ( #357, #364, ( #346 ) ) ;
#364 = PERSON_AND_ORGANIZATION_ROLE ( 'creator' ) ;
#365 = DATE_AND_TIME ( #366, #370 ) ;
#366 = CALENDAR_DATE ( 2015, 11, 8 ) ;
#367 = APPROVAL_ROLE ( '' ) ;
#368 = APPROVAL_STATUS ( 'not_yet_approved' ) ;
#369 = PERSON_AND_ORGANIZATION ( #351, #345 ) ;
#370 = LOCAL_TIME ( 11, 37, 4.000000000000000000, #371 ) ;
#371 = COORDINATED_UNIVERSAL_TIME_OFFSET ( 1, 0, .AHEAD. ) ;
#372 = APPROVAL_PERSON_ORGANIZATION ( #369, #373, #367 ) ;
#373 = APPROVAL ( #368, 'UNSPECIFIED' ) ;
#374 = LOCAL_TIME ( 11, 37, 4.000000000000000000, #375 ) ;
#375 = COORDINATED_UNIVERSAL_TIME_OFFSET ( 1, 0, .AHEAD. ) ;
#376 = DATE_AND_TIME ( #377, #374 ) ;
#377 = CALENDAR_DATE ( 2015, 11, 8 ) ;
#378 = CC_DESIGN_DATE_AND_TIME_ASSIGNMENT ( #376, #379, ( #346 ) ) ;
#379 = DATE_TIME_ROLE ( 'creation_date' ) ;
#380 = PRODUCT_DEFINITION_FORMATION_WITH_SPECIFIED_SOURCE ( 'ANY', '', #325, .NOT_KNOWN. ) ;
#381 = CC_DESIGN_APPROVAL ( #373, ( #380 ) ) ;
#382 = APPROVAL_DATE_TIME ( #365, #373 ) ;
#383 = PERSON_AND_ORGANIZATION_ROLE ( 'creator' ) ;
#384 = PERSON_AND_ORGANIZATION ( #351, #345 ) ;
#385 = CC_DESIGN_PERSON_AND_ORGANIZATION_ASSIGNMENT ( #391, #386, ( #392 ) ) ;
#386 = PERSON_AND_ORGANIZATION_ROLE ( 'classification_officer' ) ;
#387 = SECURITY_CLASSIFICATION_LEVEL ( 'unclassified' ) ;
#388 = CC_DESIGN_PERSON_AND_ORGANIZATION_ASSIGNMENT ( #390, #389, ( #380 ) ) ;
#389 = PERSON_AND_ORGANIZATION_ROLE ( 'design_supplier' ) ;
#390 = PERSON_AND_ORGANIZATION ( #351, #345 ) ;
#391 = PERSON_AND_ORGANIZATION ( #351, #345 ) ;
#392 = SECURITY_CLASSIFICATION ( '', '', #387 ) ;
#393 = LOCAL_TIME ( 11, 37, 4.000000000000000000, #394 ) ;
#394 = COORDINATED_UNIVERSAL_TIME_OFFSET ( 1, 0, .AHEAD. ) ;
#395 = CC_DESIGN_PERSON_AND_ORGANIZATION_ASSIGNMENT ( #384, #383, ( #380 ) ) ;
#396 = DATE_AND_TIME ( #397, #393 ) ;
#397 = CALENDAR_DATE ( 2015, 11, 8 ) ;
#398 = CC_DESIGN_DATE_AND_TIME_ASSIGNMENT ( #396, #399, ( #392 ) ) ;
#399 = DATE_TIME_ROLE ( 'classification_date' ) ;
#400 = APPROVAL_ROLE ( '' ) ;
#401 = APPROVAL ( #404, 'UNSPECIFIED' ) ;
#402 = COORDINATED_UNIVERSAL_TIME_OFFSET ( 1, 0, .AHEAD. ) ;
#403 = APPROVAL_PERSON_ORGANIZATION ( #405, #401, #400 ) ;
#404 = APPROVAL_STATUS ( 'not_yet_approved' ) ;
#405 = PERSON_AND_ORGANIZATION ( #351, #345 ) ;
#406 = CALENDAR_DATE ( 2015, 11, 8 ) ;
#407 = LOCAL_TIME ( 11, 37, 4.000000000000000000, #402 ) ;
#408 = APPROVAL_DATE_TIME ( #409, #401 ) ;
#409 = DATE_AND_TIME ( #406, #407 ) ;
#410 = PRODUCT_RELATED_PRODUCT_CATEGORY ( 'detail', '', ( #325 ) ) ;
#411 = PRODUCT_DEFINITION_SHAPE ( 'NONE', 'NONE',  #346 ) ;
#412 = SHAPE_DEFINITION_REPRESENTATION ( #411, #339 ) ;
#413 = CC_DESIGN_SECURITY_CLASSIFICATION ( #392, ( #380 ) ) ;
#414 = CC_DESIGN_APPROVAL ( #401, ( #392 ) ) ;
#415 = ORIENTED_EDGE ( 'NONE', *, *, #10, .T. ) ;
#416 = VERTEX_POINT ( 'NONE', #329 ) ;
#417 = EDGE_LOOP ( 'NONE', ( #28, #9, #5, #11 ) ) ;
#418 = VERTEX_POINT ( 'NONE', #319 ) ;
#419 = EDGE_CURVE ( 'NONE', #73, #40, #332, .T. ) ;
ENDSEC;
END-ISO-10303-21;
