ISO-10303-21;
HEADER;
FILE_DESCRIPTION (( 'STEP AP203' ),
    '1' );
FILE_NAME ('3D_M8012_DN65_17481140.STEP',
    '2024-09-03T14:09:32',
    ( '' ),
    ( '' ),
    'SwSTEP 2.0',
    'SolidWorks 2024',
    '' );
FILE_SCHEMA (( 'CONFIG_CONTROL_DESIGN' ));
ENDSEC;

DATA;
#1 = DIRECTION ( 'NONE',  ( 0.000000000000000000, 0.000000000000000000, 1.000000000000000000 ) ) ;
#2 = PRODUCT_DEFINITION_FORMATION_WITH_SPECIFIED_SOURCE ( 'ANY', '', #357, .NOT_KNOWN. ) ;
#3 = DIRECTION ( 'NONE',  ( -1.000000000000000000, 0.000000000000000000, 0.000000000000000000 ) ) ;
#4 = CARTESIAN_POINT ( 'NONE',  ( 4.930859162390413432E-34, 3.496835316262991711, 0.000000000000000000 ) ) ;
#5 = CARTESIAN_POINT ( 'NONE',  ( 9.619563289449023120E-16, 8.333182497846092218, 0.000000000000000000 ) ) ;
#6 = AXIS2_PLACEMENT_3D ( 'NONE', #343, #280, #313 ) ;
#7 = AXIS2_PLACEMENT_3D ( 'NONE', #73, #70, #285 ) ;
#8 = EDGE_CURVE ( 'NONE', #390, #180, #345, .T. ) ;
#9 = FACE_OUTER_BOUND ( 'NONE', #237, .T. ) ;
#10 = EDGE_LOOP ( 'NONE', ( #229, #177, #101 ) ) ;
#11 = DIRECTION ( 'NONE',  ( 4.596983092540343816E-18, 1.000000000000000000, -0.000000000000000000 ) ) ;
#12 = ORIENTED_EDGE ( 'NONE', *, *, #335, .T. ) ;
#13 = EDGE_CURVE ( 'NONE', #350, #196, #353, .T. ) ;
#14 = DIRECTION ( 'NONE',  ( 4.596983092540343816E-18, 1.000000000000000000, -0.000000000000000000 ) ) ;
#15 = APPROVAL_DATE_TIME ( #83, #329 ) ;
#16 = VERTEX_POINT ( 'NONE', #307 ) ;
#17 = EDGE_CURVE ( 'NONE', #45, #166, #184, .T. ) ;
#18 = COORDINATED_UNIVERSAL_TIME_OFFSET ( 1, 0, .AHEAD. ) ;
#19 = ORIENTED_EDGE ( 'NONE', *, *, #17, .F. ) ;
#20 = APPROVAL_STATUS ( 'not_yet_approved' ) ;
#21 = DIRECTION ( 'NONE',  ( 0.000000000000000000, 0.000000000000000000, 1.000000000000000000 ) ) ;
#22 = ADVANCED_FACE ( 'NONE', ( #214 ), #365, .T. ) ;
#23 = CIRCLE ( 'NONE', #239, 31.36734693877556879 ) ;
#24 = CARTESIAN_POINT ( 'NONE',  ( 9.397237227215104992E-16, 3.496835316262991711, 0.000000000000000000 ) ) ;
#25 = ADVANCED_FACE ( 'NONE', ( #77, #89 ), #243, .T. ) ;
#26 = DIRECTION ( 'NONE',  ( -1.000000000000000000, 0.000000000000000000, 0.000000000000000000 ) ) ;
#27 = PRODUCT_DEFINITION_SHAPE ( 'NONE', 'NONE',  #286 ) ;
#28 = CIRCLE ( 'NONE', #327, 3.999999999999989786 ) ;
#29 = DIRECTION ( 'NONE',  ( -0.000000000000000000, 0.000000000000000000, -1.000000000000000000 ) ) ;
#30 = DESIGN_CONTEXT ( 'detailed design', #282, 'design' ) ;
#31 = CARTESIAN_POINT ( 'NONE',  ( -32.99999999999997158, 2817.965330118411202, 0.000000000000000000 ) ) ;
#32 = DIRECTION ( 'NONE',  ( -1.000000000000000000, 4.596983092540343816E-18, 0.000000000000000000 ) ) ;
#33 = EDGE_LOOP ( 'NONE', ( #19, #264, #356, #370 ) ) ;
#34 = EDGE_CURVE ( 'NONE', #350, #55, #151, .T. ) ;
#35 = DIRECTION ( 'NONE',  ( 1.000000000000000000, 0.000000000000000000, 1.224646799147353207E-16 ) ) ;
#36 = CARTESIAN_POINT ( 'NONE',  ( 34.99999999999999289, -1.608944082389119904E-16, 4.286263797015735707E-15 ) ) ;
#37 = ORIENTED_EDGE ( 'NONE', *, *, #34, .T. ) ;
#38 = EDGE_CURVE ( 'NONE', #175, #16, #162, .T. ) ;
#39 = CARTESIAN_POINT ( 'NONE',  ( 1.387778780781445676E-14, 2817.965330118411202, 0.000000000000000000 ) ) ;
#40 = COORDINATED_UNIVERSAL_TIME_OFFSET ( 1, 0, .AHEAD. ) ;
#41 = ORIENTED_EDGE ( 'NONE', *, *, #381, .F. ) ;
#42 = AXIS2_PLACEMENT_3D ( 'NONE', #56, #182, #312 ) ;
#43 = CIRCLE ( 'NONE', #363, 53.00000000000000000 ) ;
#44 = DATE_AND_TIME ( #208, #205 ) ;
#45 = VERTEX_POINT ( 'NONE', #362 ) ;
#46 = DATE_AND_TIME ( #85, #402 ) ;
#47 = ORIENTED_EDGE ( 'NONE', *, *, #341, .F. ) ;
#48 = APPROVAL ( #20, 'UNSPECIFIED' ) ;
#49 = SHAPE_DEFINITION_REPRESENTATION ( #27, #122 ) ;
#50 = DIRECTION ( 'NONE',  ( -1.000000000000000000, 0.000000000000000000, 0.000000000000000000 ) ) ;
#51 = CIRCLE ( 'NONE', #6, 3.999999999999989786 ) ;
#52 = CC_DESIGN_APPROVAL ( #108, ( #157 ) ) ;
#53 = MECHANICAL_CONTEXT ( 'NONE', #69, 'mechanical' ) ;
#54 = DIRECTION ( 'NONE',  ( -1.000000000000000000, 0.000000000000000000, 0.000000000000000000 ) ) ;
#55 = VERTEX_POINT ( 'NONE', #379 ) ;
#56 = CARTESIAN_POINT ( 'NONE',  ( 6.735557395310442615E-15, -36.00000000000000711, 0.000000000000000000 ) ) ;
#57 = AXIS2_PLACEMENT_3D ( 'NONE', #411, #63, #281 ) ;
#58 = CIRCLE ( 'NONE', #190, 32.99999999999998579 ) ;
#59 = FACE_OUTER_BOUND ( 'NONE', #398, .T. ) ;
#60 = ADVANCED_FACE ( 'NONE', ( #253 ), #219, .F. ) ;
#61 = DIRECTION ( 'NONE',  ( -1.000000000000000000, 0.000000000000000000, 0.000000000000000000 ) ) ;
#62 = FACE_OUTER_BOUND ( 'NONE', #352, .T. ) ;
#63 = DIRECTION ( 'NONE',  ( 4.596983092540343816E-18, 1.000000000000000000, -0.000000000000000000 ) ) ;
#64 = TOROIDAL_SURFACE ( 'NONE', #137, 28.99999999999999645, 5.999999999999992895 ) ;
#65 = CYLINDRICAL_SURFACE ( 'NONE', #203, 32.99999999999998579 ) ;
#66 = ORIENTED_EDGE ( 'NONE', *, *, #304, .F. ) ;
#67 = CARTESIAN_POINT ( 'NONE',  ( 6.735557395310442615E-15, -36.00000000000000711, 0.000000000000000000 ) ) ;
#68 = ORIENTED_EDGE ( 'NONE', *, *, #311, .F. ) ;
#69 = APPLICATION_CONTEXT ( 'configuration controlled 3d designs of mechanical parts and assemblies' ) ;
#70 = DIRECTION ( 'NONE',  ( 4.596983092540343816E-18, 1.000000000000000000, -0.000000000000000000 ) ) ;
#71 = VECTOR ( 'NONE', #346, 1000.000000000000000 ) ;
#72 = ORIENTED_EDGE ( 'NONE', *, *, #141, .F. ) ;
#73 = CARTESIAN_POINT ( 'NONE',  ( 0.000000000000000000, 3.496835316262991711, 0.000000000000000000 ) ) ;
#74 = DIRECTION ( 'NONE',  ( -1.000000000000000000, 4.596983092540344586E-18, 0.000000000000000000 ) ) ;
#75 = ORIENTED_EDGE ( 'NONE', *, *, #319, .T. ) ;
#76 = DIRECTION ( 'NONE',  ( 1.000000000000000000, 0.000000000000000000, 0.000000000000000000 ) ) ;
#77 = FACE_BOUND ( 'NONE', #296, .T. ) ;
#78 = AXIS2_PLACEMENT_3D ( 'NONE', #278, #1, #3 ) ;
#79 = ORGANIZATION ( 'UNSPECIFIED', 'UNSPECIFIED', '' ) ;
#80 = CALENDAR_DATE ( 2024, 3, 9 ) ;
#81 = ADVANCED_FACE ( 'NONE', ( #250 ), #230, .F. ) ;
#82 = CARTESIAN_POINT ( 'NONE',  ( 28.99999999999999645, 3.496835316262991711, 3.551475717527324030E-15 ) ) ;
#83 = DATE_AND_TIME ( #176, #92 ) ;
#84 = ORIENTED_EDGE ( 'NONE', *, *, #242, .T. ) ;
#85 = CALENDAR_DATE ( 2024, 3, 9 ) ;
#86 = DIRECTION ( 'NONE',  ( 1.000000000000000000, -4.596983092540343816E-18, 0.000000000000000000 ) ) ;
#87 = VECTOR ( 'NONE', #222, 1000.000000000000000 ) ;
#88 = AXIS2_PLACEMENT_3D ( 'NONE', #256, #232, #389 ) ;
#89 = FACE_OUTER_BOUND ( 'NONE', #178, .T. ) ;
#90 = CARTESIAN_POINT ( 'NONE',  ( 1.387778780781445676E-14, 2817.965330118411202, 0.000000000000000000 ) ) ;
#91 = EDGE_CURVE ( 'NONE', #246, #350, #93, .T. ) ;
#92 = LOCAL_TIME ( 16, 9, 32.00000000000000000, #404 ) ;
#93 = LINE ( 'NONE', #126, #87 ) ;
#94 = PRODUCT_RELATED_PRODUCT_CATEGORY ( 'detail', '', ( #357 ) ) ;
#95 = DIRECTION ( 'NONE',  ( -1.000000000000000000, 0.000000000000000000, 0.000000000000000000 ) ) ;
#96 = DIRECTION ( 'NONE',  ( 4.596983092540343816E-18, 1.000000000000000000, -0.000000000000000000 ) ) ;
#97 = DIRECTION ( 'NONE',  ( 1.000000000000000000, 0.000000000000000000, 1.224646799147353207E-16 ) ) ;
#98 = DIRECTION ( 'NONE',  ( -1.000000000000000000, 0.000000000000000000, 0.000000000000000000 ) ) ;
#99 = VERTEX_POINT ( 'NONE', #339 ) ;
#100 = LINE ( 'NONE', #198, #71 ) ;
#101 = ORIENTED_EDGE ( 'NONE', *, *, #141, .T. ) ;
#102 = DIRECTION ( 'NONE',  ( -1.000000000000000000, 0.000000000000000000, 0.000000000000000000 ) ) ;
#103 = ORIENTED_EDGE ( 'NONE', *, *, #319, .F. ) ;
#104 = CARTESIAN_POINT ( 'NONE',  ( 9.619563289449023120E-16, 8.333182497846092218, 0.000000000000000000 ) ) ;
#105 = ORIENTED_EDGE ( 'NONE', *, *, #315, .F. ) ;
#106 = PERSON_AND_ORGANIZATION ( #322, #79 ) ;
#107 = EDGE_LOOP ( 'NONE', ( #103, #143, #293, #210 ) ) ;
#108 = APPROVAL ( #300, 'UNSPECIFIED' ) ;
#109 = ORIENTED_EDGE ( 'NONE', *, *, #13, .F. ) ;
#110 = AXIS2_PLACEMENT_3D ( 'NONE', #284, #96, #344 ) ;
#111 = CIRCLE ( 'NONE', #373, 34.99999999999999289 ) ;
#112 = DATE_AND_TIME ( #269, #199 ) ;
#113 = ORIENTED_EDGE ( 'NONE', *, *, #17, .T. ) ;
#114 =( LENGTH_UNIT ( ) NAMED_UNIT ( * ) SI_UNIT ( .MILLI., .METRE. ) );
#115 = ORIENTED_EDGE ( 'NONE', *, *, #315, .T. ) ;
#116 = PERSON_AND_ORGANIZATION_ROLE ( 'design_supplier' ) ;
#117 = EDGE_LOOP ( 'NONE', ( #138, #41, #388, #12 ) ) ;
#118 = CIRCLE ( 'NONE', #136, 5.999999999999991118 ) ;
#119 = CARTESIAN_POINT ( 'NONE',  ( 32.55102040816326081, 8.333182497846092218, 4.136307046099732938E-15 ) ) ;
#120 = EDGE_CURVE ( 'NONE', #246, #99, #309, .T. ) ;
#121 = DIRECTION ( 'NONE',  ( -1.000000000000000000, 0.000000000000000000, 0.000000000000000000 ) ) ;
#122 = ADVANCED_BREP_SHAPE_REPRESENTATION ( '3D_M8012_DN65_17481140', ( #215, #233 ), #165 ) ;
#123 = ADVANCED_FACE ( 'NONE', ( #225 ), #409, .F. ) ;
#124 = CARTESIAN_POINT ( 'NONE',  ( 6.931945416950416184E-15, 6.721066770651762390, 0.000000000000000000 ) ) ;
#125 = AXIS2_PLACEMENT_3D ( 'NONE', #181, #399, #209 ) ;
#126 = CARTESIAN_POINT ( 'NONE',  ( 35.00000000000000000, 2817.965330118411202, 4.286263797015734919E-15 ) ) ;
#127 = DIRECTION ( 'NONE',  ( 0.000000000000000000, 0.000000000000000000, 1.000000000000000000 ) ) ;
#128 = DIRECTION ( 'NONE',  ( 4.596983092540343816E-18, 1.000000000000000000, -0.000000000000000000 ) ) ;
#129 = CARTESIAN_POINT ( 'NONE',  ( -31.36734693877556168, 6.721066770651762390, 0.000000000000000000 ) ) ;
#130 = EDGE_CURVE ( 'NONE', #45, #332, #51, .T. ) ;
#131 = CARTESIAN_POINT ( 'NONE',  ( 0.000000000000000000, 3.496835316262991711, 0.000000000000000000 ) ) ;
#132 = ORIENTED_EDGE ( 'NONE', *, *, #341, .T. ) ;
#133 = DIRECTION ( 'NONE',  ( -1.000000000000000000, 0.000000000000000000, 0.000000000000000000 ) ) ;
#134 = ORIENTED_EDGE ( 'NONE', *, *, #154, .F. ) ;
#135 = CARTESIAN_POINT ( 'NONE',  ( 6.735557395310442615E-15, -36.00000000000000711, 0.000000000000000000 ) ) ;
#136 = AXIS2_PLACEMENT_3D ( 'NONE', #153, #29, #26 ) ;
#137 = AXIS2_PLACEMENT_3D ( 'NONE', #131, #193, #32 ) ;
#138 = ORIENTED_EDGE ( 'NONE', *, *, #130, .F. ) ;
#139 = DATE_TIME_ROLE ( 'classification_date' ) ;
#140 = DIRECTION ( 'NONE',  ( -0.000000000000000000, 0.000000000000000000, -1.000000000000000000 ) ) ;
#141 = EDGE_CURVE ( 'NONE', #407, #234, #384, .T. ) ;
#142 = PERSON_AND_ORGANIZATION_ROLE ( 'creator' ) ;
#143 = ORIENTED_EDGE ( 'NONE', *, *, #367, .F. ) ;
#144 = ORIENTED_EDGE ( 'NONE', *, *, #265, .T. ) ;
#145 = EDGE_CURVE ( 'NONE', #332, #407, #23, .T. ) ;
#146 = DATE_AND_TIME ( #80, #186 ) ;
#147 = EDGE_LOOP ( 'NONE', ( #290, #173, #148, #272 ) ) ;
#148 = ORIENTED_EDGE ( 'NONE', *, *, #304, .T. ) ;
#149 = CARTESIAN_POINT ( 'NONE',  ( -32.55102040816326081, 8.333182497846092218, 0.000000000000000000 ) ) ;
#150 = EDGE_CURVE ( 'NONE', #55, #350, #211, .T. ) ;
#151 = CIRCLE ( 'NONE', #283, 34.99999999999999289 ) ;
#152 = CC_DESIGN_APPROVAL ( #329, ( #2 ) ) ;
#153 = CARTESIAN_POINT ( 'NONE',  ( -28.99999999999999645, 3.496835316262991711, 0.000000000000000000 ) ) ;
#154 = EDGE_CURVE ( 'NONE', #55, #175, #118, .T. ) ;
#155 = CARTESIAN_POINT ( 'NONE',  ( -28.99999999999999645, 3.496835316262991711, 0.000000000000000000 ) ) ;
#156 = DIRECTION ( 'NONE',  ( -1.000000000000000000, 0.000000000000000000, 0.000000000000000000 ) ) ;
#157 = SECURITY_CLASSIFICATION ( '', '', #266 ) ;
#158 = ADVANCED_FACE ( 'NONE', ( #62 ), #400, .T. ) ;
#159 = DIRECTION ( 'NONE',  ( -1.000000000000000000, 0.000000000000000000, 0.000000000000000000 ) ) ;
#160 = DIRECTION ( 'NONE',  ( 4.596983092540343816E-18, 1.000000000000000000, -0.000000000000000000 ) ) ;
#161 = DIRECTION ( 'NONE',  ( -1.000000000000000000, 0.000000000000000000, 0.000000000000000000 ) ) ;
#162 = CIRCLE ( 'NONE', #408, 55.00000000000000000 ) ;
#163 = LINE ( 'NONE', #31, #394 ) ;
#164 = CIRCLE ( 'NONE', #270, 32.99999999999998579 ) ;
#165 =( GEOMETRIC_REPRESENTATION_CONTEXT ( 3 ) GLOBAL_UNCERTAINTY_ASSIGNED_CONTEXT ( ( #191 ) ) GLOBAL_UNIT_ASSIGNED_CONTEXT ( ( #114, #245, #236 ) ) REPRESENTATION_CONTEXT ( 'NONE', 'WORKASPACE' ) );
#166 = VERTEX_POINT ( 'NONE', #192 ) ;
#167 = CC_DESIGN_PERSON_AND_ORGANIZATION_ASSIGNMENT ( #171, #142, ( #2 ) ) ;
#168 = DIRECTION ( 'NONE',  ( -1.000000000000000000, 0.000000000000000000, 0.000000000000000000 ) ) ;
#169 = ORIENTED_EDGE ( 'NONE', *, *, #8, .T. ) ;
#170 = DIRECTION ( 'NONE',  ( 4.596983092540343816E-18, 1.000000000000000000, -0.000000000000000000 ) ) ;
#171 = PERSON_AND_ORGANIZATION ( #322, #79 ) ;
#172 = VECTOR ( 'NONE', #391, 1000.000000000000000 ) ;
#173 = ORIENTED_EDGE ( 'NONE', *, *, #120, .T. ) ;
#174 = PERSON_AND_ORGANIZATION_ROLE ( 'creator' ) ;
#175 = VERTEX_POINT ( 'NONE', #149 ) ;
#176 = CALENDAR_DATE ( 2024, 3, 9 ) ;
#177 = ORIENTED_EDGE ( 'NONE', *, *, #335, .F. ) ;
#178 = EDGE_LOOP ( 'NONE', ( #47, #194 ) ) ;
#179 = PERSON_AND_ORGANIZATION_ROLE ( 'design_owner' ) ;
#180 = VERTEX_POINT ( 'NONE', #218 ) ;
#181 = CARTESIAN_POINT ( 'NONE',  ( 9.236488298952508525E-16, 0.000000000000000000, 0.000000000000000000 ) ) ;
#182 = DIRECTION ( 'NONE',  ( -0.000000000000000000, 0.000000000000000000, -1.000000000000000000 ) ) ;
#183 = CC_DESIGN_DATE_AND_TIME_ASSIGNMENT ( #46, #139, ( #157 ) ) ;
#184 = CIRCLE ( 'NONE', #294, 32.99999999999998579 ) ;
#185 = CIRCLE ( 'NONE', #212, 55.00000000000000000 ) ;
#186 = LOCAL_TIME ( 16, 9, 32.00000000000000000, #40 ) ;
#187 = CARTESIAN_POINT ( 'NONE',  ( 6.735557395310442615E-15, -36.00000000000000711, 0.000000000000000000 ) ) ;
#188 = FACE_OUTER_BOUND ( 'NONE', #267, .T. ) ;
#189 = DIRECTION ( 'NONE',  ( 4.596983092540343816E-18, 1.000000000000000000, -0.000000000000000000 ) ) ;
#190 = AXIS2_PLACEMENT_3D ( 'NONE', #254, #287, #395 ) ;
#191 = UNCERTAINTY_MEASURE_WITH_UNIT (LENGTH_MEASURE( 1.000000000000000082E-05 ), #114, 'distance_accuracy_value', 'NONE');
#192 = CARTESIAN_POINT ( 'NONE',  ( -32.99999999999998579, 3.496835316262991711, 0.000000000000000000 ) ) ;
#193 = DIRECTION ( 'NONE',  ( 4.596983092540343816E-18, 1.000000000000000000, -0.000000000000000000 ) ) ;
#194 = ORIENTED_EDGE ( 'NONE', *, *, #120, .F. ) ;
#195 = CARTESIAN_POINT ( 'NONE',  ( 31.36734693877557589, 6.721066770651762390, 3.941363269908933913E-15 ) ) ;
#196 = VERTEX_POINT ( 'NONE', #119 ) ;
#197 = ADVANCED_FACE ( 'NONE', ( #188 ), #375, .F. ) ;
#198 = CARTESIAN_POINT ( 'NONE',  ( 33.00000000000000000, 2817.965330118411202, 4.041334437186264622E-15 ) ) ;
#199 = LOCAL_TIME ( 16, 9, 32.00000000000000000, #18 ) ;
#200 = LINE ( 'NONE', #257, #172 ) ;
#201 = ORIENTED_EDGE ( 'NONE', *, *, #91, .T. ) ;
#202 = APPLICATION_PROTOCOL_DEFINITION ( 'international standard', 'config_control_design', 1994, #69 ) ;
#203 = AXIS2_PLACEMENT_3D ( 'NONE', #39, #226, #133 ) ;
#204 = DIRECTION ( 'NONE',  ( -1.000000000000000000, 0.000000000000000000, 0.000000000000000000 ) ) ;
#205 = LOCAL_TIME ( 16, 9, 32.00000000000000000, #328 ) ;
#206 = EDGE_CURVE ( 'NONE', #166, #407, #28, .T. ) ;
#207 = ORIENTED_EDGE ( 'NONE', *, *, #8, .F. ) ;
#208 = CALENDAR_DATE ( 2024, 3, 9 ) ;
#209 = DIRECTION ( 'NONE',  ( 1.000000000000000000, -4.596983092540343816E-18, 0.000000000000000000 ) ) ;
#210 = ORIENTED_EDGE ( 'NONE', *, *, #381, .T. ) ;
#211 = CIRCLE ( 'NONE', #288, 34.99999999999999289 ) ;
#212 = AXIS2_PLACEMENT_3D ( 'NONE', #67, #317, #97 ) ;
#213 = APPROVAL_PERSON_ORGANIZATION ( #305, #48, #275 ) ;
#214 = FACE_OUTER_BOUND ( 'NONE', #306, .T. ) ;
#215 = MANIFOLD_SOLID_BREP ( 'Wandung1', #393 ) ;
#216 = CC_DESIGN_PERSON_AND_ORGANIZATION_ASSIGNMENT ( #372, #116, ( #2 ) ) ;
#217 = CC_DESIGN_PERSON_AND_ORGANIZATION_ASSIGNMENT ( #106, #174, ( #286 ) ) ;
#218 = CARTESIAN_POINT ( 'NONE',  ( -32.99999999999998579, 1.517004420538312905E-16, 0.000000000000000000 ) ) ;
#219 = SPHERICAL_SURFACE ( 'NONE', #78, 53.00000000000000000 ) ;
#220 = AXIS2_PLACEMENT_3D ( 'NONE', #82, #274, #240 ) ;
#221 = AXIS2_PLACEMENT_3D ( 'NONE', #380, #127, #95 ) ;
#222 = DIRECTION ( 'NONE',  ( 4.596983092540343816E-18, 1.000000000000000000, -0.000000000000000000 ) ) ;
#223 = ADVANCED_FACE ( 'NONE', ( #59 ), #377, .T. ) ;
#224 = DIRECTION ( 'NONE',  ( -1.000000000000000000, 0.000000000000000000, 0.000000000000000000 ) ) ;
#225 = FACE_OUTER_BOUND ( 'NONE', #334, .T. ) ;
#226 = DIRECTION ( 'NONE',  ( 4.596983092540343816E-18, 1.000000000000000000, -0.000000000000000000 ) ) ;
#227 = ORIENTED_EDGE ( 'NONE', *, *, #367, .T. ) ;
#228 = CARTESIAN_POINT ( 'NONE',  ( 9.236488298952508525E-16, 0.000000000000000000, 0.000000000000000000 ) ) ;
#229 = ORIENTED_EDGE ( 'NONE', *, *, #242, .F. ) ;
#230 = TOROIDAL_SURFACE ( 'NONE', #371, 28.99999999999999645, 3.999999999999993339 ) ;
#231 = AXIS2_PLACEMENT_3D ( 'NONE', #187, #310, #61 ) ;
#232 = DIRECTION ( 'NONE',  ( 4.596983092540343816E-18, 1.000000000000000000, -0.000000000000000000 ) ) ;
#233 = AXIS2_PLACEMENT_3D ( 'NONE', #302, #360, #76 ) ;
#234 = VERTEX_POINT ( 'NONE', #342 ) ;
#235 = FACE_OUTER_BOUND ( 'NONE', #107, .T. ) ;
#236 =( NAMED_UNIT ( * ) SI_UNIT ( $, .STERADIAN. ) SOLID_ANGLE_UNIT ( ) );
#237 = EDGE_LOOP ( 'NONE', ( #109, #37, #326, #403 ) ) ;
#238 = ADVANCED_FACE ( 'NONE', ( #358 ), #318, .T. ) ;
#239 = AXIS2_PLACEMENT_3D ( 'NONE', #124, #189, #159 ) ;
#240 = DIRECTION ( 'NONE',  ( 1.000000000000000000, 0.000000000000000000, 1.224646799147353700E-16 ) ) ;
#241 = APPROVAL_DATE_TIME ( #112, #108 ) ;
#242 = EDGE_CURVE ( 'NONE', #332, #234, #43, .T. ) ;
#243 = PLANE ( 'NONE',  #378 ) ;
#244 = CARTESIAN_POINT ( 'NONE',  ( 6.735557395310442615E-15, -36.00000000000000711, 0.000000000000000000 ) ) ;
#245 =( NAMED_UNIT ( * ) PLANE_ANGLE_UNIT ( ) SI_UNIT ( $, .RADIAN. ) );
#246 = VERTEX_POINT ( 'NONE', #36 ) ;
#247 = AXIS2_PLACEMENT_3D ( 'NONE', #5, #349, #168 ) ;
#248 = CARTESIAN_POINT ( 'NONE',  ( 0.000000000000000000, 3.496835316262991711, 0.000000000000000000 ) ) ;
#249 = DIRECTION ( 'NONE',  ( 4.596983092540343816E-18, 1.000000000000000000, -0.000000000000000000 ) ) ;
#250 = FACE_OUTER_BOUND ( 'NONE', #33, .T. ) ;
#251 = APPROVAL_PERSON_ORGANIZATION ( #263, #108, #397 ) ;
#252 = DIRECTION ( 'NONE',  ( 4.596983092540343816E-18, 1.000000000000000000, -0.000000000000000000 ) ) ;
#253 = FACE_OUTER_BOUND ( 'NONE', #10, .T. ) ;
#254 = CARTESIAN_POINT ( 'NONE',  ( 9.236488298952508525E-16, 0.000000000000000000, 0.000000000000000000 ) ) ;
#255 = CIRCLE ( 'NONE', #247, 32.55102040816326081 ) ;
#256 = CARTESIAN_POINT ( 'NONE',  ( 6.931945416950416184E-15, 6.721066770651762390, 0.000000000000000000 ) ) ;
#257 = CARTESIAN_POINT ( 'NONE',  ( -34.99999999999997868, 2817.965330118411202, 0.000000000000000000 ) ) ;
#258 = ORIENTED_EDGE ( 'NONE', *, *, #376, .F. ) ;
#259 = CIRCLE ( 'NONE', #88, 31.36734693877556879 ) ;
#260 = FACE_OUTER_BOUND ( 'NONE', #359, .T. ) ;
#261 = CC_DESIGN_SECURITY_CLASSIFICATION ( #157, ( #2 ) ) ;
#262 = ORIENTED_EDGE ( 'NONE', *, *, #376, .T. ) ;
#263 = PERSON_AND_ORGANIZATION ( #322, #79 ) ;
#264 = ORIENTED_EDGE ( 'NONE', *, *, #130, .T. ) ;
#265 = EDGE_CURVE ( 'NONE', #196, #175, #271, .T. ) ;
#266 = SECURITY_CLASSIFICATION_LEVEL ( 'unclassified' ) ;
#267 = EDGE_LOOP ( 'NONE', ( #207, #75, #113, #68 ) ) ;
#268 = CC_DESIGN_DATE_AND_TIME_ASSIGNMENT ( #146, #333, ( #286 ) ) ;
#269 = CALENDAR_DATE ( 2024, 3, 9 ) ;
#270 = AXIS2_PLACEMENT_3D ( 'NONE', #4, #323, #291 ) ;
#271 = CIRCLE ( 'NONE', #289, 32.55102040816326081 ) ;
#272 = ORIENTED_EDGE ( 'NONE', *, *, #34, .F. ) ;
#273 = PERSON_AND_ORGANIZATION ( #322, #79 ) ;
#274 = DIRECTION ( 'NONE',  ( -1.224646799147353207E-16, 5.629680630014033300E-34, 1.000000000000000000 ) ) ;
#275 = APPROVAL_ROLE ( '' ) ;
#276 = ORIENTED_EDGE ( 'NONE', *, *, #150, .T. ) ;
#277 = ADVANCED_FACE ( 'NONE', ( #9 ), #64, .T. ) ;
#278 = CARTESIAN_POINT ( 'NONE',  ( 6.735557395310442615E-15, -36.00000000000000711, 0.000000000000000000 ) ) ;
#279 = AXIS2_PLACEMENT_3D ( 'NONE', #244, #21, #50 ) ;
#280 = DIRECTION ( 'NONE',  ( -1.224646799147353207E-16, 5.629680630014033300E-34, 1.000000000000000000 ) ) ;
#281 = DIRECTION ( 'NONE',  ( -1.000000000000000000, 4.596983092540344586E-18, 0.000000000000000000 ) ) ;
#282 = APPLICATION_CONTEXT ( 'configuration controlled 3d designs of mechanical parts and assemblies' ) ;
#283 = AXIS2_PLACEMENT_3D ( 'NONE', #368, #336, #204 ) ;
#284 = CARTESIAN_POINT ( 'NONE',  ( 0.000000000000000000, 3.496835316262991711, 0.000000000000000000 ) ) ;
#285 = DIRECTION ( 'NONE',  ( -1.000000000000000000, 4.596983092540343816E-18, 0.000000000000000000 ) ) ;
#286 = PRODUCT_DEFINITION ( 'UNKNOWN', '', #2, #30 ) ;
#287 = DIRECTION ( 'NONE',  ( 4.596983092540343816E-18, 1.000000000000000000, -0.000000000000000000 ) ) ;
#288 = AXIS2_PLACEMENT_3D ( 'NONE', #24, #249, #224 ) ;
#289 = AXIS2_PLACEMENT_3D ( 'NONE', #104, #160, #102 ) ;
#290 = ORIENTED_EDGE ( 'NONE', *, *, #91, .F. ) ;
#291 = DIRECTION ( 'NONE',  ( -1.000000000000000000, 0.000000000000000000, 0.000000000000000000 ) ) ;
#292 = CARTESIAN_POINT ( 'NONE',  ( 1.387778780781445676E-14, 2817.965330118411202, 0.000000000000000000 ) ) ;
#293 = ORIENTED_EDGE ( 'NONE', *, *, #311, .T. ) ;
#294 = AXIS2_PLACEMENT_3D ( 'NONE', #405, #374, #303 ) ;
#295 = COORDINATED_UNIVERSAL_TIME_OFFSET ( 1, 0, .AHEAD. ) ;
#296 = EDGE_LOOP ( 'NONE', ( #227, #169 ) ) ;
#297 = APPROVAL_ROLE ( '' ) ;
#298 = ORIENTED_EDGE ( 'NONE', *, *, #150, .F. ) ;
#299 = ADVANCED_FACE ( 'NONE', ( #235 ), #65, .F. ) ;
#300 = APPROVAL_STATUS ( 'not_yet_approved' ) ;
#301 = CARTESIAN_POINT ( 'NONE',  ( -3.698144371792811998E-34, -8.044720411945600754E-17, 0.000000000000000000 ) ) ;
#302 = CARTESIAN_POINT ( 'NONE',  ( 0.000000000000000000, 0.000000000000000000, 0.000000000000000000 ) ) ;
#303 = DIRECTION ( 'NONE',  ( -1.000000000000000000, 0.000000000000000000, 0.000000000000000000 ) ) ;
#304 = EDGE_CURVE ( 'NONE', #99, #55, #200, .T. ) ;
#305 = PERSON_AND_ORGANIZATION ( #322, #79 ) ;
#306 = EDGE_LOOP ( 'NONE', ( #105, #144, #392 ) ) ;
#307 = CARTESIAN_POINT ( 'NONE',  ( 3.620612767744939903E-15, 18.99999999999999645, 0.000000000000000000 ) ) ;
#308 = DIRECTION ( 'NONE',  ( -0.000000000000000000, 0.000000000000000000, -1.000000000000000000 ) ) ;
#309 = CIRCLE ( 'NONE', #57, 34.99999999999999289 ) ;
#310 = DIRECTION ( 'NONE',  ( 0.000000000000000000, 0.000000000000000000, 1.000000000000000000 ) ) ;
#311 = EDGE_CURVE ( 'NONE', #180, #166, #163, .T. ) ;
#312 = DIRECTION ( 'NONE',  ( -1.000000000000000000, 0.000000000000000000, 0.000000000000000000 ) ) ;
#313 = DIRECTION ( 'NONE',  ( 1.000000000000000000, 0.000000000000000000, 1.224646799147353700E-16 ) ) ;
#314 = AXIS2_PLACEMENT_3D ( 'NONE', #316, #14, #98 ) ;
#315 = EDGE_CURVE ( 'NONE', #196, #16, #185, .T. ) ;
#316 = CARTESIAN_POINT ( 'NONE',  ( 1.387778780781445676E-14, 2817.965330118411202, 0.000000000000000000 ) ) ;
#317 = DIRECTION ( 'NONE',  ( -1.224646799147353207E-16, 5.629680630014033300E-34, 1.000000000000000000 ) ) ;
#318 = CYLINDRICAL_SURFACE ( 'NONE', #314, 34.99999999999999289 ) ;
#319 = EDGE_CURVE ( 'NONE', #390, #45, #100, .T. ) ;
#320 = ORIENTED_EDGE ( 'NONE', *, *, #38, .F. ) ;
#321 = TOROIDAL_SURFACE ( 'NONE', #7, 28.99999999999999645, 3.999999999999993339 ) ;
#322 = PERSON ( 'UNSPECIFIED', 'UNSPECIFIED', 'UNSPECIFIED', ('UNSPECIFIED'), ('UNSPECIFIED'), ('UNSPECIFIED') ) ;
#323 = DIRECTION ( 'NONE',  ( 4.596983092540343816E-18, 1.000000000000000000, -0.000000000000000000 ) ) ;
#324 = CARTESIAN_POINT ( 'NONE',  ( 34.99999999999999289, 3.496835316262991711, 4.286263797015734919E-15 ) ) ;
#325 = PERSON_AND_ORGANIZATION ( #322, #79 ) ;
#326 = ORIENTED_EDGE ( 'NONE', *, *, #154, .T. ) ;
#327 = AXIS2_PLACEMENT_3D ( 'NONE', #155, #308, #121 ) ;
#328 = COORDINATED_UNIVERSAL_TIME_OFFSET ( 1, 0, .AHEAD. ) ;
#329 = APPROVAL ( #406, 'UNSPECIFIED' ) ;
#330 = DIRECTION ( 'NONE',  ( -4.596983092540343816E-18, -1.000000000000000000, 0.000000000000000000 ) ) ;
#331 = PERSON_AND_ORGANIZATION ( #322, #79 ) ;
#332 = VERTEX_POINT ( 'NONE', #195 ) ;
#333 = DATE_TIME_ROLE ( 'creation_date' ) ;
#334 = EDGE_LOOP ( 'NONE', ( #385, #84, #72 ) ) ;
#335 = EDGE_CURVE ( 'NONE', #407, #332, #259, .T. ) ;
#336 = DIRECTION ( 'NONE',  ( 4.596983092540343816E-18, 1.000000000000000000, -0.000000000000000000 ) ) ;
#337 = CARTESIAN_POINT ( 'NONE',  ( 6.735557395310442615E-15, -36.00000000000000711, 0.000000000000000000 ) ) ;
#338 = DIRECTION ( 'NONE',  ( 4.596983092540343816E-18, 1.000000000000000000, -0.000000000000000000 ) ) ;
#339 = CARTESIAN_POINT ( 'NONE',  ( -34.99999999999999289, 1.608944082389120151E-16, 0.000000000000000000 ) ) ;
#340 = AXIS2_PLACEMENT_3D ( 'NONE', #90, #338, #156 ) ;
#341 = EDGE_CURVE ( 'NONE', #99, #246, #111, .T. ) ;
#342 = CARTESIAN_POINT ( 'NONE',  ( 3.733883481474594820E-15, 16.99999999999999289, 0.000000000000000000 ) ) ;
#343 = CARTESIAN_POINT ( 'NONE',  ( 28.99999999999999645, 3.496835316262991711, 3.551475717527324030E-15 ) ) ;
#344 = DIRECTION ( 'NONE',  ( -1.000000000000000000, 4.596983092540343816E-18, 0.000000000000000000 ) ) ;
#345 = CIRCLE ( 'NONE', #125, 32.99999999999998579 ) ;
#346 = DIRECTION ( 'NONE',  ( 4.596983092540343816E-18, 1.000000000000000000, -0.000000000000000000 ) ) ;
#347 = ORIENTED_EDGE ( 'NONE', *, *, #13, .T. ) ;
#348 = ADVANCED_FACE ( 'NONE', ( #260 ), #355, .T. ) ;
#349 = DIRECTION ( 'NONE',  ( 4.596983092540343816E-18, 1.000000000000000000, -0.000000000000000000 ) ) ;
#350 = VERTEX_POINT ( 'NONE', #324 ) ;
#351 = DIRECTION ( 'NONE',  ( -1.224646799147353207E-16, 5.629680630014033300E-34, 1.000000000000000000 ) ) ;
#352 = EDGE_LOOP ( 'NONE', ( #276, #347, #258, #134 ) ) ;
#353 = CIRCLE ( 'NONE', #220, 5.999999999999991118 ) ;
#354 = CC_DESIGN_APPROVAL ( #48, ( #286 ) ) ;
#355 = CYLINDRICAL_SURFACE ( 'NONE', #386, 34.99999999999999289 ) ;
#356 = ORIENTED_EDGE ( 'NONE', *, *, #145, .T. ) ;
#357 = PRODUCT ( '3D_M8012_DN65_17481140', '3D_M8012_DN65_17481140', '', ( #53 ) ) ;
#358 = FACE_OUTER_BOUND ( 'NONE', #147, .T. ) ;
#359 = EDGE_LOOP ( 'NONE', ( #132, #201, #298, #66 ) ) ;
#360 = DIRECTION ( 'NONE',  ( 0.000000000000000000, 0.000000000000000000, 1.000000000000000000 ) ) ;
#361 = ADVANCED_FACE ( 'NONE', ( #387 ), #321, .F. ) ;
#362 = CARTESIAN_POINT ( 'NONE',  ( 32.99999999999998579, 3.496835316262991711, 4.041334437186264622E-15 ) ) ;
#363 = AXIS2_PLACEMENT_3D ( 'NONE', #135, #351, #35 ) ;
#364 = APPROVAL_PERSON_ORGANIZATION ( #273, #329, #297 ) ;
#365 = SPHERICAL_SURFACE ( 'NONE', #279, 55.00000000000000000 ) ;
#366 = APPLICATION_PROTOCOL_DEFINITION ( 'international standard', 'config_control_design', 1994, #282 ) ;
#367 = EDGE_CURVE ( 'NONE', #180, #390, #58, .T. ) ;
#368 = CARTESIAN_POINT ( 'NONE',  ( 9.397237227215104992E-16, 3.496835316262991711, 0.000000000000000000 ) ) ;
#369 = APPROVAL_DATE_TIME ( #44, #48 ) ;
#370 = ORIENTED_EDGE ( 'NONE', *, *, #206, .F. ) ;
#371 = AXIS2_PLACEMENT_3D ( 'NONE', #248, #252, #382 ) ;
#372 = PERSON_AND_ORGANIZATION ( #322, #79 ) ;
#373 = AXIS2_PLACEMENT_3D ( 'NONE', #228, #170, #74 ) ;
#374 = DIRECTION ( 'NONE',  ( 4.596983092540343816E-18, 1.000000000000000000, -0.000000000000000000 ) ) ;
#375 = CYLINDRICAL_SURFACE ( 'NONE', #340, 32.99999999999998579 ) ;
#376 = EDGE_CURVE ( 'NONE', #175, #196, #255, .T. ) ;
#377 = SPHERICAL_SURFACE ( 'NONE', #231, 55.00000000000000000 ) ;
#378 = AXIS2_PLACEMENT_3D ( 'NONE', #301, #330, #86 ) ;
#379 = CARTESIAN_POINT ( 'NONE',  ( -34.99999999999999289, 3.496835316262991711, 0.000000000000000000 ) ) ;
#380 = CARTESIAN_POINT ( 'NONE',  ( 6.735557395310442615E-15, -36.00000000000000711, 0.000000000000000000 ) ) ;
#381 = EDGE_CURVE ( 'NONE', #166, #45, #164, .T. ) ;
#382 = DIRECTION ( 'NONE',  ( -1.000000000000000000, 4.596983092540343816E-18, 0.000000000000000000 ) ) ;
#383 = CARTESIAN_POINT ( 'NONE',  ( 32.99999999999998579, -1.517004420538312905E-16, 4.041334437186264622E-15 ) ) ;
#384 = CIRCLE ( 'NONE', #42, 53.00000000000000000 ) ;
#385 = ORIENTED_EDGE ( 'NONE', *, *, #145, .F. ) ;
#386 = AXIS2_PLACEMENT_3D ( 'NONE', #292, #128, #161 ) ;
#387 = FACE_OUTER_BOUND ( 'NONE', #117, .T. ) ;
#388 = ORIENTED_EDGE ( 'NONE', *, *, #206, .T. ) ;
#389 = DIRECTION ( 'NONE',  ( -1.000000000000000000, 0.000000000000000000, 0.000000000000000000 ) ) ;
#390 = VERTEX_POINT ( 'NONE', #383 ) ;
#391 = DIRECTION ( 'NONE',  ( 4.596983092540343816E-18, 1.000000000000000000, -0.000000000000000000 ) ) ;
#392 = ORIENTED_EDGE ( 'NONE', *, *, #38, .T. ) ;
#393 = CLOSED_SHELL ( 'NONE', ( #123, #81, #197, #223, #158, #348, #25, #238, #277, #22, #299, #361, #60 ) ) ;
#394 = VECTOR ( 'NONE', #11, 1000.000000000000000 ) ;
#395 = DIRECTION ( 'NONE',  ( 1.000000000000000000, -4.596983092540343816E-18, 0.000000000000000000 ) ) ;
#396 = CC_DESIGN_PERSON_AND_ORGANIZATION_ASSIGNMENT ( #325, #179, ( #357 ) ) ;
#397 = APPROVAL_ROLE ( '' ) ;
#398 = EDGE_LOOP ( 'NONE', ( #262, #115, #320 ) ) ;
#399 = DIRECTION ( 'NONE',  ( 4.596983092540343816E-18, 1.000000000000000000, -0.000000000000000000 ) ) ;
#400 = TOROIDAL_SURFACE ( 'NONE', #110, 28.99999999999999645, 5.999999999999992895 ) ;
#401 = PERSON_AND_ORGANIZATION_ROLE ( 'classification_officer' ) ;
#402 = LOCAL_TIME ( 16, 9, 32.00000000000000000, #295 ) ;
#403 = ORIENTED_EDGE ( 'NONE', *, *, #265, .F. ) ;
#404 = COORDINATED_UNIVERSAL_TIME_OFFSET ( 1, 0, .AHEAD. ) ;
#405 = CARTESIAN_POINT ( 'NONE',  ( 4.930859162390413432E-34, 3.496835316262991711, 0.000000000000000000 ) ) ;
#406 = APPROVAL_STATUS ( 'not_yet_approved' ) ;
#407 = VERTEX_POINT ( 'NONE', #129 ) ;
#408 = AXIS2_PLACEMENT_3D ( 'NONE', #337, #140, #54 ) ;
#409 = SPHERICAL_SURFACE ( 'NONE', #221, 53.00000000000000000 ) ;
#410 = CC_DESIGN_PERSON_AND_ORGANIZATION_ASSIGNMENT ( #331, #401, ( #157 ) ) ;
#411 = CARTESIAN_POINT ( 'NONE',  ( 9.236488298952508525E-16, 0.000000000000000000, 0.000000000000000000 ) ) ;
ENDSEC;
END-ISO-10303-21;
