ISO-10303-21;
HEADER;
/* Generated by software containing ST-Developer
 * from STEP Tools, Inc. (www.steptools.com) 
 */

FILE_DESCRIPTION(
/* description */ ('"S" DI SCAVALCAMENTO \X\D828 (DN25)'),
/* implementation_level */ '2;1');

FILE_NAME(
/* name */ 
'R:\\Disegni3D_Area_Manager\\Steelpres.step\\379_STEELPRES\\379028000_
Steelpres.stp',
/* time_stamp */ '2022-10-24T07:55:27+02:00',
/* author */ ('Vault'),
/* organization */ ('Raccorderie metalliche s.p.a. '),
/* preprocessor_version */ 'ST-DEVELOPER v18.1',
/* originating_system */ 'Autodesk Inventor 2020',
/* authorisation */ 'Raccorderie metalliche s.p.a. ');

FILE_SCHEMA (('AUTOMOTIVE_DESIGN { 1 0 10303 214 3 1 1 }'));
ENDSEC;

DATA;
#10=MECHANICAL_DESIGN_GEOMETRIC_PRESENTATION_REPRESENTATION('',(#180,#181,
#182,#183,#184,#185,#186,#187,#188,#189,#190,#191,#192),#387);
#11=SHAPE_REPRESENTATION_RELATIONSHIP('SRR','None',#394,#12);
#12=ADVANCED_BREP_SHAPE_REPRESENTATION('',(#13),#386);
#13=MANIFOLD_SOLID_BREP('Solido1',#205);
#14=FACE_BOUND('',#45,.T.);
#15=FACE_BOUND('',#47,.T.);
#16=PLANE('',#255);
#17=PLANE('',#256);
#18=TOROIDAL_SURFACE('',#229,45.0000000000001,12.5);
#19=TOROIDAL_SURFACE('',#235,45.,12.5);
#20=TOROIDAL_SURFACE('',#244,45.0000000000001,14.);
#21=TOROIDAL_SURFACE('',#250,45.,14.);
#22=FACE_OUTER_BOUND('',#34,.T.);
#23=FACE_OUTER_BOUND('',#35,.T.);
#24=FACE_OUTER_BOUND('',#36,.T.);
#25=FACE_OUTER_BOUND('',#37,.T.);
#26=FACE_OUTER_BOUND('',#38,.T.);
#27=FACE_OUTER_BOUND('',#39,.T.);
#28=FACE_OUTER_BOUND('',#40,.T.);
#29=FACE_OUTER_BOUND('',#41,.T.);
#30=FACE_OUTER_BOUND('',#42,.T.);
#31=FACE_OUTER_BOUND('',#43,.T.);
#32=FACE_OUTER_BOUND('',#44,.T.);
#33=FACE_OUTER_BOUND('',#46,.T.);
#34=EDGE_LOOP('',(#122,#123,#124,#125,#126));
#35=EDGE_LOOP('',(#127,#128,#129,#130,#131,#132));
#36=EDGE_LOOP('',(#133,#134,#135,#136,#137));
#37=EDGE_LOOP('',(#138,#139,#140,#141));
#38=EDGE_LOOP('',(#142,#143,#144,#145));
#39=EDGE_LOOP('',(#146,#147,#148,#149,#150));
#40=EDGE_LOOP('',(#151,#152,#153,#154,#155,#156));
#41=EDGE_LOOP('',(#157,#158,#159,#160,#161));
#42=EDGE_LOOP('',(#162,#163,#164,#165));
#43=EDGE_LOOP('',(#166,#167,#168,#169));
#44=EDGE_LOOP('',(#170));
#45=EDGE_LOOP('',(#171));
#46=EDGE_LOOP('',(#172));
#47=EDGE_LOOP('',(#173));
#48=LINE('',#336,#54);
#49=LINE('',#347,#55);
#50=LINE('',#355,#56);
#51=LINE('',#360,#57);
#52=LINE('',#372,#58);
#53=LINE('',#380,#59);
#54=VECTOR('',#265,12.5);
#55=VECTOR('',#280,12.5);
#56=VECTOR('',#291,12.5);
#57=VECTOR('',#296,14.);
#58=VECTOR('',#311,14.);
#59=VECTOR('',#322,14.);
#60=CIRCLE('',#226,12.5);
#61=CIRCLE('',#227,12.5);
#62=CIRCLE('',#228,12.5);
#63=CIRCLE('',#230,12.5);
#64=CIRCLE('',#231,32.5000000000001);
#65=CIRCLE('',#232,12.5);
#66=CIRCLE('',#234,12.5);
#67=CIRCLE('',#236,12.5);
#68=CIRCLE('',#237,32.5);
#69=CIRCLE('',#239,12.5);
#70=CIRCLE('',#241,14.);
#71=CIRCLE('',#242,14.);
#72=CIRCLE('',#243,14.);
#73=CIRCLE('',#245,31.);
#74=CIRCLE('',#246,14.);
#75=CIRCLE('',#247,14.);
#76=CIRCLE('',#249,14.);
#77=CIRCLE('',#251,31.);
#78=CIRCLE('',#252,14.);
#79=CIRCLE('',#254,14.);
#80=VERTEX_POINT('',#331);
#81=VERTEX_POINT('',#332);
#82=VERTEX_POINT('',#335);
#83=VERTEX_POINT('',#339);
#84=VERTEX_POINT('',#340);
#85=VERTEX_POINT('',#345);
#86=VERTEX_POINT('',#349);
#87=VERTEX_POINT('',#353);
#88=VERTEX_POINT('',#357);
#89=VERTEX_POINT('',#359);
#90=VERTEX_POINT('',#361);
#91=VERTEX_POINT('',#365);
#92=VERTEX_POINT('',#367);
#93=VERTEX_POINT('',#371);
#94=VERTEX_POINT('',#375);
#95=VERTEX_POINT('',#379);
#96=EDGE_CURVE('',#80,#81,#60,.T.);
#97=EDGE_CURVE('',#81,#80,#61,.T.);
#98=EDGE_CURVE('',#80,#82,#48,.T.);
#99=EDGE_CURVE('',#82,#82,#62,.T.);
#100=EDGE_CURVE('',#83,#84,#63,.T.);
#101=EDGE_CURVE('',#84,#81,#64,.T.);
#102=EDGE_CURVE('',#84,#83,#65,.T.);
#103=EDGE_CURVE('',#85,#85,#66,.T.);
#104=EDGE_CURVE('',#85,#83,#49,.T.);
#105=EDGE_CURVE('',#86,#86,#67,.T.);
#106=EDGE_CURVE('',#86,#85,#68,.T.);
#107=EDGE_CURVE('',#87,#87,#69,.T.);
#108=EDGE_CURVE('',#87,#86,#50,.T.);
#109=EDGE_CURVE('',#88,#88,#70,.T.);
#110=EDGE_CURVE('',#88,#89,#51,.T.);
#111=EDGE_CURVE('',#90,#89,#71,.T.);
#112=EDGE_CURVE('',#89,#90,#72,.T.);
#113=EDGE_CURVE('',#90,#91,#73,.T.);
#114=EDGE_CURVE('',#92,#91,#74,.T.);
#115=EDGE_CURVE('',#91,#92,#75,.T.);
#116=EDGE_CURVE('',#92,#93,#52,.T.);
#117=EDGE_CURVE('',#93,#93,#76,.T.);
#118=EDGE_CURVE('',#93,#94,#77,.T.);
#119=EDGE_CURVE('',#94,#94,#78,.T.);
#120=EDGE_CURVE('',#94,#95,#53,.T.);
#121=EDGE_CURVE('',#95,#95,#79,.T.);
#122=ORIENTED_EDGE('',*,*,#96,.T.);
#123=ORIENTED_EDGE('',*,*,#97,.T.);
#124=ORIENTED_EDGE('',*,*,#98,.T.);
#125=ORIENTED_EDGE('',*,*,#99,.F.);
#126=ORIENTED_EDGE('',*,*,#98,.F.);
#127=ORIENTED_EDGE('',*,*,#100,.T.);
#128=ORIENTED_EDGE('',*,*,#101,.T.);
#129=ORIENTED_EDGE('',*,*,#96,.F.);
#130=ORIENTED_EDGE('',*,*,#97,.F.);
#131=ORIENTED_EDGE('',*,*,#101,.F.);
#132=ORIENTED_EDGE('',*,*,#102,.T.);
#133=ORIENTED_EDGE('',*,*,#103,.T.);
#134=ORIENTED_EDGE('',*,*,#104,.T.);
#135=ORIENTED_EDGE('',*,*,#102,.F.);
#136=ORIENTED_EDGE('',*,*,#100,.F.);
#137=ORIENTED_EDGE('',*,*,#104,.F.);
#138=ORIENTED_EDGE('',*,*,#105,.T.);
#139=ORIENTED_EDGE('',*,*,#106,.T.);
#140=ORIENTED_EDGE('',*,*,#103,.F.);
#141=ORIENTED_EDGE('',*,*,#106,.F.);
#142=ORIENTED_EDGE('',*,*,#107,.F.);
#143=ORIENTED_EDGE('',*,*,#108,.T.);
#144=ORIENTED_EDGE('',*,*,#105,.F.);
#145=ORIENTED_EDGE('',*,*,#108,.F.);
#146=ORIENTED_EDGE('',*,*,#109,.T.);
#147=ORIENTED_EDGE('',*,*,#110,.T.);
#148=ORIENTED_EDGE('',*,*,#111,.F.);
#149=ORIENTED_EDGE('',*,*,#112,.F.);
#150=ORIENTED_EDGE('',*,*,#110,.F.);
#151=ORIENTED_EDGE('',*,*,#112,.T.);
#152=ORIENTED_EDGE('',*,*,#113,.T.);
#153=ORIENTED_EDGE('',*,*,#114,.F.);
#154=ORIENTED_EDGE('',*,*,#115,.F.);
#155=ORIENTED_EDGE('',*,*,#113,.F.);
#156=ORIENTED_EDGE('',*,*,#111,.T.);
#157=ORIENTED_EDGE('',*,*,#114,.T.);
#158=ORIENTED_EDGE('',*,*,#115,.T.);
#159=ORIENTED_EDGE('',*,*,#116,.T.);
#160=ORIENTED_EDGE('',*,*,#117,.F.);
#161=ORIENTED_EDGE('',*,*,#116,.F.);
#162=ORIENTED_EDGE('',*,*,#117,.T.);
#163=ORIENTED_EDGE('',*,*,#118,.T.);
#164=ORIENTED_EDGE('',*,*,#119,.F.);
#165=ORIENTED_EDGE('',*,*,#118,.F.);
#166=ORIENTED_EDGE('',*,*,#119,.T.);
#167=ORIENTED_EDGE('',*,*,#120,.T.);
#168=ORIENTED_EDGE('',*,*,#121,.T.);
#169=ORIENTED_EDGE('',*,*,#120,.F.);
#170=ORIENTED_EDGE('',*,*,#121,.F.);
#171=ORIENTED_EDGE('',*,*,#107,.T.);
#172=ORIENTED_EDGE('',*,*,#109,.F.);
#173=ORIENTED_EDGE('',*,*,#99,.T.);
#174=CYLINDRICAL_SURFACE('',#225,12.5);
#175=CYLINDRICAL_SURFACE('',#233,12.5);
#176=CYLINDRICAL_SURFACE('',#238,12.5);
#177=CYLINDRICAL_SURFACE('',#240,14.);
#178=CYLINDRICAL_SURFACE('',#248,14.);
#179=CYLINDRICAL_SURFACE('',#253,14.);
#180=STYLED_ITEM('',(#404),#193);
#181=STYLED_ITEM('',(#404),#194);
#182=STYLED_ITEM('',(#404),#195);
#183=STYLED_ITEM('',(#404),#196);
#184=STYLED_ITEM('',(#404),#197);
#185=STYLED_ITEM('',(#404),#198);
#186=STYLED_ITEM('',(#404),#199);
#187=STYLED_ITEM('',(#404),#200);
#188=STYLED_ITEM('',(#404),#201);
#189=STYLED_ITEM('',(#404),#202);
#190=STYLED_ITEM('',(#404),#203);
#191=STYLED_ITEM('',(#404),#204);
#192=STYLED_ITEM('',(#403),#13);
#193=ADVANCED_FACE('',(#22),#174,.F.);
#194=ADVANCED_FACE('',(#23),#18,.F.);
#195=ADVANCED_FACE('',(#24),#175,.F.);
#196=ADVANCED_FACE('',(#25),#19,.F.);
#197=ADVANCED_FACE('',(#26),#176,.F.);
#198=ADVANCED_FACE('',(#27),#177,.T.);
#199=ADVANCED_FACE('',(#28),#20,.T.);
#200=ADVANCED_FACE('',(#29),#178,.T.);
#201=ADVANCED_FACE('',(#30),#21,.T.);
#202=ADVANCED_FACE('',(#31),#179,.T.);
#203=ADVANCED_FACE('',(#32,#14),#16,.F.);
#204=ADVANCED_FACE('',(#33,#15),#17,.T.);
#205=CLOSED_SHELL('',(#193,#194,#195,#196,#197,#198,#199,#200,#201,#202,
#203,#204));
#206=DERIVED_UNIT_ELEMENT(#208,1.);
#207=DERIVED_UNIT_ELEMENT(#389,3.);
#208=(
MASS_UNIT()
NAMED_UNIT(*)
SI_UNIT($,.GRAM.)
);
#209=DERIVED_UNIT((#206,#207));
#210=MEASURE_REPRESENTATION_ITEM('density measure',
POSITIVE_RATIO_MEASURE(1.),#209);
#211=PROPERTY_DEFINITION_REPRESENTATION(#216,#213);
#212=PROPERTY_DEFINITION_REPRESENTATION(#217,#214);
#213=REPRESENTATION('material name',(#215),#386);
#214=REPRESENTATION('density',(#210),#386);
#215=DESCRIPTIVE_REPRESENTATION_ITEM('Generico','Generico');
#216=PROPERTY_DEFINITION('material property','material name',#396);
#217=PROPERTY_DEFINITION('material property','density of part',#396);
#218=DATE_TIME_ROLE('creation_date');
#219=APPLIED_DATE_AND_TIME_ASSIGNMENT(#220,#218,(#396));
#220=DATE_AND_TIME(#221,#222);
#221=CALENDAR_DATE(2016,23,2);
#222=LOCAL_TIME(13,15,25.,#223);
#223=COORDINATED_UNIVERSAL_TIME_OFFSET(0,0,.BEHIND.);
#224=AXIS2_PLACEMENT_3D('placement',#329,#257,#258);
#225=AXIS2_PLACEMENT_3D('',#330,#259,#260);
#226=AXIS2_PLACEMENT_3D('',#333,#261,#262);
#227=AXIS2_PLACEMENT_3D('',#334,#263,#264);
#228=AXIS2_PLACEMENT_3D('',#337,#266,#267);
#229=AXIS2_PLACEMENT_3D('',#338,#268,#269);
#230=AXIS2_PLACEMENT_3D('',#341,#270,#271);
#231=AXIS2_PLACEMENT_3D('',#342,#272,#273);
#232=AXIS2_PLACEMENT_3D('',#343,#274,#275);
#233=AXIS2_PLACEMENT_3D('',#344,#276,#277);
#234=AXIS2_PLACEMENT_3D('',#346,#278,#279);
#235=AXIS2_PLACEMENT_3D('',#348,#281,#282);
#236=AXIS2_PLACEMENT_3D('',#350,#283,#284);
#237=AXIS2_PLACEMENT_3D('',#351,#285,#286);
#238=AXIS2_PLACEMENT_3D('',#352,#287,#288);
#239=AXIS2_PLACEMENT_3D('',#354,#289,#290);
#240=AXIS2_PLACEMENT_3D('',#356,#292,#293);
#241=AXIS2_PLACEMENT_3D('',#358,#294,#295);
#242=AXIS2_PLACEMENT_3D('',#362,#297,#298);
#243=AXIS2_PLACEMENT_3D('',#363,#299,#300);
#244=AXIS2_PLACEMENT_3D('',#364,#301,#302);
#245=AXIS2_PLACEMENT_3D('',#366,#303,#304);
#246=AXIS2_PLACEMENT_3D('',#368,#305,#306);
#247=AXIS2_PLACEMENT_3D('',#369,#307,#308);
#248=AXIS2_PLACEMENT_3D('',#370,#309,#310);
#249=AXIS2_PLACEMENT_3D('',#373,#312,#313);
#250=AXIS2_PLACEMENT_3D('',#374,#314,#315);
#251=AXIS2_PLACEMENT_3D('',#376,#316,#317);
#252=AXIS2_PLACEMENT_3D('',#377,#318,#319);
#253=AXIS2_PLACEMENT_3D('',#378,#320,#321);
#254=AXIS2_PLACEMENT_3D('',#381,#323,#324);
#255=AXIS2_PLACEMENT_3D('',#382,#325,#326);
#256=AXIS2_PLACEMENT_3D('',#383,#327,#328);
#257=DIRECTION('axis',(0.,0.,1.));
#258=DIRECTION('refdir',(1.,0.,0.));
#259=DIRECTION('center_axis',(-0.859925130623723,-0.510420189375158,0.));
#260=DIRECTION('ref_axis',(0.510420189375158,-0.859925130623723,0.));
#261=DIRECTION('center_axis',(0.859925130623724,0.510420189375157,0.));
#262=DIRECTION('ref_axis',(0.510420189375157,-0.859925130623724,0.));
#263=DIRECTION('center_axis',(0.859925130623724,0.510420189375157,0.));
#264=DIRECTION('ref_axis',(0.510420189375157,-0.859925130623724,0.));
#265=DIRECTION('',(-0.859925130623723,-0.510420189375158,0.));
#266=DIRECTION('center_axis',(0.859925130623723,0.510420189375158,0.));
#267=DIRECTION('ref_axis',(0.510420189375158,-0.859925130623723,0.));
#268=DIRECTION('center_axis',(0.,0.,1.));
#269=DIRECTION('ref_axis',(1.,0.,0.));
#270=DIRECTION('center_axis',(0.859925130623724,-0.510420189375157,0.));
#271=DIRECTION('ref_axis',(-0.510420189375157,-0.859925130623724,0.));
#272=DIRECTION('center_axis',(0.,0.,1.));
#273=DIRECTION('ref_axis',(1.,0.,0.));
#274=DIRECTION('center_axis',(0.859925130623724,-0.510420189375157,0.));
#275=DIRECTION('ref_axis',(-0.510420189375157,-0.859925130623724,0.));
#276=DIRECTION('center_axis',(-0.859925130623724,0.510420189375157,0.));
#277=DIRECTION('ref_axis',(-0.510420189375157,-0.859925130623724,0.));
#278=DIRECTION('center_axis',(0.859925130623724,-0.510420189375157,0.));
#279=DIRECTION('ref_axis',(-0.510420189375157,-0.859925130623724,0.));
#280=DIRECTION('',(-0.859925130623724,0.510420189375157,0.));
#281=DIRECTION('center_axis',(0.,0.,-1.));
#282=DIRECTION('ref_axis',(-1.,0.,0.));
#283=DIRECTION('center_axis',(1.,0.,0.));
#284=DIRECTION('ref_axis',(0.,-1.,0.));
#285=DIRECTION('center_axis',(0.,0.,-1.));
#286=DIRECTION('ref_axis',(-1.,0.,0.));
#287=DIRECTION('center_axis',(-1.,-1.86393856476027E-16,0.));
#288=DIRECTION('ref_axis',(1.86393856476027E-16,-1.,0.));
#289=DIRECTION('center_axis',(-1.,0.,0.));
#290=DIRECTION('ref_axis',(1.86393856476027E-16,-1.,0.));
#291=DIRECTION('',(-1.,-1.86393856476027E-16,0.));
#292=DIRECTION('center_axis',(-0.859925130623723,-0.510420189375158,0.));
#293=DIRECTION('ref_axis',(0.510420189375158,-0.859925130623723,0.));
#294=DIRECTION('center_axis',(0.859925130623724,0.510420189375157,0.));
#295=DIRECTION('ref_axis',(0.510420189375157,-0.859925130623724,0.));
#296=DIRECTION('',(0.859925130623723,0.510420189375158,0.));
#297=DIRECTION('center_axis',(0.859925130623724,0.510420189375157,0.));
#298=DIRECTION('ref_axis',(0.510420189375157,-0.859925130623724,0.));
#299=DIRECTION('center_axis',(0.859925130623724,0.510420189375157,0.));
#300=DIRECTION('ref_axis',(0.510420189375157,-0.859925130623724,0.));
#301=DIRECTION('center_axis',(0.,0.,1.));
#302=DIRECTION('ref_axis',(1.,0.,0.));
#303=DIRECTION('center_axis',(0.,0.,-1.));
#304=DIRECTION('ref_axis',(1.,0.,0.));
#305=DIRECTION('center_axis',(0.859925130623724,-0.510420189375157,0.));
#306=DIRECTION('ref_axis',(-0.510420189375157,-0.859925130623724,0.));
#307=DIRECTION('center_axis',(0.859925130623724,-0.510420189375157,0.));
#308=DIRECTION('ref_axis',(-0.510420189375157,-0.859925130623724,0.));
#309=DIRECTION('center_axis',(-0.859925130623724,0.510420189375157,0.));
#310=DIRECTION('ref_axis',(-0.510420189375157,-0.859925130623724,0.));
#311=DIRECTION('',(0.859925130623724,-0.510420189375157,0.));
#312=DIRECTION('center_axis',(0.859925130623724,-0.510420189375157,0.));
#313=DIRECTION('ref_axis',(-0.510420189375157,-0.859925130623724,0.));
#314=DIRECTION('center_axis',(0.,0.,-1.));
#315=DIRECTION('ref_axis',(-1.,0.,0.));
#316=DIRECTION('center_axis',(0.,0.,1.));
#317=DIRECTION('ref_axis',(-1.,0.,0.));
#318=DIRECTION('center_axis',(1.,0.,0.));
#319=DIRECTION('ref_axis',(0.,-1.,0.));
#320=DIRECTION('center_axis',(-1.,-1.86393856476027E-16,0.));
#321=DIRECTION('ref_axis',(1.86393856476027E-16,-1.,0.));
#322=DIRECTION('',(1.,1.86393856476027E-16,0.));
#323=DIRECTION('center_axis',(-1.,0.,0.));
#324=DIRECTION('ref_axis',(0.,-1.,0.));
#325=DIRECTION('center_axis',(-1.,0.,0.));
#326=DIRECTION('ref_axis',(0.,0.,1.));
#327=DIRECTION('center_axis',(-0.859925130623723,-0.510420189375158,0.));
#328=DIRECTION('ref_axis',(0.,0.,1.));
#329=CARTESIAN_POINT('',(0.,0.,0.));
#330=CARTESIAN_POINT('Origin',(-155.968908521882,29.6966308780676,0.));
#331=CARTESIAN_POINT('',(-162.349160889072,40.4456950108642,1.53080849893419E-15));
#332=CARTESIAN_POINT('',(-149.588656154693,18.9475667452711,-1.53080849893419E-15));
#333=CARTESIAN_POINT('Origin',(-155.968908521882,29.6966308780676,0.));
#334=CARTESIAN_POINT('Origin',(-155.968908521882,29.6966308780676,0.));
#335=CARTESIAN_POINT('',(-197.374558837805,19.655896437393,1.53080849893419E-15));
#336=CARTESIAN_POINT('',(-162.349160889072,40.4456950108642,-1.53080849893419E-15));
#337=CARTESIAN_POINT('Origin',(-190.994306470616,8.90683230459651,0.));
#338=CARTESIAN_POINT('Origin',(-133.,-9.,0.));
#339=CARTESIAN_POINT('',(-103.650839110928,40.4456950108642,1.53080849893419E-15));
#340=CARTESIAN_POINT('',(-116.411343845307,18.9475667452711,-1.53080849893419E-15));
#341=CARTESIAN_POINT('Origin',(-110.031091478118,29.6966308780676,0.));
#342=CARTESIAN_POINT('Origin',(-133.,-9.,-1.53080849893419E-15));
#343=CARTESIAN_POINT('Origin',(-110.031091478118,29.6966308780676,0.));
#344=CARTESIAN_POINT('Origin',(-70.6195358811782,6.30336912193241,0.));
#345=CARTESIAN_POINT('',(-64.2392835139887,17.052433254729,1.53080849893419E-15));
#346=CARTESIAN_POINT('Origin',(-70.6195358811782,6.30336912193241,0.));
#347=CARTESIAN_POINT('',(-64.2392835139887,17.052433254729,-1.53080849893419E-15));
#348=CARTESIAN_POINT('Origin',(-47.6506273592961,45.,0.));
#349=CARTESIAN_POINT('',(-47.6506273592961,12.5,1.53080849893419E-15));
#350=CARTESIAN_POINT('Origin',(-47.6506273592961,-8.88178419700125E-15,
0.));
#351=CARTESIAN_POINT('Origin',(-47.6506273592961,45.,1.53080849893419E-15));
#352=CARTESIAN_POINT('Origin',(0.,0.,0.));
#353=CARTESIAN_POINT('',(0.,12.5,1.53080849893419E-15));
#354=CARTESIAN_POINT('Origin',(0.,0.,0.));
#355=CARTESIAN_POINT('',(-2.32992320595033E-15,12.5,-1.53080849893419E-15));
#356=CARTESIAN_POINT('Origin',(-155.968908521882,29.6966308780676,0.));
#357=CARTESIAN_POINT('',(-198.140189121868,20.9457841333286,1.71450551880629E-15));
#358=CARTESIAN_POINT('Origin',(-190.994306470616,8.90683230459651,0.));
#359=CARTESIAN_POINT('',(-163.114791173134,41.7355827067998,1.71450551880629E-15));
#360=CARTESIAN_POINT('',(-163.114791173134,41.7355827067997,-1.71450551880629E-15));
#361=CARTESIAN_POINT('',(-148.82302587063,17.6576790493355,-1.71450551880629E-15));
#362=CARTESIAN_POINT('Origin',(-155.968908521882,29.6966308780676,0.));
#363=CARTESIAN_POINT('Origin',(-155.968908521882,29.6966308780676,0.));
#364=CARTESIAN_POINT('Origin',(-133.,-9.,0.));
#365=CARTESIAN_POINT('',(-117.17697412937,17.6576790493355,-1.71450551880629E-15));
#366=CARTESIAN_POINT('Origin',(-133.,-9.,-1.71450551880629E-15));
#367=CARTESIAN_POINT('',(-102.885208826866,41.7355827067998,1.71450551880629E-15));
#368=CARTESIAN_POINT('Origin',(-110.031091478118,29.6966308780676,0.));
#369=CARTESIAN_POINT('Origin',(-110.031091478118,29.6966308780676,0.));
#370=CARTESIAN_POINT('Origin',(-70.6195358811782,6.30336912193241,0.));
#371=CARTESIAN_POINT('',(-63.4736532299259,18.3423209506645,1.71450551880629E-15));
#372=CARTESIAN_POINT('',(-63.4736532299259,18.3423209506645,-1.71450551880629E-15));
#373=CARTESIAN_POINT('Origin',(-70.6195358811782,6.30336912193241,0.));
#374=CARTESIAN_POINT('Origin',(-47.6506273592961,45.,0.));
#375=CARTESIAN_POINT('',(-47.6506273592961,14.,1.71450551880629E-15));
#376=CARTESIAN_POINT('Origin',(-47.6506273592961,45.,1.71450551880629E-15));
#377=CARTESIAN_POINT('Origin',(-47.6506273592961,-8.88178419700125E-15,
0.));
#378=CARTESIAN_POINT('Origin',(0.,0.,0.));
#379=CARTESIAN_POINT('',(0.,14.,1.71450551880629E-15));
#380=CARTESIAN_POINT('',(-2.60951399066437E-15,14.,-1.71450551880629E-15));
#381=CARTESIAN_POINT('Origin',(0.,0.,0.));
#382=CARTESIAN_POINT('Origin',(0.,0.,0.));
#383=CARTESIAN_POINT('Origin',(-190.994306470616,8.90683230459651,0.));
#384=UNCERTAINTY_MEASURE_WITH_UNIT(LENGTH_MEASURE(0.01),#388,
'DISTANCE_ACCURACY_VALUE',
'Maximum model space distance between geometric entities at asserted c
onnectivities');
#385=UNCERTAINTY_MEASURE_WITH_UNIT(LENGTH_MEASURE(0.01),#388,
'DISTANCE_ACCURACY_VALUE',
'Maximum model space distance between geometric entities at asserted c
onnectivities');
#386=(
GEOMETRIC_REPRESENTATION_CONTEXT(3)
GLOBAL_UNCERTAINTY_ASSIGNED_CONTEXT((#384))
GLOBAL_UNIT_ASSIGNED_CONTEXT((#388,#390,#391))
REPRESENTATION_CONTEXT('','3D')
);
#387=(
GEOMETRIC_REPRESENTATION_CONTEXT(3)
GLOBAL_UNCERTAINTY_ASSIGNED_CONTEXT((#385))
GLOBAL_UNIT_ASSIGNED_CONTEXT((#388,#390,#391))
REPRESENTATION_CONTEXT('','3D')
);
#388=(
LENGTH_UNIT()
NAMED_UNIT(*)
SI_UNIT(.MILLI.,.METRE.)
);
#389=(
LENGTH_UNIT()
NAMED_UNIT(*)
SI_UNIT(.CENTI.,.METRE.)
);
#390=(
NAMED_UNIT(*)
PLANE_ANGLE_UNIT()
SI_UNIT($,.RADIAN.)
);
#391=(
NAMED_UNIT(*)
SI_UNIT($,.STERADIAN.)
SOLID_ANGLE_UNIT()
);
#392=SHAPE_DEFINITION_REPRESENTATION(#393,#394);
#393=PRODUCT_DEFINITION_SHAPE('',$,#396);
#394=SHAPE_REPRESENTATION('',(#224),#386);
#395=PRODUCT_DEFINITION_CONTEXT('part definition',#400,'design');
#396=PRODUCT_DEFINITION('379028000_Steelpres','379028000_Steelpres',#397,
#395);
#397=PRODUCT_DEFINITION_FORMATION('0',$,#402);
#398=PRODUCT_RELATED_PRODUCT_CATEGORY('379028000_Steelpres',
'379028000_Steelpres',(#402));
#399=APPLICATION_PROTOCOL_DEFINITION('international standard',
'automotive_design',2009,#400);
#400=APPLICATION_CONTEXT(
'Core Data for Automotive Mechanical Design Process');
#401=PRODUCT_CONTEXT('part definition',#400,'mechanical');
#402=PRODUCT('379028000_Steelpres','379028000_Steelpres',
'"S" DI SCAVALCAMENTO \X\D828 (DN25)',(#401));
#403=PRESENTATION_STYLE_ASSIGNMENT((#405));
#404=PRESENTATION_STYLE_ASSIGNMENT((#406));
#405=SURFACE_STYLE_USAGE(.BOTH.,#411);
#406=SURFACE_STYLE_USAGE(.BOTH.,#412);
#407=SURFACE_STYLE_RENDERING_WITH_PROPERTIES($,#419,(#409));
#408=SURFACE_STYLE_RENDERING_WITH_PROPERTIES($,#420,(#410));
#409=SURFACE_STYLE_TRANSPARENT(0.);
#410=SURFACE_STYLE_TRANSPARENT(0.);
#411=SURFACE_SIDE_STYLE('',(#413,#407));
#412=SURFACE_SIDE_STYLE('',(#414,#408));
#413=SURFACE_STYLE_FILL_AREA(#415);
#414=SURFACE_STYLE_FILL_AREA(#416);
#415=FILL_AREA_STYLE('',(#417));
#416=FILL_AREA_STYLE('',(#418));
#417=FILL_AREA_STYLE_COLOUR('',#419);
#418=FILL_AREA_STYLE_COLOUR('',#420);
#419=COLOUR_RGB('',0.749019607843137,0.749019607843137,0.749019607843137);
#420=COLOUR_RGB('',0.886274509803922,0.917647058823529,0.894117647058824);
ENDSEC;
END-ISO-10303-21;
