ISO-10303-21;
HEADER;
/* Generated by software containing ST-Developer
 * from STEP Tools, Inc. (www.steptools.com) 
 */

FILE_DESCRIPTION(
/* description */ ('TUBO RICURVO MASCHIO-MASCHIO 90\X\B0 DN28'),
/* implementation_level */ '2;1');

FILE_NAME(
/* name */ 
'R:\\Disegni3D_Area_Manager\\Steelpres.step\\394_900_STEELPRES\\394028
900_Steelpres.stp',
/* time_stamp */ '2022-10-24T08:12:58+02:00',
/* author */ ('Vault'),
/* organization */ ('Raccorderie metalliche s.p.a. '),
/* preprocessor_version */ 'ST-DEVELOPER v18.1',
/* originating_system */ 'Autodesk Inventor 2020',
/* authorisation */ 'Raccorderie metalliche s.p.a. ');

FILE_SCHEMA (('AUTOMOTIVE_DESIGN { 1 0 10303 214 3 1 1 }'));
ENDSEC;

DATA;
#10=MECHANICAL_DESIGN_GEOMETRIC_PRESENTATION_REPRESENTATION('',(#13),#273);
#11=SHAPE_REPRESENTATION_RELATIONSHIP('SRR','None',#280,#12);
#12=ADVANCED_BREP_SHAPE_REPRESENTATION('',(#14),#272);
#13=STYLED_ITEM('',(#289),#14);
#14=MANIFOLD_SOLID_BREP('Solido1',#139);
#15=FACE_BOUND('',#36,.T.);
#16=FACE_BOUND('',#38,.T.);
#17=PLANE('',#179);
#18=PLANE('',#180);
#19=TOROIDAL_SURFACE('',#163,45.,12.5);
#20=TOROIDAL_SURFACE('',#173,45.,14.);
#21=FACE_OUTER_BOUND('',#29,.T.);
#22=FACE_OUTER_BOUND('',#30,.T.);
#23=FACE_OUTER_BOUND('',#31,.T.);
#24=FACE_OUTER_BOUND('',#32,.T.);
#25=FACE_OUTER_BOUND('',#33,.T.);
#26=FACE_OUTER_BOUND('',#34,.T.);
#27=FACE_OUTER_BOUND('',#35,.T.);
#28=FACE_OUTER_BOUND('',#37,.T.);
#29=EDGE_LOOP('',(#91,#92,#93,#94,#95));
#30=EDGE_LOOP('',(#96,#97,#98,#99,#100,#101));
#31=EDGE_LOOP('',(#102,#103,#104,#105,#106));
#32=EDGE_LOOP('',(#107,#108,#109,#110,#111));
#33=EDGE_LOOP('',(#112,#113,#114,#115,#116,#117));
#34=EDGE_LOOP('',(#118,#119,#120,#121,#122));
#35=EDGE_LOOP('',(#123));
#36=EDGE_LOOP('',(#124));
#37=EDGE_LOOP('',(#125));
#38=EDGE_LOOP('',(#126));
#39=LINE('',#237,#43);
#40=LINE('',#249,#44);
#41=LINE('',#254,#45);
#42=LINE('',#266,#46);
#43=VECTOR('',#187,12.5);
#44=VECTOR('',#204,12.5);
#45=VECTOR('',#209,14.);
#46=VECTOR('',#224,14.);
#47=CIRCLE('',#160,12.5);
#48=CIRCLE('',#161,12.5);
#49=CIRCLE('',#162,12.5);
#50=CIRCLE('',#164,12.5);
#51=CIRCLE('',#165,12.5);
#52=CIRCLE('',#166,32.5);
#53=CIRCLE('',#168,12.5);
#54=CIRCLE('',#170,14.);
#55=CIRCLE('',#171,14.);
#56=CIRCLE('',#172,14.);
#57=CIRCLE('',#174,31.);
#58=CIRCLE('',#175,14.);
#59=CIRCLE('',#176,14.);
#60=CIRCLE('',#178,14.);
#61=VERTEX_POINT('',#233);
#62=VERTEX_POINT('',#234);
#63=VERTEX_POINT('',#236);
#64=VERTEX_POINT('',#241);
#65=VERTEX_POINT('',#242);
#66=VERTEX_POINT('',#247);
#67=VERTEX_POINT('',#251);
#68=VERTEX_POINT('',#253);
#69=VERTEX_POINT('',#255);
#70=VERTEX_POINT('',#259);
#71=VERTEX_POINT('',#261);
#72=VERTEX_POINT('',#265);
#73=EDGE_CURVE('',#61,#62,#47,.T.);
#74=EDGE_CURVE('',#61,#63,#39,.T.);
#75=EDGE_CURVE('',#63,#63,#48,.T.);
#76=EDGE_CURVE('',#62,#61,#49,.T.);
#77=EDGE_CURVE('',#64,#65,#50,.T.);
#78=EDGE_CURVE('',#65,#64,#51,.T.);
#79=EDGE_CURVE('',#65,#62,#52,.T.);
#80=EDGE_CURVE('',#66,#66,#53,.T.);
#81=EDGE_CURVE('',#66,#64,#40,.T.);
#82=EDGE_CURVE('',#67,#67,#54,.T.);
#83=EDGE_CURVE('',#67,#68,#41,.T.);
#84=EDGE_CURVE('',#68,#69,#55,.T.);
#85=EDGE_CURVE('',#69,#68,#56,.T.);
#86=EDGE_CURVE('',#69,#70,#57,.T.);
#87=EDGE_CURVE('',#70,#71,#58,.T.);
#88=EDGE_CURVE('',#71,#70,#59,.T.);
#89=EDGE_CURVE('',#71,#72,#42,.T.);
#90=EDGE_CURVE('',#72,#72,#60,.T.);
#91=ORIENTED_EDGE('',*,*,#73,.F.);
#92=ORIENTED_EDGE('',*,*,#74,.T.);
#93=ORIENTED_EDGE('',*,*,#75,.F.);
#94=ORIENTED_EDGE('',*,*,#74,.F.);
#95=ORIENTED_EDGE('',*,*,#76,.F.);
#96=ORIENTED_EDGE('',*,*,#77,.F.);
#97=ORIENTED_EDGE('',*,*,#78,.F.);
#98=ORIENTED_EDGE('',*,*,#79,.T.);
#99=ORIENTED_EDGE('',*,*,#76,.T.);
#100=ORIENTED_EDGE('',*,*,#73,.T.);
#101=ORIENTED_EDGE('',*,*,#79,.F.);
#102=ORIENTED_EDGE('',*,*,#80,.F.);
#103=ORIENTED_EDGE('',*,*,#81,.T.);
#104=ORIENTED_EDGE('',*,*,#77,.T.);
#105=ORIENTED_EDGE('',*,*,#78,.T.);
#106=ORIENTED_EDGE('',*,*,#81,.F.);
#107=ORIENTED_EDGE('',*,*,#82,.F.);
#108=ORIENTED_EDGE('',*,*,#83,.T.);
#109=ORIENTED_EDGE('',*,*,#84,.T.);
#110=ORIENTED_EDGE('',*,*,#85,.T.);
#111=ORIENTED_EDGE('',*,*,#83,.F.);
#112=ORIENTED_EDGE('',*,*,#84,.F.);
#113=ORIENTED_EDGE('',*,*,#85,.F.);
#114=ORIENTED_EDGE('',*,*,#86,.T.);
#115=ORIENTED_EDGE('',*,*,#87,.T.);
#116=ORIENTED_EDGE('',*,*,#88,.T.);
#117=ORIENTED_EDGE('',*,*,#86,.F.);
#118=ORIENTED_EDGE('',*,*,#88,.F.);
#119=ORIENTED_EDGE('',*,*,#89,.T.);
#120=ORIENTED_EDGE('',*,*,#90,.T.);
#121=ORIENTED_EDGE('',*,*,#89,.F.);
#122=ORIENTED_EDGE('',*,*,#87,.F.);
#123=ORIENTED_EDGE('',*,*,#82,.T.);
#124=ORIENTED_EDGE('',*,*,#75,.T.);
#125=ORIENTED_EDGE('',*,*,#90,.F.);
#126=ORIENTED_EDGE('',*,*,#80,.T.);
#127=CYLINDRICAL_SURFACE('',#159,12.5);
#128=CYLINDRICAL_SURFACE('',#167,12.5);
#129=CYLINDRICAL_SURFACE('',#169,14.);
#130=CYLINDRICAL_SURFACE('',#177,14.);
#131=ADVANCED_FACE('',(#21),#127,.F.);
#132=ADVANCED_FACE('',(#22),#19,.F.);
#133=ADVANCED_FACE('',(#23),#128,.F.);
#134=ADVANCED_FACE('',(#24),#129,.T.);
#135=ADVANCED_FACE('',(#25),#20,.T.);
#136=ADVANCED_FACE('',(#26),#130,.T.);
#137=ADVANCED_FACE('',(#27,#15),#17,.F.);
#138=ADVANCED_FACE('',(#28,#16),#18,.T.);
#139=CLOSED_SHELL('',(#131,#132,#133,#134,#135,#136,#137,#138));
#140=DERIVED_UNIT_ELEMENT(#142,1.);
#141=DERIVED_UNIT_ELEMENT(#275,3.);
#142=(
MASS_UNIT()
NAMED_UNIT(*)
SI_UNIT($,.GRAM.)
);
#143=DERIVED_UNIT((#140,#141));
#144=MEASURE_REPRESENTATION_ITEM('density measure',
POSITIVE_RATIO_MEASURE(1.),#143);
#145=PROPERTY_DEFINITION_REPRESENTATION(#150,#147);
#146=PROPERTY_DEFINITION_REPRESENTATION(#151,#148);
#147=REPRESENTATION('material name',(#149),#272);
#148=REPRESENTATION('density',(#144),#272);
#149=DESCRIPTIVE_REPRESENTATION_ITEM('Generico','Generico');
#150=PROPERTY_DEFINITION('material property','material name',#282);
#151=PROPERTY_DEFINITION('material property','density of part',#282);
#152=DATE_TIME_ROLE('creation_date');
#153=APPLIED_DATE_AND_TIME_ASSIGNMENT(#154,#152,(#282));
#154=DATE_AND_TIME(#155,#156);
#155=CALENDAR_DATE(2016,23,2);
#156=LOCAL_TIME(13,30,7.,#157);
#157=COORDINATED_UNIVERSAL_TIME_OFFSET(0,0,.BEHIND.);
#158=AXIS2_PLACEMENT_3D('placement',#231,#181,#182);
#159=AXIS2_PLACEMENT_3D('',#232,#183,#184);
#160=AXIS2_PLACEMENT_3D('',#235,#185,#186);
#161=AXIS2_PLACEMENT_3D('',#238,#188,#189);
#162=AXIS2_PLACEMENT_3D('',#239,#190,#191);
#163=AXIS2_PLACEMENT_3D('',#240,#192,#193);
#164=AXIS2_PLACEMENT_3D('',#243,#194,#195);
#165=AXIS2_PLACEMENT_3D('',#244,#196,#197);
#166=AXIS2_PLACEMENT_3D('',#245,#198,#199);
#167=AXIS2_PLACEMENT_3D('',#246,#200,#201);
#168=AXIS2_PLACEMENT_3D('',#248,#202,#203);
#169=AXIS2_PLACEMENT_3D('',#250,#205,#206);
#170=AXIS2_PLACEMENT_3D('',#252,#207,#208);
#171=AXIS2_PLACEMENT_3D('',#256,#210,#211);
#172=AXIS2_PLACEMENT_3D('',#257,#212,#213);
#173=AXIS2_PLACEMENT_3D('',#258,#214,#215);
#174=AXIS2_PLACEMENT_3D('',#260,#216,#217);
#175=AXIS2_PLACEMENT_3D('',#262,#218,#219);
#176=AXIS2_PLACEMENT_3D('',#263,#220,#221);
#177=AXIS2_PLACEMENT_3D('',#264,#222,#223);
#178=AXIS2_PLACEMENT_3D('',#267,#225,#226);
#179=AXIS2_PLACEMENT_3D('',#268,#227,#228);
#180=AXIS2_PLACEMENT_3D('',#269,#229,#230);
#181=DIRECTION('axis',(0.,0.,1.));
#182=DIRECTION('refdir',(1.,0.,0.));
#183=DIRECTION('center_axis',(2.22044604925031E-16,-1.,0.));
#184=DIRECTION('ref_axis',(1.,2.22044604925031E-16,0.));
#185=DIRECTION('center_axis',(1.60812264967664E-16,-1.,0.));
#186=DIRECTION('ref_axis',(1.,1.60812264967664E-16,0.));
#187=DIRECTION('',(2.22044604925031E-16,-1.,0.));
#188=DIRECTION('center_axis',(-1.60812264967664E-16,1.,0.));
#189=DIRECTION('ref_axis',(1.,2.22044604925031E-16,0.));
#190=DIRECTION('center_axis',(1.60812264967664E-16,-1.,0.));
#191=DIRECTION('ref_axis',(1.,1.60812264967664E-16,0.));
#192=DIRECTION('center_axis',(0.,0.,1.));
#193=DIRECTION('ref_axis',(1.,0.,0.));
#194=DIRECTION('center_axis',(-1.,0.,0.));
#195=DIRECTION('ref_axis',(0.,-1.,0.));
#196=DIRECTION('center_axis',(-1.,0.,0.));
#197=DIRECTION('ref_axis',(0.,-1.,0.));
#198=DIRECTION('center_axis',(0.,0.,1.));
#199=DIRECTION('ref_axis',(1.,0.,0.));
#200=DIRECTION('center_axis',(-1.,-1.70803542250024E-16,0.));
#201=DIRECTION('ref_axis',(1.70803542250024E-16,-1.,0.));
#202=DIRECTION('center_axis',(-1.,0.,0.));
#203=DIRECTION('ref_axis',(1.70803542250024E-16,-1.,0.));
#204=DIRECTION('',(-1.,-1.70803542250024E-16,0.));
#205=DIRECTION('center_axis',(2.22044604925031E-16,-1.,0.));
#206=DIRECTION('ref_axis',(1.,2.22044604925031E-16,0.));
#207=DIRECTION('center_axis',(1.60812264967664E-16,-1.,0.));
#208=DIRECTION('ref_axis',(1.,1.60812264967664E-16,0.));
#209=DIRECTION('',(-2.22044604925031E-16,1.,0.));
#210=DIRECTION('center_axis',(1.60812264967664E-16,-1.,0.));
#211=DIRECTION('ref_axis',(1.,1.60812264967664E-16,0.));
#212=DIRECTION('center_axis',(1.60812264967664E-16,-1.,0.));
#213=DIRECTION('ref_axis',(1.,1.60812264967664E-16,0.));
#214=DIRECTION('center_axis',(0.,0.,1.));
#215=DIRECTION('ref_axis',(1.,0.,0.));
#216=DIRECTION('center_axis',(0.,0.,-1.));
#217=DIRECTION('ref_axis',(1.,0.,0.));
#218=DIRECTION('center_axis',(-1.,0.,0.));
#219=DIRECTION('ref_axis',(0.,-1.,0.));
#220=DIRECTION('center_axis',(-1.,0.,0.));
#221=DIRECTION('ref_axis',(0.,-1.,0.));
#222=DIRECTION('center_axis',(-1.,-1.70803542250024E-16,0.));
#223=DIRECTION('ref_axis',(1.70803542250024E-16,-1.,0.));
#224=DIRECTION('',(1.,1.70803542250024E-16,0.));
#225=DIRECTION('center_axis',(-1.,0.,0.));
#226=DIRECTION('ref_axis',(0.,-1.,0.));
#227=DIRECTION('center_axis',(-1.60812264967664E-16,1.,0.));
#228=DIRECTION('ref_axis',(0.,0.,-1.));
#229=DIRECTION('center_axis',(1.,0.,0.));
#230=DIRECTION('ref_axis',(0.,0.,-1.));
#231=CARTESIAN_POINT('',(0.,0.,0.));
#232=CARTESIAN_POINT('Origin',(-97.,-45.,0.));
#233=CARTESIAN_POINT('',(-109.5,-45.,1.53080849893419E-15));
#234=CARTESIAN_POINT('',(-84.5,-45.,-1.53080849893419E-15));
#235=CARTESIAN_POINT('Origin',(-97.,-45.,0.));
#236=CARTESIAN_POINT('',(-109.5,-125.,1.53080849893419E-15));
#237=CARTESIAN_POINT('',(-109.5,-45.,-1.53080849893419E-15));
#238=CARTESIAN_POINT('Origin',(-97.,-125.,0.));
#239=CARTESIAN_POINT('Origin',(-97.,-45.,0.));
#240=CARTESIAN_POINT('Origin',(-52.,-45.,0.));
#241=CARTESIAN_POINT('',(-52.,12.5,1.53080849893419E-15));
#242=CARTESIAN_POINT('',(-52.,-12.5,-1.53080849893419E-15));
#243=CARTESIAN_POINT('Origin',(-52.,-8.88178419700125E-15,0.));
#244=CARTESIAN_POINT('Origin',(-52.,-8.88178419700125E-15,0.));
#245=CARTESIAN_POINT('Origin',(-52.,-45.,-1.53080849893419E-15));
#246=CARTESIAN_POINT('Origin',(0.,0.,0.));
#247=CARTESIAN_POINT('',(0.,12.5,1.53080849893419E-15));
#248=CARTESIAN_POINT('Origin',(-1.14703646696141E-31,-1.95917891646961E-47,
0.));
#249=CARTESIAN_POINT('',(-2.1350442781253E-15,12.5,-1.53080849893419E-15));
#250=CARTESIAN_POINT('Origin',(-97.,-45.,0.));
#251=CARTESIAN_POINT('',(-111.,-125.,1.71450551880629E-15));
#252=CARTESIAN_POINT('Origin',(-97.,-125.,0.));
#253=CARTESIAN_POINT('',(-111.,-45.,1.71450551880629E-15));
#254=CARTESIAN_POINT('',(-111.,-45.,-1.71450551880629E-15));
#255=CARTESIAN_POINT('',(-83.,-45.,-1.71450551880629E-15));
#256=CARTESIAN_POINT('Origin',(-97.,-45.,0.));
#257=CARTESIAN_POINT('Origin',(-97.,-45.,0.));
#258=CARTESIAN_POINT('Origin',(-52.,-45.,0.));
#259=CARTESIAN_POINT('',(-52.,-14.,-1.71450551880629E-15));
#260=CARTESIAN_POINT('Origin',(-52.,-45.,-1.71450551880629E-15));
#261=CARTESIAN_POINT('',(-52.,14.,1.71450551880629E-15));
#262=CARTESIAN_POINT('Origin',(-52.,-8.88178419700125E-15,0.));
#263=CARTESIAN_POINT('Origin',(-52.,-8.88178419700125E-15,0.));
#264=CARTESIAN_POINT('Origin',(0.,0.,0.));
#265=CARTESIAN_POINT('',(0.,14.,1.71450551880629E-15));
#266=CARTESIAN_POINT('',(-2.39124959150034E-15,14.,-1.71450551880629E-15));
#267=CARTESIAN_POINT('Origin',(0.,0.,0.));
#268=CARTESIAN_POINT('Origin',(-97.,-125.,2.64338815386942E-16));
#269=CARTESIAN_POINT('Origin',(0.,-6.71553090674409E-16,2.64338815386942E-16));
#270=UNCERTAINTY_MEASURE_WITH_UNIT(LENGTH_MEASURE(0.01),#274,
'DISTANCE_ACCURACY_VALUE',
'Maximum model space distance between geometric entities at asserted c
onnectivities');
#271=UNCERTAINTY_MEASURE_WITH_UNIT(LENGTH_MEASURE(0.01),#274,
'DISTANCE_ACCURACY_VALUE',
'Maximum model space distance between geometric entities at asserted c
onnectivities');
#272=(
GEOMETRIC_REPRESENTATION_CONTEXT(3)
GLOBAL_UNCERTAINTY_ASSIGNED_CONTEXT((#270))
GLOBAL_UNIT_ASSIGNED_CONTEXT((#274,#276,#277))
REPRESENTATION_CONTEXT('','3D')
);
#273=(
GEOMETRIC_REPRESENTATION_CONTEXT(3)
GLOBAL_UNCERTAINTY_ASSIGNED_CONTEXT((#271))
GLOBAL_UNIT_ASSIGNED_CONTEXT((#274,#276,#277))
REPRESENTATION_CONTEXT('','3D')
);
#274=(
LENGTH_UNIT()
NAMED_UNIT(*)
SI_UNIT(.MILLI.,.METRE.)
);
#275=(
LENGTH_UNIT()
NAMED_UNIT(*)
SI_UNIT(.CENTI.,.METRE.)
);
#276=(
NAMED_UNIT(*)
PLANE_ANGLE_UNIT()
SI_UNIT($,.RADIAN.)
);
#277=(
NAMED_UNIT(*)
SI_UNIT($,.STERADIAN.)
SOLID_ANGLE_UNIT()
);
#278=SHAPE_DEFINITION_REPRESENTATION(#279,#280);
#279=PRODUCT_DEFINITION_SHAPE('',$,#282);
#280=SHAPE_REPRESENTATION('',(#158),#272);
#281=PRODUCT_DEFINITION_CONTEXT('part definition',#286,'design');
#282=PRODUCT_DEFINITION('394028900_Steelpres','394028900_Steelpres',#283,
#281);
#283=PRODUCT_DEFINITION_FORMATION('0',$,#288);
#284=PRODUCT_RELATED_PRODUCT_CATEGORY('394028900_Steelpres',
'394028900_Steelpres',(#288));
#285=APPLICATION_PROTOCOL_DEFINITION('international standard',
'automotive_design',2009,#286);
#286=APPLICATION_CONTEXT(
'Core Data for Automotive Mechanical Design Process');
#287=PRODUCT_CONTEXT('part definition',#286,'mechanical');
#288=PRODUCT('394028900_Steelpres','394028900_Steelpres',
'TUBO RICURVO MASCHIO-MASCHIO 90\X\B0 DN28',(#287));
#289=PRESENTATION_STYLE_ASSIGNMENT((#290));
#290=SURFACE_STYLE_USAGE(.BOTH.,#293);
#291=SURFACE_STYLE_RENDERING_WITH_PROPERTIES($,#297,(#292));
#292=SURFACE_STYLE_TRANSPARENT(0.);
#293=SURFACE_SIDE_STYLE('',(#294,#291));
#294=SURFACE_STYLE_FILL_AREA(#295);
#295=FILL_AREA_STYLE('',(#296));
#296=FILL_AREA_STYLE_COLOUR('',#297);
#297=COLOUR_RGB('',0.886274509803922,0.917647058823529,0.894117647058824);
ENDSEC;
END-ISO-10303-21;
