ISO-10303-21;
HEADER;
FILE_DESCRIPTION (( 'STEP AP203' ),
    '1' );
FILE_NAME ('OT200-20-26_9x1_6_OSTP.step',
    '2020-12-16T01:37:30',
    ( '' ),
    ( '' ),
    'SwSTEP 2.0',
    'SolidWorks 2014',
    '' );
FILE_SCHEMA (( 'CONFIG_CONTROL_DESIGN' ));
ENDSEC;

DATA;
#1 = PERSON_AND_ORGANIZATION_ROLE ( 'creator' ) ;
#2 = PERSON_AND_ORGANIZATION ( #224, #233 ) ;
#3 = PERSON_AND_ORGANIZATION_ROLE ( 'creator' ) ;
#4 = APPROVAL_ROLE ( '' ) ;
#5 = CALENDAR_DATE ( 2020, 16, 12 ) ;
#6 = ORIENTED_EDGE ( 'NONE', *, *, #61, .T. ) ;
#7 = DATE_AND_TIME ( #147, #149 ) ;
#8 = LOCAL_TIME ( 2, 37, 30.00000000000000000, #206 ) ;
#9 = CARTESIAN_POINT ( 'NONE',  ( 28.50000000000000000, 0.0000000000000000000, -1.647149944853190000E-015 ) ) ;
#10 = DIRECTION ( 'NONE',  ( 1.000000000000000000, 0.0000000000000000000, 0.0000000000000000000 ) ) ;
#11 = CC_DESIGN_APPROVAL ( #142, ( #103 ) ) ;
#12 = FACE_OUTER_BOUND ( 'NONE', #198, .T. ) ;
#13 = DIRECTION ( 'NONE',  ( 0.0000000000000000000, 0.0000000000000000000, 1.000000000000000000 ) ) ;
#14 = DIRECTION ( 'NONE',  ( 0.0000000000000000000, 0.0000000000000000000, 1.000000000000000000 ) ) ;
#15 = ADVANCED_FACE ( 'NONE', ( #83 ), #131, .F. ) ;
#16 = EDGE_CURVE ( 'NONE', #170, #165, #243, .T. ) ;
#17 = FACE_BOUND ( 'NONE', #164, .T. ) ;
#18 = ORIENTED_EDGE ( 'NONE', *, *, #35, .F. ) ;
#19 = SHAPE_DEFINITION_REPRESENTATION ( #42, #176 ) ;
#20 = VERTEX_POINT ( 'NONE', #154 ) ;
#21 = EDGE_CURVE ( 'NONE', #20, #38, #180, .T. ) ;
#22 = EDGE_CURVE ( 'NONE', #143, #244, #100, .T. ) ;
#23 = DIRECTION ( 'NONE',  ( -2.927803334981953900E-016, 1.000000000000000000, 0.0000000000000000000 ) ) ;
#24 = VERTEX_POINT ( 'NONE', #69 ) ;
#25 = DIRECTION ( 'NONE',  ( 0.0000000000000000000, 1.000000000000000000, 0.0000000000000000000 ) ) ;
#26 = DESIGN_CONTEXT ( 'detailed design', #116, 'design' ) ;
#27 = DIRECTION ( 'NONE',  ( 0.0000000000000000000, 0.0000000000000000000, 1.000000000000000000 ) ) ;
#28 = CARTESIAN_POINT ( 'NONE',  ( 28.49999999999998900, 28.50000000000000000, 0.0000000000000000000 ) ) ;
#29 = PRODUCT_RELATED_PRODUCT_CATEGORY ( 'detail', '', ( #46 ) ) ;
#30 = DIRECTION ( 'NONE',  ( 0.0000000000000000000, 1.000000000000000000, 0.0000000000000000000 ) ) ;
#31 = CC_DESIGN_APPROVAL ( #44, ( #162 ) ) ;
#32 = DIRECTION ( 'NONE',  ( 1.000000000000000000, 0.0000000000000000000, 0.0000000000000000000 ) ) ;
#33 = EDGE_LOOP ( 'NONE', ( #214, #119, #126, #229 ) ) ;
#34 = SECURITY_CLASSIFICATION_LEVEL ( 'unclassified' ) ;
#35 = EDGE_CURVE ( 'NONE', #20, #223, #207, .T. ) ;
#36 = APPROVAL_ROLE ( '' ) ;
#37 = TOROIDAL_SURFACE ( 'NONE', #215, 28.50000000000000000, 13.44999999999999900 ) ;
#38 = VERTEX_POINT ( 'NONE', #173 ) ;
#39 = LOCAL_TIME ( 2, 37, 30.00000000000000000, #216 ) ;
#40 = CALENDAR_DATE ( 2020, 16, 12 ) ;
#41 = CC_DESIGN_PERSON_AND_ORGANIZATION_ASSIGNMENT ( #188, #242, ( #46 ) ) ;
#42 = PRODUCT_DEFINITION_SHAPE ( 'NONE', 'NONE',  #162 ) ;
#43 = TOROIDAL_SURFACE ( 'NONE', #81, 28.50000000000000000, 13.44999999999999900 ) ;
#44 = APPROVAL ( #220, 'UNSPECIFIED' ) ;
#45 = DIRECTION ( 'NONE',  ( 0.0000000000000000000, 1.000000000000000000, 0.0000000000000000000 ) ) ;
#46 = PRODUCT ( 'OT200-20-26_9x1_6_OSTP', 'OT200-20-26_9x1_6_OSTP', '', ( #187 ) ) ;
#47 = EDGE_CURVE ( 'NONE', #165, #170, #210, .T. ) ;
#48 = DIRECTION ( 'NONE',  ( 0.0000000000000000000, 0.0000000000000000000, 1.000000000000000000 ) ) ;
#49 = AXIS2_PLACEMENT_3D ( 'NONE', #66, #175, #177 ) ;
#50 = DIRECTION ( 'NONE',  ( 1.000000000000000000, 0.0000000000000000000, 0.0000000000000000000 ) ) ;
#51 = PERSON_AND_ORGANIZATION ( #224, #233 ) ;
#52 = DIRECTION ( 'NONE',  ( 1.000000000000000000, 0.0000000000000000000, 0.0000000000000000000 ) ) ;
#53 = DIRECTION ( 'NONE',  ( 0.0000000000000000000, 1.000000000000000000, 0.0000000000000000000 ) ) ;
#54 = DIRECTION ( 'NONE',  ( 0.0000000000000000000, 0.0000000000000000000, 1.000000000000000000 ) ) ;
#55 = COORDINATED_UNIVERSAL_TIME_OFFSET ( 1, 0, .AHEAD. ) ;
#56 = AXIS2_PLACEMENT_3D ( 'NONE', #91, #183, #249 ) ;
#57 = APPROVAL_STATUS ( 'not_yet_approved' ) ;
#58 = DIRECTION ( 'NONE',  ( 0.0000000000000000000, 0.0000000000000000000, 1.000000000000000000 ) ) ;
#59 = CIRCLE ( 'NONE', #252, 13.44999999999999900 ) ;
#60 = AXIS2_PLACEMENT_3D ( 'NONE', #95, #30, #186 ) ;
#61 = EDGE_CURVE ( 'NONE', #24, #223, #251, .T. ) ;
#62 = AXIS2_PLACEMENT_3D ( 'NONE', #202, #58, #32 ) ;
#63 = PERSON_AND_ORGANIZATION ( #224, #233 ) ;
#64 = FACE_OUTER_BOUND ( 'NONE', #185, .T. ) ;
#65 = ORIENTED_EDGE ( 'NONE', *, *, #47, .F. ) ;
#66 = CARTESIAN_POINT ( 'NONE',  ( 28.49999999999998900, 28.50000000000000000, 0.0000000000000000000 ) ) ;
#67 = ADVANCED_FACE ( 'NONE', ( #92, #169 ), #74, .F. ) ;
#68 = ORIENTED_EDGE ( 'NONE', *, *, #108, .F. ) ;
#69 = CARTESIAN_POINT ( 'NONE',  ( -13.44999999999999900, 0.0000000000000000000, 0.0000000000000000000 ) ) ;
#70 = CC_DESIGN_PERSON_AND_ORGANIZATION_ASSIGNMENT ( #107, #199, ( #103 ) ) ;
#71 = CARTESIAN_POINT ( 'NONE',  ( 28.49999999999999300, 28.50000000000000000, 0.0000000000000000000 ) ) ;
#72 = APPROVAL_DATE_TIME ( #125, #142 ) ;
#73 = CARTESIAN_POINT ( 'NONE',  ( 28.49999999999998900, 40.34999999999999400, 0.0000000000000000000 ) ) ;
#74 = PLANE ( 'NONE',  #172 ) ;
#75 = AXIS2_PLACEMENT_3D ( 'NONE', #179, #232, #27 ) ;
#76 = DIRECTION ( 'NONE',  ( 0.0000000000000000000, 0.0000000000000000000, 1.000000000000000000 ) ) ;
#77 = DATE_TIME_ROLE ( 'classification_date' ) ;
#78 = CALENDAR_DATE ( 2020, 16, 12 ) ;
#79 = CC_DESIGN_APPROVAL ( #200, ( #115 ) ) ;
#80 = AXIS2_PLACEMENT_3D ( 'NONE', #171, #45, #212 ) ;
#81 = AXIS2_PLACEMENT_3D ( 'NONE', #133, #13, #52 ) ;
#82 = TOROIDAL_SURFACE ( 'NONE', #246, 28.50000000000000000, 11.85000000000000000 ) ;
#83 = FACE_OUTER_BOUND ( 'NONE', #33, .T. ) ;
#84 = APPROVAL_DATE_TIME ( #201, #44 ) ;
#85 = CC_DESIGN_DATE_AND_TIME_ASSIGNMENT ( #7, #163, ( #162 ) ) ;
#86 = AXIS2_PLACEMENT_3D ( 'NONE', #71, #90, #213 ) ;
#87 = DATE_AND_TIME ( #78, #140 ) ;
#88 = ORIENTED_EDGE ( 'NONE', *, *, #124, .T. ) ;
#89 = CARTESIAN_POINT ( 'NONE',  ( 28.50000000000000000, 0.0000000000000000000, 0.0000000000000000000 ) ) ;
#90 = DIRECTION ( 'NONE',  ( 1.000000000000000000, 2.832769448823989800E-016, 0.0000000000000000000 ) ) ;
#91 = CARTESIAN_POINT ( 'NONE',  ( 28.50000000000000000, 0.0000000000000000000, 0.0000000000000000000 ) ) ;
#92 = FACE_BOUND ( 'NONE', #221, .T. ) ;
#93 = CLOSED_SHELL ( 'NONE', ( #15, #94, #250, #253, #67, #157 ) ) ;
#94 = ADVANCED_FACE ( 'NONE', ( #64 ), #43, .T. ) ;
#95 = CARTESIAN_POINT ( 'NONE',  ( 0.0000000000000000000, 0.0000000000000000000, 0.0000000000000000000 ) ) ;
#96 = CARTESIAN_POINT ( 'NONE',  ( 28.49999999999998900, 28.50000000000000000, 0.0000000000000000000 ) ) ;
#97 = COORDINATED_UNIVERSAL_TIME_OFFSET ( 1, 0, .AHEAD. ) ;
#98 = AXIS2_PLACEMENT_3D ( 'NONE', #155, #48, #114 ) ;
#99 = PLANE ( 'NONE',  #174 ) ;
#100 = CIRCLE ( 'NONE', #80, 11.85000000000000000 ) ;
#101 = ORIENTED_EDGE ( 'NONE', *, *, #152, .T. ) ;
#102 = AXIS2_PLACEMENT_3D ( 'NONE', #196, #25, #76 ) ;
#103 = PRODUCT_DEFINITION_FORMATION_WITH_SPECIFIED_SOURCE ( 'ANY', '', #46, .NOT_KNOWN. ) ;
#104 = PERSON_AND_ORGANIZATION ( #224, #233 ) ;
#105 = APPROVAL_PERSON_ORGANIZATION ( #51, #44, #161 ) ;
#106 = ORIENTED_EDGE ( 'NONE', *, *, #148, .F. ) ;
#107 = PERSON_AND_ORGANIZATION ( #224, #233 ) ;
#108 = EDGE_CURVE ( 'NONE', #223, #24, #204, .T. ) ;
#109 = CC_DESIGN_PERSON_AND_ORGANIZATION_ASSIGNMENT ( #104, #138, ( #115 ) ) ;
#110 = FACE_OUTER_BOUND ( 'NONE', #135, .T. ) ;
#111 = ORIENTED_EDGE ( 'NONE', *, *, #21, .T. ) ;
#112 = CARTESIAN_POINT ( 'NONE',  ( 13.44999999999999900, 0.0000000000000000000, -1.647149944853190000E-015 ) ) ;
#113 = DIRECTION ( 'NONE',  ( 1.000000000000000000, 0.0000000000000000000, 0.0000000000000000000 ) ) ;
#114 = DIRECTION ( 'NONE',  ( 1.000000000000000000, 0.0000000000000000000, 0.0000000000000000000 ) ) ;
#115 = SECURITY_CLASSIFICATION ( '', '', #34 ) ;
#116 = APPLICATION_CONTEXT ( 'configuration controlled 3d designs of mechanical parts and assemblies' ) ;
#117 =( LENGTH_UNIT ( ) NAMED_UNIT ( * ) SI_UNIT ( .MILLI., .METRE. ) );
#118 = APPLICATION_PROTOCOL_DEFINITION ( 'international standard', 'config_control_design', 1994, #116 ) ;
#119 = ORIENTED_EDGE ( 'NONE', *, *, #139, .T. ) ;
#120 = EDGE_LOOP ( 'NONE', ( #106, #141, #226, #132 ) ) ;
#121 = APPLICATION_CONTEXT ( 'configuration controlled 3d designs of mechanical parts and assemblies' ) ;
#122 = CC_DESIGN_PERSON_AND_ORGANIZATION_ASSIGNMENT ( #63, #1, ( #162 ) ) ;
#123 = ORIENTED_EDGE ( 'NONE', *, *, #139, .F. ) ;
#124 = EDGE_CURVE ( 'NONE', #244, #143, #239, .T. ) ;
#125 = DATE_AND_TIME ( #40, #193 ) ;
#126 = ORIENTED_EDGE ( 'NONE', *, *, #22, .F. ) ;
#127 = PERSON_AND_ORGANIZATION ( #224, #233 ) ;
#128 = ORIENTED_EDGE ( 'NONE', *, *, #124, .F. ) ;
#129 = AXIS2_PLACEMENT_3D ( 'NONE', #136, #194, #50 ) ;
#130 = CARTESIAN_POINT ( 'NONE',  ( 28.49999999999999300, 28.50000000000000000, 0.0000000000000000000 ) ) ;
#131 = TOROIDAL_SURFACE ( 'NONE', #167, 28.50000000000000000, 11.85000000000000000 ) ;
#132 = ORIENTED_EDGE ( 'NONE', *, *, #108, .T. ) ;
#133 = CARTESIAN_POINT ( 'NONE',  ( 28.50000000000000000, 0.0000000000000000000, 0.0000000000000000000 ) ) ;
#134 = CARTESIAN_POINT ( 'NONE',  ( 28.50000000000000000, 0.0000000000000000000, 0.0000000000000000000 ) ) ;
#135 = EDGE_LOOP ( 'NONE', ( #111, #237 ) ) ;
#136 = CARTESIAN_POINT ( 'NONE',  ( 28.50000000000000000, 0.0000000000000000000, 0.0000000000000000000 ) ) ;
#137 = MANIFOLD_SOLID_BREP ( 'cut-body', #93 ) ;
#138 = PERSON_AND_ORGANIZATION_ROLE ( 'classification_officer' ) ;
#139 = EDGE_CURVE ( 'NONE', #170, #244, #217, .T. ) ;
#140 = LOCAL_TIME ( 2, 37, 30.00000000000000000, #222 ) ;
#141 = ORIENTED_EDGE ( 'NONE', *, *, #21, .F. ) ;
#142 = APPROVAL ( #57, 'UNSPECIFIED' ) ;
#143 = VERTEX_POINT ( 'NONE', #160 ) ;
#144 = APPROVAL_STATUS ( 'not_yet_approved' ) ;
#145 = ORIENTED_EDGE ( 'NONE', *, *, #205, .F. ) ;
#146 = APPROVAL_DATE_TIME ( #178, #200 ) ;
#147 = CALENDAR_DATE ( 2020, 16, 12 ) ;
#148 = EDGE_CURVE ( 'NONE', #38, #24, #166, .T. ) ;
#149 = LOCAL_TIME ( 2, 37, 30.00000000000000000, #55 ) ;
#150 = DIRECTION ( 'NONE',  ( 1.000000000000000000, 0.0000000000000000000, 0.0000000000000000000 ) ) ;
#151 = CARTESIAN_POINT ( 'NONE',  ( 28.50000000000000000, 0.0000000000000000000, 0.0000000000000000000 ) ) ;
#152 = EDGE_CURVE ( 'NONE', #165, #143, #248, .T. ) ;
#153 = APPROVAL_PERSON_ORGANIZATION ( #2, #142, #4 ) ;
#154 = CARTESIAN_POINT ( 'NONE',  ( 28.49999999999999300, 15.05000000000000100, -1.647149944853190000E-015 ) ) ;
#155 = CARTESIAN_POINT ( 'NONE',  ( 28.50000000000000000, 0.0000000000000000000, -1.451206456989613500E-015 ) ) ;
#156 = ORIENTED_EDGE ( 'NONE', *, *, #16, .T. ) ;
#157 = ADVANCED_FACE ( 'NONE', ( #12 ), #82, .F. ) ;
#158 = CARTESIAN_POINT ( 'NONE',  ( -11.84999999999999800, 0.0000000000000000000, 0.0000000000000000000 ) ) ;
#159 = AXIS2_PLACEMENT_3D ( 'NONE', #130, #230, #23 ) ;
#160 = CARTESIAN_POINT ( 'NONE',  ( 11.85000000000000000, 0.0000000000000000000, -1.451206456989613500E-015 ) ) ;
#161 = APPROVAL_ROLE ( '' ) ;
#162 = PRODUCT_DEFINITION ( 'UNKNOWN', '', #103, #26 ) ;
#163 = DATE_TIME_ROLE ( 'creation_date' ) ;
#164 = EDGE_LOOP ( 'NONE', ( #65, #192 ) ) ;
#165 = VERTEX_POINT ( 'NONE', #195 ) ;
#166 = CIRCLE ( 'NONE', #56, 41.95000000000000300 ) ;
#167 = AXIS2_PLACEMENT_3D ( 'NONE', #151, #245, #150 ) ;
#168 =( GEOMETRIC_REPRESENTATION_CONTEXT ( 3 ) GLOBAL_UNCERTAINTY_ASSIGNED_CONTEXT ( ( #209 ) ) GLOBAL_UNIT_ASSIGNED_CONTEXT ( ( #117, #190, #218 ) ) REPRESENTATION_CONTEXT ( 'NONE', 'WORKASPACE' ) );
#169 = FACE_OUTER_BOUND ( 'NONE', #240, .T. ) ;
#170 = VERTEX_POINT ( 'NONE', #73 ) ;
#171 = CARTESIAN_POINT ( 'NONE',  ( 0.0000000000000000000, 0.0000000000000000000, 0.0000000000000000000 ) ) ;
#172 = AXIS2_PLACEMENT_3D ( 'NONE', #238, #53, #235 ) ;
#173 = CARTESIAN_POINT ( 'NONE',  ( 28.49999999999998600, 41.95000000000000300, 0.0000000000000000000 ) ) ;
#174 = AXIS2_PLACEMENT_3D ( 'NONE', #96, #203, #54 ) ;
#175 = DIRECTION ( 'NONE',  ( 1.000000000000000000, 2.832769448823989800E-016, 0.0000000000000000000 ) ) ;
#176 = ADVANCED_BREP_SHAPE_REPRESENTATION ( 'OT200-20-26_9x1_6_OSTP', ( #137, #62 ), #168 ) ;
#177 = DIRECTION ( 'NONE',  ( 0.0000000000000000000, 0.0000000000000000000, 1.000000000000000000 ) ) ;
#178 = DATE_AND_TIME ( #247, #39 ) ;
#179 = CARTESIAN_POINT ( 'NONE',  ( 0.0000000000000000000, 0.0000000000000000000, 0.0000000000000000000 ) ) ;
#180 = CIRCLE ( 'NONE', #49, 13.44999999999999900 ) ;
#181 = ORIENTED_EDGE ( 'NONE', *, *, #22, .T. ) ;
#182 = AXIS2_PLACEMENT_3D ( 'NONE', #9, #208, #228 ) ;
#183 = DIRECTION ( 'NONE',  ( 0.0000000000000000000, 0.0000000000000000000, 1.000000000000000000 ) ) ;
#184 = DIRECTION ( 'NONE',  ( 0.0000000000000000000, 0.0000000000000000000, 1.000000000000000000 ) ) ;
#185 = EDGE_LOOP ( 'NONE', ( #145, #234, #6, #18 ) ) ;
#186 = DIRECTION ( 'NONE',  ( 0.0000000000000000000, 0.0000000000000000000, 1.000000000000000000 ) ) ;
#187 = MECHANICAL_CONTEXT ( 'NONE', #121, 'mechanical' ) ;
#188 = PERSON_AND_ORGANIZATION ( #224, #233 ) ;
#189 = ORIENTED_EDGE ( 'NONE', *, *, #61, .F. ) ;
#190 =( NAMED_UNIT ( * ) PLANE_ANGLE_UNIT ( ) SI_UNIT ( $, .RADIAN. ) );
#191 = CC_DESIGN_PERSON_AND_ORGANIZATION_ASSIGNMENT ( #225, #3, ( #103 ) ) ;
#192 = ORIENTED_EDGE ( 'NONE', *, *, #16, .F. ) ;
#193 = LOCAL_TIME ( 2, 37, 30.00000000000000000, #97 ) ;
#194 = DIRECTION ( 'NONE',  ( 0.0000000000000000000, 0.0000000000000000000, 1.000000000000000000 ) ) ;
#195 = CARTESIAN_POINT ( 'NONE',  ( 28.49999999999999600, 16.65000000000000200, -1.451206456989613500E-015 ) ) ;
#196 = CARTESIAN_POINT ( 'NONE',  ( 0.0000000000000000000, 0.0000000000000000000, 0.0000000000000000000 ) ) ;
#197 = DIRECTION ( 'NONE',  ( 1.000000000000000000, 2.832769448823989800E-016, 0.0000000000000000000 ) ) ;
#198 = EDGE_LOOP ( 'NONE', ( #123, #156, #101, #128 ) ) ;
#199 = PERSON_AND_ORGANIZATION_ROLE ( 'design_supplier' ) ;
#200 = APPROVAL ( #144, 'UNSPECIFIED' ) ;
#201 = DATE_AND_TIME ( #5, #8 ) ;
#202 = CARTESIAN_POINT ( 'NONE',  ( 0.0000000000000000000, 0.0000000000000000000, 0.0000000000000000000 ) ) ;
#203 = DIRECTION ( 'NONE',  ( 1.000000000000000000, 2.832769448823989800E-016, -0.0000000000000000000 ) ) ;
#204 = CIRCLE ( 'NONE', #102, 13.44999999999999900 ) ;
#205 = EDGE_CURVE ( 'NONE', #38, #20, #59, .T. ) ;
#206 = COORDINATED_UNIVERSAL_TIME_OFFSET ( 1, 0, .AHEAD. ) ;
#207 = CIRCLE ( 'NONE', #182, 15.05000000000000400 ) ;
#208 = DIRECTION ( 'NONE',  ( 0.0000000000000000000, 0.0000000000000000000, 1.000000000000000000 ) ) ;
#209 = UNCERTAINTY_MEASURE_WITH_UNIT (LENGTH_MEASURE( 1.000000000000000100E-005 ), #117, 'distance_accuracy_value', 'NONE');
#210 = CIRCLE ( 'NONE', #86, 11.84999999999999600 ) ;
#211 = CC_DESIGN_SECURITY_CLASSIFICATION ( #115, ( #103 ) ) ;
#212 = DIRECTION ( 'NONE',  ( 0.0000000000000000000, 0.0000000000000000000, 1.000000000000000000 ) ) ;
#213 = DIRECTION ( 'NONE',  ( -2.927803334981953900E-016, 1.000000000000000000, 0.0000000000000000000 ) ) ;
#214 = ORIENTED_EDGE ( 'NONE', *, *, #47, .T. ) ;
#215 = AXIS2_PLACEMENT_3D ( 'NONE', #134, #184, #113 ) ;
#216 = COORDINATED_UNIVERSAL_TIME_OFFSET ( 1, 0, .AHEAD. ) ;
#217 = CIRCLE ( 'NONE', #129, 40.34999999999999400 ) ;
#218 =( NAMED_UNIT ( * ) SI_UNIT ( $, .STERADIAN. ) SOLID_ANGLE_UNIT ( ) );
#219 = FACE_OUTER_BOUND ( 'NONE', #120, .T. ) ;
#220 = APPROVAL_STATUS ( 'not_yet_approved' ) ;
#221 = EDGE_LOOP ( 'NONE', ( #181, #88 ) ) ;
#222 = COORDINATED_UNIVERSAL_TIME_OFFSET ( 1, 0, .AHEAD. ) ;
#223 = VERTEX_POINT ( 'NONE', #112 ) ;
#224 = PERSON ( 'UNSPECIFIED', 'UNSPECIFIED', 'UNSPECIFIED', ('UNSPECIFIED'), ('UNSPECIFIED'), ('UNSPECIFIED') ) ;
#225 = PERSON_AND_ORGANIZATION ( #224, #233 ) ;
#226 = ORIENTED_EDGE ( 'NONE', *, *, #35, .T. ) ;
#227 = CC_DESIGN_DATE_AND_TIME_ASSIGNMENT ( #87, #77, ( #115 ) ) ;
#228 = DIRECTION ( 'NONE',  ( 1.000000000000000000, 0.0000000000000000000, 0.0000000000000000000 ) ) ;
#229 = ORIENTED_EDGE ( 'NONE', *, *, #152, .F. ) ;
#230 = DIRECTION ( 'NONE',  ( 1.000000000000000000, 2.832769448823989800E-016, 0.0000000000000000000 ) ) ;
#231 = APPROVAL_PERSON_ORGANIZATION ( #127, #200, #36 ) ;
#232 = DIRECTION ( 'NONE',  ( 0.0000000000000000000, 1.000000000000000000, 0.0000000000000000000 ) ) ;
#233 = ORGANIZATION ( 'UNSPECIFIED', 'UNSPECIFIED', '' ) ;
#234 = ORIENTED_EDGE ( 'NONE', *, *, #148, .T. ) ;
#235 = DIRECTION ( 'NONE',  ( 0.0000000000000000000, -0.0000000000000000000, 1.000000000000000000 ) ) ;
#236 = DIRECTION ( 'NONE',  ( 0.0000000000000000000, 0.0000000000000000000, 1.000000000000000000 ) ) ;
#237 = ORIENTED_EDGE ( 'NONE', *, *, #205, .T. ) ;
#238 = CARTESIAN_POINT ( 'NONE',  ( 0.0000000000000000000, 0.0000000000000000000, 0.0000000000000000000 ) ) ;
#239 = CIRCLE ( 'NONE', #60, 11.85000000000000000 ) ;
#240 = EDGE_LOOP ( 'NONE', ( #68, #189 ) ) ;
#241 = APPLICATION_PROTOCOL_DEFINITION ( 'international standard', 'config_control_design', 1994, #121 ) ;
#242 = PERSON_AND_ORGANIZATION_ROLE ( 'design_owner' ) ;
#243 = CIRCLE ( 'NONE', #159, 11.84999999999999600 ) ;
#244 = VERTEX_POINT ( 'NONE', #158 ) ;
#245 = DIRECTION ( 'NONE',  ( 0.0000000000000000000, 0.0000000000000000000, 1.000000000000000000 ) ) ;
#246 = AXIS2_PLACEMENT_3D ( 'NONE', #89, #14, #10 ) ;
#247 = CALENDAR_DATE ( 2020, 16, 12 ) ;
#248 = CIRCLE ( 'NONE', #98, 16.65000000000000200 ) ;
#249 = DIRECTION ( 'NONE',  ( 1.000000000000000000, 0.0000000000000000000, 0.0000000000000000000 ) ) ;
#250 = ADVANCED_FACE ( 'NONE', ( #219 ), #37, .T. ) ;
#251 = CIRCLE ( 'NONE', #75, 13.44999999999999900 ) ;
#252 = AXIS2_PLACEMENT_3D ( 'NONE', #28, #197, #236 ) ;
#253 = ADVANCED_FACE ( 'NONE', ( #17, #110 ), #99, .T. ) ;
ENDSEC;
END-ISO-10303-21;
