ISO-10303-21;
HEADER;
FILE_DESCRIPTION (( 'STEP AP203' ),
    '1' );
FILE_NAME ('3D_R175_DN25x2_17336160.STEP',
    '2024-07-18T09:59:46',
    ( '' ),
    ( '' ),
    'SwSTEP 2.0',
    'SolidWorks 2024',
    '' );
FILE_SCHEMA (( 'CONFIG_CONTROL_DESIGN' ));
ENDSEC;

DATA;
#1 = DIRECTION ( 'NONE',  ( 0.000000000000000000, 0.000000000000000000, 1.000000000000000000 ) ) ;
#2 = ORIENTED_EDGE ( 'NONE', *, *, #132, .T. ) ;
#3 = LINE ( 'NONE', #54, #47 ) ;
#4 = EDGE_CURVE ( 'NONE', #14, #194, #279, .T. ) ;
#5 = AXIS2_PLACEMENT_3D ( 'NONE', #342, #284, #303 ) ;
#6 = CIRCLE ( 'NONE', #171, 1.749999999999999778 ) ;
#7 = ADVANCED_FACE ( 'NONE', ( #328 ), #126, .T. ) ;
#8 = ORIENTED_EDGE ( 'NONE', *, *, #4, .F. ) ;
#9 = ORIENTED_EDGE ( 'NONE', *, *, #185, .T. ) ;
#10 = EDGE_CURVE ( 'NONE', #163, #324, #258, .T. ) ;
#11 = APPROVAL_DATE_TIME ( #235, #214 ) ;
#12 = CARTESIAN_POINT ( 'NONE',  ( 1.734723475976807094E-15, 7.186057606953934140, 0.000000000000000000 ) ) ;
#13 = APPROVAL ( #326, 'UNSPECIFIED' ) ;
#14 = VERTEX_POINT ( 'NONE', #204 ) ;
#15 = AXIS2_PLACEMENT_3D ( 'NONE', #335, #330, #18 ) ;
#16 = LOCAL_TIME ( 11, 59, 46.00000000000000000, #202 ) ;
#17 = ORIENTED_EDGE ( 'NONE', *, *, #267, .T. ) ;
#18 = DIRECTION ( 'NONE',  ( -1.000000000000000000, 0.000000000000000000, 0.000000000000000000 ) ) ;
#19 = EDGE_CURVE ( 'NONE', #166, #53, #177, .T. ) ;
#20 = CARTESIAN_POINT ( 'NONE',  ( 9.236488298952508525E-16, 0.000000000000000000, 0.000000000000000000 ) ) ;
#21 = APPLICATION_CONTEXT ( 'configuration controlled 3d designs of mechanical parts and assemblies' ) ;
#22 = CIRCLE ( 'NONE', #108, 10.50000000000000000 ) ;
#23 = DIRECTION ( 'NONE',  ( -1.000000000000000000, 0.000000000000000000, 0.000000000000000000 ) ) ;
#24 = FACE_OUTER_BOUND ( 'NONE', #345, .T. ) ;
#25 = CARTESIAN_POINT ( 'NONE',  ( 9.561618959757063522E-16, 7.072696467649741692, 0.000000000000000000 ) ) ;
#26 = AXIS2_PLACEMENT_3D ( 'NONE', #249, #253, #252 ) ;
#27 = APPROVAL ( #264, 'UNSPECIFIED' ) ;
#28 = PERSON_AND_ORGANIZATION ( #327, #239 ) ;
#29 = DIRECTION ( 'NONE',  ( -1.000000000000000000, 0.000000000000000000, 0.000000000000000000 ) ) ;
#30 = ORIENTED_EDGE ( 'NONE', *, *, #19, .F. ) ;
#31 = CIRCLE ( 'NONE', #137, 10.50000000000000000 ) ;
#32 = ADVANCED_FACE ( 'NONE', ( #173 ), #319, .T. ) ;
#33 = DATE_TIME_ROLE ( 'classification_date' ) ;
#34 = ORIENTED_EDGE ( 'NONE', *, *, #192, .T. ) ;
#35 = CALENDAR_DATE ( 2024, 18, 7 ) ;
#36 = ORIENTED_EDGE ( 'NONE', *, *, #110, .T. ) ;
#37 = CARTESIAN_POINT ( 'NONE',  ( 12.50000000000000178, 7.186057606953788479, 1.530808498934191521E-15 ) ) ;
#38 = EDGE_LOOP ( 'NONE', ( #17, #354 ) ) ;
#39 = CC_DESIGN_PERSON_AND_ORGANIZATION_ASSIGNMENT ( #28, #308, ( #117 ) ) ;
#40 = SECURITY_CLASSIFICATION_LEVEL ( 'unclassified' ) ;
#41 = VERTEX_POINT ( 'NONE', #95 ) ;
#42 = CARTESIAN_POINT ( 'NONE',  ( 2.081899558550488052E-15, -4.999999999999999112, 0.000000000000000000 ) ) ;
#43 = AXIS2_PLACEMENT_3D ( 'NONE', #156, #298, #302 ) ;
#44 = DIRECTION ( 'NONE',  ( 1.000000000000000000, 0.000000000000000000, 0.000000000000000000 ) ) ;
#45 = CARTESIAN_POINT ( 'NONE',  ( 10.50000000000000178, -4.826832247167361315E-17, 1.285879139104720831E-15 ) ) ;
#46 = CARTESIAN_POINT ( 'NONE',  ( 9.627158414547030465E-16, 8.498402272318017481, 0.000000000000000000 ) ) ;
#47 = VECTOR ( 'NONE', #116, 1000.000000000000000 ) ;
#48 = DIRECTION ( 'NONE',  ( -1.000000000000000000, 0.000000000000000000, 0.000000000000000000 ) ) ;
#49 = AXIS2_PLACEMENT_3D ( 'NONE', #67, #175, #293 ) ;
#50 = ADVANCED_BREP_SHAPE_REPRESENTATION ( '3D_R175_DN25x2_17336160', ( #259, #26 ), #61 ) ;
#51 = DIRECTION ( 'NONE',  ( -1.000000000000000000, 4.596983092540343816E-18, 0.000000000000000000 ) ) ;
#52 = APPLICATION_CONTEXT ( 'configuration controlled 3d designs of mechanical parts and assemblies' ) ;
#53 = VERTEX_POINT ( 'NONE', #37 ) ;
#54 = CARTESIAN_POINT ( 'NONE',  ( -10.49999999999998757, 2817.965330118411202, 0.000000000000000000 ) ) ;
#55 = LOCAL_TIME ( 11, 59, 46.00000000000000000, #347 ) ;
#56 = DIRECTION ( 'NONE',  ( 4.596983092540343816E-18, 1.000000000000000000, -0.000000000000000000 ) ) ;
#57 = EDGE_LOOP ( 'NONE', ( #146, #288, #36 ) ) ;
#58 = VERTEX_POINT ( 'NONE', #294 ) ;
#59 = DIRECTION ( 'NONE',  ( 1.000000000000000000, -4.596983092540343816E-18, 0.000000000000000000 ) ) ;
#60 = EDGE_LOOP ( 'NONE', ( #238, #128, #282, #307 ) ) ;
#61 =( GEOMETRIC_REPRESENTATION_CONTEXT ( 3 ) GLOBAL_UNCERTAINTY_ASSIGNED_CONTEXT ( ( #277 ) ) GLOBAL_UNIT_ASSIGNED_CONTEXT ( ( #255, #139, #91 ) ) REPRESENTATION_CONTEXT ( 'NONE', 'WORKASPACE' ) );
#62 = SECURITY_CLASSIFICATION ( '', '', #40 ) ;
#63 = DATE_AND_TIME ( #174, #122 ) ;
#64 = ORIENTED_EDGE ( 'NONE', *, *, #110, .F. ) ;
#65 = EDGE_CURVE ( 'NONE', #324, #197, #315, .T. ) ;
#66 = EDGE_CURVE ( 'NONE', #304, #89, #352, .T. ) ;
#67 = CARTESIAN_POINT ( 'NONE',  ( 2.081899558550488052E-15, -4.999999999999999112, 0.000000000000000000 ) ) ;
#68 = ORIENTED_EDGE ( 'NONE', *, *, #147, .F. ) ;
#69 = CC_DESIGN_DATE_AND_TIME_ASSIGNMENT ( #71, #287, ( #273 ) ) ;
#70 = AXIS2_PLACEMENT_3D ( 'NONE', #131, #219, #213 ) ;
#71 = DATE_AND_TIME ( #211, #16 ) ;
#72 = CARTESIAN_POINT ( 'NONE',  ( 10.50000000000001421, 2817.965330118411202, 1.285879139104720831E-15 ) ) ;
#73 = PERSON_AND_ORGANIZATION ( #327, #239 ) ;
#74 = CARTESIAN_POINT ( 'NONE',  ( 12.50000000000001421, 2817.965330118411202, 1.530808498934191521E-15 ) ) ;
#75 = PRODUCT_RELATED_PRODUCT_CATEGORY ( 'detail', '', ( #117 ) ) ;
#76 = PLANE ( 'NONE',  #82 ) ;
#77 = CIRCLE ( 'NONE', #43, 10.50000000000000000 ) ;
#78 = CARTESIAN_POINT ( 'NONE',  ( 9.566830152164392207E-16, 7.186057606953788479, 0.000000000000000000 ) ) ;
#79 = FACE_OUTER_BOUND ( 'NONE', #268, .T. ) ;
#80 = CYLINDRICAL_SURFACE ( 'NONE', #190, 12.50000000000000000 ) ;
#81 = EDGE_CURVE ( 'NONE', #53, #89, #285, .T. ) ;
#82 = AXIS2_PLACEMENT_3D ( 'NONE', #160, #243, #270 ) ;
#83 = FACE_OUTER_BOUND ( 'NONE', #199, .T. ) ;
#84 = DIRECTION ( 'NONE',  ( -1.000000000000000000, 0.000000000000000000, 0.000000000000000000 ) ) ;
#85 = ORIENTED_EDGE ( 'NONE', *, *, #105, .T. ) ;
#86 = ADVANCED_FACE ( 'NONE', ( #215 ), #191, .F. ) ;
#87 = DIRECTION ( 'NONE',  ( 0.000000000000000000, 0.000000000000000000, 1.000000000000000000 ) ) ;
#88 = CARTESIAN_POINT ( 'NONE',  ( -12.49999999999999822, 5.746228865675429462E-17, 0.000000000000000000 ) ) ;
#89 = VERTEX_POINT ( 'NONE', #162 ) ;
#90 = ORIENTED_EDGE ( 'NONE', *, *, #201, .T. ) ;
#91 =( NAMED_UNIT ( * ) SI_UNIT ( $, .STERADIAN. ) SOLID_ANGLE_UNIT ( ) );
#92 = EDGE_LOOP ( 'NONE', ( #9, #262, #265, #314 ) ) ;
#93 = AXIS2_PLACEMENT_3D ( 'NONE', #200, #247, #111 ) ;
#94 = COORDINATED_UNIVERSAL_TIME_OFFSET ( 1, 0, .AHEAD. ) ;
#95 = CARTESIAN_POINT ( 'NONE',  ( -11.90769230769230802, 8.498402272318017481, 0.000000000000000000 ) ) ;
#96 = CARTESIAN_POINT ( 'NONE',  ( -12.49999999999998757, 2817.965330118411202, 0.000000000000000000 ) ) ;
#97 = CIRCLE ( 'NONE', #210, 12.50000000000000000 ) ;
#98 = CIRCLE ( 'NONE', #203, 1.749999999999999778 ) ;
#99 = CALENDAR_DATE ( 2024, 18, 7 ) ;
#100 = EDGE_LOOP ( 'NONE', ( #30, #123, #348, #289 ) ) ;
#101 = ADVANCED_FACE ( 'NONE', ( #79 ), #134, .F. ) ;
#102 = CARTESIAN_POINT ( 'NONE',  ( 12.50000000000000178, -5.746228865675429462E-17, 1.530808498934191521E-15 ) ) ;
#103 = DIRECTION ( 'NONE',  ( -1.000000000000000000, 0.000000000000000000, 0.000000000000000000 ) ) ;
#104 = CARTESIAN_POINT ( 'NONE',  ( 1.175733848713251086E-15, 11.00000000000000178, 0.000000000000000000 ) ) ;
#105 = EDGE_CURVE ( 'NONE', #89, #53, #274, .T. ) ;
#106 = FACE_OUTER_BOUND ( 'NONE', #92, .T. ) ;
#107 = DIRECTION ( 'NONE',  ( -1.000000000000000000, 0.000000000000000000, 0.000000000000000000 ) ) ;
#108 = AXIS2_PLACEMENT_3D ( 'NONE', #157, #334, #44 ) ;
#109 = CYLINDRICAL_SURFACE ( 'NONE', #5, 12.50000000000000000 ) ;
#110 = EDGE_CURVE ( 'NONE', #58, #197, #115, .T. ) ;
#111 = DIRECTION ( 'NONE',  ( -1.000000000000000000, 0.000000000000000000, 0.000000000000000000 ) ) ;
#112 = DIRECTION ( 'NONE',  ( -1.000000000000000000, 4.596983092540343816E-18, 0.000000000000000000 ) ) ;
#113 = AXIS2_PLACEMENT_3D ( 'NONE', #78, #183, #129 ) ;
#114 = APPROVAL_PERSON_ORGANIZATION ( #179, #27, #150 ) ;
#115 = CIRCLE ( 'NONE', #336, 16.00000000000000000 ) ;
#116 = DIRECTION ( 'NONE',  ( 4.596983092540343816E-18, 1.000000000000000000, -0.000000000000000000 ) ) ;
#117 = PRODUCT ( '3D_R175_DN25x2_17336160', '3D_R175_DN25x2_17336160', '', ( #193 ) ) ;
#118 = PERSON_AND_ORGANIZATION ( #327, #239 ) ;
#119 = PERSON_AND_ORGANIZATION_ROLE ( 'creator' ) ;
#120 = ORIENTED_EDGE ( 'NONE', *, *, #221, .T. ) ;
#121 = AXIS2_PLACEMENT_3D ( 'NONE', #42, #236, #149 ) ;
#122 = LOCAL_TIME ( 11, 59, 46.00000000000000000, #237 ) ;
#123 = ORIENTED_EDGE ( 'NONE', *, *, #263, .T. ) ;
#124 = DATE_AND_TIME ( #99, #55 ) ;
#125 = EDGE_LOOP ( 'NONE', ( #311, #152, #64 ) ) ;
#126 = TOROIDAL_SURFACE ( 'NONE', #176, 10.75000000000000178, 1.749999999999999556 ) ;
#127 = VECTOR ( 'NONE', #266, 1000.000000000000000 ) ;
#128 = ORIENTED_EDGE ( 'NONE', *, *, #267, .F. ) ;
#129 = DIRECTION ( 'NONE',  ( -1.000000000000000000, 0.000000000000000000, 0.000000000000000000 ) ) ;
#130 = EDGE_CURVE ( 'NONE', #58, #324, #144, .T. ) ;
#131 = CARTESIAN_POINT ( 'NONE',  ( 2.081899558550488052E-15, -4.999999999999999112, 0.000000000000000000 ) ) ;
#132 = EDGE_CURVE ( 'NONE', #53, #14, #98, .T. ) ;
#133 = CARTESIAN_POINT ( 'NONE',  ( -10.75000000000000000, 7.186057606953934140, 0.000000000000000000 ) ) ;
#134 = CYLINDRICAL_SURFACE ( 'NONE', #15, 10.50000000000000000 ) ;
#135 = DIRECTION ( 'NONE',  ( -1.000000000000000000, 0.000000000000000000, 0.000000000000000000 ) ) ;
#136 = CC_DESIGN_PERSON_AND_ORGANIZATION_ASSIGNMENT ( #260, #181, ( #62 ) ) ;
#137 = AXIS2_PLACEMENT_3D ( 'NONE', #343, #195, #59 ) ;
#138 = FACE_OUTER_BOUND ( 'NONE', #341, .T. ) ;
#139 =( NAMED_UNIT ( * ) PLANE_ANGLE_UNIT ( ) SI_UNIT ( $, .RADIAN. ) );
#140 = SPHERICAL_SURFACE ( 'NONE', #254, 18.00000000000000000 ) ;
#141 = ADVANCED_FACE ( 'NONE', ( #357, #83 ), #76, .T. ) ;
#142 = APPLICATION_PROTOCOL_DEFINITION ( 'international standard', 'config_control_design', 1994, #52 ) ;
#143 = AXIS2_PLACEMENT_3D ( 'NONE', #170, #168, #135 ) ;
#144 = CIRCLE ( 'NONE', #256, 10.50000000000000000 ) ;
#145 = SHAPE_DEFINITION_REPRESENTATION ( #224, #50 ) ;
#146 = ORIENTED_EDGE ( 'NONE', *, *, #65, .F. ) ;
#147 = EDGE_CURVE ( 'NONE', #163, #257, #77, .T. ) ;
#148 = CALENDAR_DATE ( 2024, 18, 7 ) ;
#149 = DIRECTION ( 'NONE',  ( 1.000000000000000000, 0.000000000000000000, 1.224646799147353207E-16 ) ) ;
#150 = APPROVAL_ROLE ( '' ) ;
#151 = ORIENTED_EDGE ( 'NONE', *, *, #4, .T. ) ;
#152 = ORIENTED_EDGE ( 'NONE', *, *, #65, .T. ) ;
#153 = ORIENTED_EDGE ( 'NONE', *, *, #185, .F. ) ;
#154 = VECTOR ( 'NONE', #232, 1000.000000000000000 ) ;
#155 = CARTESIAN_POINT ( 'NONE',  ( 1.062463134983596564E-15, 13.00000000000000000, 0.000000000000000000 ) ) ;
#156 = CARTESIAN_POINT ( 'NONE',  ( 9.236488298952508525E-16, 0.000000000000000000, 0.000000000000000000 ) ) ;
#157 = CARTESIAN_POINT ( 'NONE',  ( 9.561618959757063522E-16, 7.072696467649741692, 0.000000000000000000 ) ) ;
#158 = AXIS2_PLACEMENT_3D ( 'NONE', #313, #87, #84 ) ;
#159 = AXIS2_PLACEMENT_3D ( 'NONE', #46, #246, #23 ) ;
#160 = CARTESIAN_POINT ( 'NONE',  ( -1.320765847068861367E-34, -2.873114432837714115E-17, 0.000000000000000000 ) ) ;
#161 = EDGE_CURVE ( 'NONE', #324, #58, #22, .T. ) ;
#162 = CARTESIAN_POINT ( 'NONE',  ( -12.49999999999999822, 7.186057606953788479, 0.000000000000000000 ) ) ;
#163 = VERTEX_POINT ( 'NONE', #45 ) ;
#164 = CC_DESIGN_APPROVAL ( #214, ( #62 ) ) ;
#165 = CARTESIAN_POINT ( 'NONE',  ( -10.49999999999999822, 4.826832247167361315E-17, 0.000000000000000000 ) ) ;
#166 = VERTEX_POINT ( 'NONE', #102 ) ;
#167 = SPHERICAL_SURFACE ( 'NONE', #158, 16.00000000000000000 ) ;
#168 = DIRECTION ( 'NONE',  ( 0.000000000000000000, 0.000000000000000000, 1.000000000000000000 ) ) ;
#169 = ORIENTED_EDGE ( 'NONE', *, *, #297, .F. ) ;
#170 = CARTESIAN_POINT ( 'NONE',  ( 2.081899558550488052E-15, -4.999999999999999112, 0.000000000000000000 ) ) ;
#171 = AXIS2_PLACEMENT_3D ( 'NONE', #133, #300, #245 ) ;
#172 = COORDINATED_UNIVERSAL_TIME_OFFSET ( 1, 0, .AHEAD. ) ;
#173 = FACE_OUTER_BOUND ( 'NONE', #286, .T. ) ;
#174 = CALENDAR_DATE ( 2024, 18, 7 ) ;
#175 = DIRECTION ( 'NONE',  ( 0.000000000000000000, 0.000000000000000000, 1.000000000000000000 ) ) ;
#176 = AXIS2_PLACEMENT_3D ( 'NONE', #12, #206, #321 ) ;
#177 = LINE ( 'NONE', #74, #184 ) ;
#178 = CC_DESIGN_SECURITY_CLASSIFICATION ( #62, ( #272 ) ) ;
#179 = PERSON_AND_ORGANIZATION ( #327, #239 ) ;
#180 = DIRECTION ( 'NONE',  ( 4.596983092540343816E-18, 1.000000000000000000, -0.000000000000000000 ) ) ;
#181 = PERSON_AND_ORGANIZATION_ROLE ( 'classification_officer' ) ;
#182 = ORIENTED_EDGE ( 'NONE', *, *, #192, .F. ) ;
#183 = DIRECTION ( 'NONE',  ( 4.596983092540343816E-18, 1.000000000000000000, -0.000000000000000000 ) ) ;
#184 = VECTOR ( 'NONE', #180, 1000.000000000000000 ) ;
#185 = EDGE_CURVE ( 'NONE', #304, #166, #248, .T. ) ;
#186 = DIRECTION ( 'NONE',  ( 1.000000000000000000, 0.000000000000000000, 0.000000000000000000 ) ) ;
#187 = CARTESIAN_POINT ( 'NONE',  ( 10.75000000000000355, 7.186057606953934140, 1.316495309083405012E-15 ) ) ;
#188 = CARTESIAN_POINT ( 'NONE',  ( 1.387778780781445676E-14, 2817.965330118411202, 0.000000000000000000 ) ) ;
#189 = CLOSED_SHELL ( 'NONE', ( #351, #101, #337, #196, #228, #141, #299, #7, #32, #86, #332 ) ) ;
#190 = AXIS2_PLACEMENT_3D ( 'NONE', #188, #359, #107 ) ;
#191 = CYLINDRICAL_SURFACE ( 'NONE', #301, 10.50000000000000000 ) ;
#192 = EDGE_CURVE ( 'NONE', #41, #194, #207, .T. ) ;
#193 = MECHANICAL_CONTEXT ( 'NONE', #52, 'mechanical' ) ;
#194 = VERTEX_POINT ( 'NONE', #155 ) ;
#195 = DIRECTION ( 'NONE',  ( 4.596983092540343816E-18, 1.000000000000000000, -0.000000000000000000 ) ) ;
#196 = ADVANCED_FACE ( 'NONE', ( #24 ), #322, .T. ) ;
#197 = VERTEX_POINT ( 'NONE', #104 ) ;
#198 = CARTESIAN_POINT ( 'NONE',  ( 2.081899558550488052E-15, -4.999999999999999112, 0.000000000000000000 ) ) ;
#199 = EDGE_LOOP ( 'NONE', ( #153, #250 ) ) ;
#200 = CARTESIAN_POINT ( 'NONE',  ( 9.627158414547030465E-16, 8.498402272318017481, 0.000000000000000000 ) ) ;
#201 = EDGE_CURVE ( 'NONE', #14, #41, #231, .T. ) ;
#202 = COORDINATED_UNIVERSAL_TIME_OFFSET ( 1, 0, .AHEAD. ) ;
#203 = AXIS2_PLACEMENT_3D ( 'NONE', #187, #356, #271 ) ;
#204 = CARTESIAN_POINT ( 'NONE',  ( 11.90769230769231157, 8.498402272318017481, 1.494540112959443244E-15 ) ) ;
#205 = CARTESIAN_POINT ( 'NONE',  ( 2.081899558550488052E-15, -4.999999999999999112, 0.000000000000000000 ) ) ;
#206 = DIRECTION ( 'NONE',  ( 4.596983092540343816E-18, 1.000000000000000000, -0.000000000000000000 ) ) ;
#207 = CIRCLE ( 'NONE', #70, 18.00000000000000000 ) ;
#208 = ORIENTED_EDGE ( 'NONE', *, *, #201, .F. ) ;
#209 = CC_DESIGN_PERSON_AND_ORGANIZATION_ASSIGNMENT ( #118, #119, ( #272 ) ) ;
#210 = AXIS2_PLACEMENT_3D ( 'NONE', #220, #56, #112 ) ;
#211 = CALENDAR_DATE ( 2024, 18, 7 ) ;
#212 = DIRECTION ( 'NONE',  ( 1.000000000000000000, 0.000000000000000000, 1.224646799147352961E-16 ) ) ;
#213 = DIRECTION ( 'NONE',  ( -1.000000000000000000, 0.000000000000000000, 0.000000000000000000 ) ) ;
#214 = APPROVAL ( #230, 'UNSPECIFIED' ) ;
#215 = FACE_OUTER_BOUND ( 'NONE', #60, .T. ) ;
#216 = LOCAL_TIME ( 11, 59, 46.00000000000000000, #172 ) ;
#217 = CARTESIAN_POINT ( 'NONE',  ( 1.734723475976807094E-15, 7.186057606953934140, 0.000000000000000000 ) ) ;
#218 = DIRECTION ( 'NONE',  ( 4.596983092540343816E-18, 1.000000000000000000, -0.000000000000000000 ) ) ;
#219 = DIRECTION ( 'NONE',  ( -0.000000000000000000, 0.000000000000000000, -1.000000000000000000 ) ) ;
#220 = CARTESIAN_POINT ( 'NONE',  ( 9.236488298952508525E-16, 0.000000000000000000, 0.000000000000000000 ) ) ;
#221 = EDGE_CURVE ( 'NONE', #89, #41, #6, .T. ) ;
#222 = SPHERICAL_SURFACE ( 'NONE', #143, 16.00000000000000000 ) ;
#223 = ORIENTED_EDGE ( 'NONE', *, *, #297, .T. ) ;
#224 = PRODUCT_DEFINITION_SHAPE ( 'NONE', 'NONE',  #273 ) ;
#225 = AXIS2_PLACEMENT_3D ( 'NONE', #20, #275, #51 ) ;
#226 = FACE_OUTER_BOUND ( 'NONE', #57, .T. ) ;
#227 = ORIENTED_EDGE ( 'NONE', *, *, #81, .T. ) ;
#228 = ADVANCED_FACE ( 'NONE', ( #106 ), #80, .T. ) ;
#229 = PERSON_AND_ORGANIZATION_ROLE ( 'design_supplier' ) ;
#230 = APPROVAL_STATUS ( 'not_yet_approved' ) ;
#231 = CIRCLE ( 'NONE', #159, 11.90769230769230980 ) ;
#232 = DIRECTION ( 'NONE',  ( 4.596983092540343816E-18, 1.000000000000000000, -0.000000000000000000 ) ) ;
#233 = APPROVAL_DATE_TIME ( #124, #13 ) ;
#234 = ORIENTED_EDGE ( 'NONE', *, *, #10, .T. ) ;
#235 = DATE_AND_TIME ( #35, #216 ) ;
#236 = DIRECTION ( 'NONE',  ( -1.224646799147353207E-16, 5.629680630014033300E-34, 1.000000000000000000 ) ) ;
#237 = COORDINATED_UNIVERSAL_TIME_OFFSET ( 1, 0, .AHEAD. ) ;
#238 = ORIENTED_EDGE ( 'NONE', *, *, #10, .F. ) ;
#239 = ORGANIZATION ( 'UNSPECIFIED', 'UNSPECIFIED', '' ) ;
#240 = CIRCLE ( 'NONE', #93, 11.90769230769230980 ) ;
#241 = CARTESIAN_POINT ( 'NONE',  ( 2.081899558550488052E-15, -4.999999999999999112, 0.000000000000000000 ) ) ;
#242 = CC_DESIGN_PERSON_AND_ORGANIZATION_ASSIGNMENT ( #344, #229, ( #272 ) ) ;
#243 = DIRECTION ( 'NONE',  ( -4.596983092540343816E-18, -1.000000000000000000, 0.000000000000000000 ) ) ;
#244 = DIRECTION ( 'NONE',  ( 4.596983092540336883E-18, 1.000000000000000000, -0.000000000000000000 ) ) ;
#245 = DIRECTION ( 'NONE',  ( -1.000000000000000000, 0.000000000000000000, 0.000000000000000000 ) ) ;
#246 = DIRECTION ( 'NONE',  ( 4.596983092540343816E-18, 1.000000000000000000, -0.000000000000000000 ) ) ;
#247 = DIRECTION ( 'NONE',  ( 4.596983092540343816E-18, 1.000000000000000000, -0.000000000000000000 ) ) ;
#248 = CIRCLE ( 'NONE', #225, 12.50000000000000000 ) ;
#249 = CARTESIAN_POINT ( 'NONE',  ( 0.000000000000000000, 0.000000000000000000, 0.000000000000000000 ) ) ;
#250 = ORIENTED_EDGE ( 'NONE', *, *, #263, .F. ) ;
#251 = EDGE_CURVE ( 'NONE', #257, #58, #3, .T. ) ;
#252 = DIRECTION ( 'NONE',  ( 1.000000000000000000, 0.000000000000000000, 0.000000000000000000 ) ) ;
#253 = DIRECTION ( 'NONE',  ( 0.000000000000000000, 0.000000000000000000, 1.000000000000000000 ) ) ;
#254 = AXIS2_PLACEMENT_3D ( 'NONE', #198, #1, #29 ) ;
#255 =( LENGTH_UNIT ( ) NAMED_UNIT ( * ) SI_UNIT ( .MILLI., .METRE. ) );
#256 = AXIS2_PLACEMENT_3D ( 'NONE', #25, #244, #186 ) ;
#257 = VERTEX_POINT ( 'NONE', #165 ) ;
#258 = LINE ( 'NONE', #72, #154 ) ;
#259 = MANIFOLD_SOLID_BREP ( 'Wandung1', #189 ) ;
#260 = PERSON_AND_ORGANIZATION ( #327, #239 ) ;
#261 = APPROVAL_PERSON_ORGANIZATION ( #316, #214, #292 ) ;
#262 = ORIENTED_EDGE ( 'NONE', *, *, #19, .T. ) ;
#263 = EDGE_CURVE ( 'NONE', #166, #304, #97, .T. ) ;
#264 = APPROVAL_STATUS ( 'not_yet_approved' ) ;
#265 = ORIENTED_EDGE ( 'NONE', *, *, #105, .F. ) ;
#266 = DIRECTION ( 'NONE',  ( 4.596983092540343816E-18, 1.000000000000000000, -0.000000000000000000 ) ) ;
#267 = EDGE_CURVE ( 'NONE', #257, #163, #31, .T. ) ;
#268 = EDGE_LOOP ( 'NONE', ( #68, #234, #278, #350 ) ) ;
#269 = CARTESIAN_POINT ( 'NONE',  ( 1.387778780781445676E-14, 2817.965330118411202, 0.000000000000000000 ) ) ;
#270 = DIRECTION ( 'NONE',  ( 1.000000000000000000, -4.596983092540343816E-18, 0.000000000000000000 ) ) ;
#271 = DIRECTION ( 'NONE',  ( 1.000000000000000000, 0.000000000000000000, 1.224646799147352961E-16 ) ) ;
#272 = PRODUCT_DEFINITION_FORMATION_WITH_SPECIFIED_SOURCE ( 'ANY', '', #117, .NOT_KNOWN. ) ;
#273 = PRODUCT_DEFINITION ( 'UNKNOWN', '', #272, #305 ) ;
#274 = CIRCLE ( 'NONE', #113, 12.50000000000000000 ) ;
#275 = DIRECTION ( 'NONE',  ( 4.596983092540343816E-18, 1.000000000000000000, -0.000000000000000000 ) ) ;
#276 = DIRECTION ( 'NONE',  ( 4.596983092540343816E-18, 1.000000000000000000, -0.000000000000000000 ) ) ;
#277 = UNCERTAINTY_MEASURE_WITH_UNIT (LENGTH_MEASURE( 1.000000000000000082E-05 ), #255, 'distance_accuracy_value', 'NONE');
#278 = ORIENTED_EDGE ( 'NONE', *, *, #161, .T. ) ;
#279 = CIRCLE ( 'NONE', #338, 18.00000000000000000 ) ;
#280 = APPROVAL_PERSON_ORGANIZATION ( #73, #13, #318 ) ;
#281 = CARTESIAN_POINT ( 'NONE',  ( 10.50000000000000178, 7.072696467649741692, 1.285879139104720831E-15 ) ) ;
#282 = ORIENTED_EDGE ( 'NONE', *, *, #251, .T. ) ;
#283 = CC_DESIGN_APPROVAL ( #13, ( #273 ) ) ;
#284 = DIRECTION ( 'NONE',  ( 4.596983092540343816E-18, 1.000000000000000000, -0.000000000000000000 ) ) ;
#285 = CIRCLE ( 'NONE', #295, 12.50000000000000000 ) ;
#286 = EDGE_LOOP ( 'NONE', ( #8, #90, #34 ) ) ;
#287 = DATE_TIME_ROLE ( 'creation_date' ) ;
#288 = ORIENTED_EDGE ( 'NONE', *, *, #130, .F. ) ;
#289 = ORIENTED_EDGE ( 'NONE', *, *, #81, .F. ) ;
#290 = CC_DESIGN_DATE_AND_TIME_ASSIGNMENT ( #349, #33, ( #62 ) ) ;
#291 = ORIENTED_EDGE ( 'NONE', *, *, #221, .F. ) ;
#292 = APPROVAL_ROLE ( '' ) ;
#293 = DIRECTION ( 'NONE',  ( -1.000000000000000000, 0.000000000000000000, 0.000000000000000000 ) ) ;
#294 = CARTESIAN_POINT ( 'NONE',  ( -10.49999999999999822, 7.072696467649741692, 0.000000000000000000 ) ) ;
#295 = AXIS2_PLACEMENT_3D ( 'NONE', #296, #276, #103 ) ;
#296 = CARTESIAN_POINT ( 'NONE',  ( 9.566830152164392207E-16, 7.186057606953788479, 0.000000000000000000 ) ) ;
#297 = EDGE_CURVE ( 'NONE', #41, #14, #240, .T. ) ;
#298 = DIRECTION ( 'NONE',  ( 4.596983092540343816E-18, 1.000000000000000000, -0.000000000000000000 ) ) ;
#299 = ADVANCED_FACE ( 'NONE', ( #306 ), #109, .T. ) ;
#300 = DIRECTION ( 'NONE',  ( -0.000000000000000000, 0.000000000000000000, -1.000000000000000000 ) ) ;
#301 = AXIS2_PLACEMENT_3D ( 'NONE', #269, #218, #355 ) ;
#302 = DIRECTION ( 'NONE',  ( 1.000000000000000000, -4.596983092540343816E-18, 0.000000000000000000 ) ) ;
#303 = DIRECTION ( 'NONE',  ( -1.000000000000000000, 0.000000000000000000, 0.000000000000000000 ) ) ;
#304 = VERTEX_POINT ( 'NONE', #88 ) ;
#305 = DESIGN_CONTEXT ( 'detailed design', #21, 'design' ) ;
#306 = FACE_OUTER_BOUND ( 'NONE', #100, .T. ) ;
#307 = ORIENTED_EDGE ( 'NONE', *, *, #130, .T. ) ;
#308 = PERSON_AND_ORGANIZATION_ROLE ( 'design_owner' ) ;
#309 = EDGE_LOOP ( 'NONE', ( #339, #227, #120, #208 ) ) ;
#310 = FACE_OUTER_BOUND ( 'NONE', #125, .T. ) ;
#311 = ORIENTED_EDGE ( 'NONE', *, *, #161, .F. ) ;
#312 = CC_DESIGN_PERSON_AND_ORGANIZATION_ASSIGNMENT ( #323, #320, ( #273 ) ) ;
#313 = CARTESIAN_POINT ( 'NONE',  ( 2.081899558550488052E-15, -4.999999999999999112, 0.000000000000000000 ) ) ;
#314 = ORIENTED_EDGE ( 'NONE', *, *, #66, .F. ) ;
#315 = CIRCLE ( 'NONE', #121, 16.00000000000000000 ) ;
#316 = PERSON_AND_ORGANIZATION ( #327, #239 ) ;
#317 = DIRECTION ( 'NONE',  ( -1.224646799147353207E-16, 5.629680630014033300E-34, 1.000000000000000000 ) ) ;
#318 = APPROVAL_ROLE ( '' ) ;
#319 = SPHERICAL_SURFACE ( 'NONE', #49, 18.00000000000000000 ) ;
#320 = PERSON_AND_ORGANIZATION_ROLE ( 'creator' ) ;
#321 = DIRECTION ( 'NONE',  ( -1.000000000000000000, 4.596983092540343816E-18, 0.000000000000000000 ) ) ;
#322 = TOROIDAL_SURFACE ( 'NONE', #325, 10.75000000000000178, 1.749999999999999556 ) ;
#323 = PERSON_AND_ORGANIZATION ( #327, #239 ) ;
#324 = VERTEX_POINT ( 'NONE', #281 ) ;
#325 = AXIS2_PLACEMENT_3D ( 'NONE', #217, #333, #358 ) ;
#326 = APPROVAL_STATUS ( 'not_yet_approved' ) ;
#327 = PERSON ( 'UNSPECIFIED', 'UNSPECIFIED', 'UNSPECIFIED', ('UNSPECIFIED'), ('UNSPECIFIED'), ('UNSPECIFIED') ) ;
#328 = FACE_OUTER_BOUND ( 'NONE', #309, .T. ) ;
#329 = DIRECTION ( 'NONE',  ( -0.000000000000000000, 0.000000000000000000, -1.000000000000000000 ) ) ;
#330 = DIRECTION ( 'NONE',  ( 4.596983092540343816E-18, 1.000000000000000000, -0.000000000000000000 ) ) ;
#331 = CC_DESIGN_APPROVAL ( #27, ( #272 ) ) ;
#332 = ADVANCED_FACE ( 'NONE', ( #226 ), #167, .F. ) ;
#333 = DIRECTION ( 'NONE',  ( 4.596983092540343816E-18, 1.000000000000000000, -0.000000000000000000 ) ) ;
#334 = DIRECTION ( 'NONE',  ( 4.596983092540336883E-18, 1.000000000000000000, -0.000000000000000000 ) ) ;
#335 = CARTESIAN_POINT ( 'NONE',  ( 1.387778780781445676E-14, 2817.965330118411202, 0.000000000000000000 ) ) ;
#336 = AXIS2_PLACEMENT_3D ( 'NONE', #241, #329, #48 ) ;
#337 = ADVANCED_FACE ( 'NONE', ( #138 ), #140, .T. ) ;
#338 = AXIS2_PLACEMENT_3D ( 'NONE', #205, #317, #212 ) ;
#339 = ORIENTED_EDGE ( 'NONE', *, *, #132, .F. ) ;
#340 = APPLICATION_PROTOCOL_DEFINITION ( 'international standard', 'config_control_design', 1994, #21 ) ;
#341 = EDGE_LOOP ( 'NONE', ( #223, #151, #182 ) ) ;
#342 = CARTESIAN_POINT ( 'NONE',  ( 1.387778780781445676E-14, 2817.965330118411202, 0.000000000000000000 ) ) ;
#343 = CARTESIAN_POINT ( 'NONE',  ( 9.236488298952508525E-16, 0.000000000000000000, 0.000000000000000000 ) ) ;
#344 = PERSON_AND_ORGANIZATION ( #327, #239 ) ;
#345 = EDGE_LOOP ( 'NONE', ( #85, #2, #169, #291 ) ) ;
#346 = LOCAL_TIME ( 11, 59, 46.00000000000000000, #94 ) ;
#347 = COORDINATED_UNIVERSAL_TIME_OFFSET ( 1, 0, .AHEAD. ) ;
#348 = ORIENTED_EDGE ( 'NONE', *, *, #66, .T. ) ;
#349 = DATE_AND_TIME ( #148, #346 ) ;
#350 = ORIENTED_EDGE ( 'NONE', *, *, #251, .F. ) ;
#351 = ADVANCED_FACE ( 'NONE', ( #310 ), #222, .F. ) ;
#352 = LINE ( 'NONE', #96, #127 ) ;
#353 = APPROVAL_DATE_TIME ( #63, #27 ) ;
#354 = ORIENTED_EDGE ( 'NONE', *, *, #147, .T. ) ;
#355 = DIRECTION ( 'NONE',  ( -1.000000000000000000, 0.000000000000000000, 0.000000000000000000 ) ) ;
#356 = DIRECTION ( 'NONE',  ( -1.224646799147353207E-16, 5.629680630014033300E-34, 1.000000000000000000 ) ) ;
#357 = FACE_BOUND ( 'NONE', #38, .T. ) ;
#358 = DIRECTION ( 'NONE',  ( -1.000000000000000000, 4.596983092540343816E-18, 0.000000000000000000 ) ) ;
#359 = DIRECTION ( 'NONE',  ( 4.596983092540343816E-18, 1.000000000000000000, -0.000000000000000000 ) ) ;
ENDSEC;
END-ISO-10303-21;
