ISO-10303-21;
HEADER;
FILE_DESCRIPTION (( 'STEP AP203' ),
    '1' );
FILE_NAME ('11-0232-07_outokumpu.step',
    '2015-08-11T14:07:28',
    ( '' ),
    ( '' ),
    'SwSTEP 2.0',
    'SolidWorks 2008',
    '' );
FILE_SCHEMA (( 'CONFIG_CONTROL_DESIGN' ));
ENDSEC;

DATA;
#1 = ORIENTED_EDGE ( 'NONE', *, *, #5, .T. ) ;
#2 = ORIENTED_EDGE ( 'NONE', *, *, #17, .F. ) ;
#3 = VERTEX_POINT ( 'NONE', #186 ) ;
#4 = VERTEX_POINT ( 'NONE', #185 ) ;
#5 = EDGE_CURVE ( 'NONE', #4, #7, #183, .T. ) ;
#6 = EDGE_CURVE ( 'NONE', #7, #3, #184, .T. ) ;
#7 = VERTEX_POINT ( 'NONE', #58 ) ;
#8 = ADVANCED_FACE ( 'NONE', ( #57 ), #54, .T. ) ;
#9 = ORIENTED_EDGE ( 'NONE', *, *, #6, .T. ) ;
#10 = EDGE_LOOP ( 'NONE', ( #1, #9, #2, #18 ) ) ;
#11 = VERTEX_POINT ( 'NONE', #55 ) ;
#12 = EDGE_LOOP ( 'NONE', ( #15, #25, #26, #37 ) ) ;
#13 = MANIFOLD_SOLID_BREP ( 'NONE', #140 ) ;
#14 = ADVANCED_FACE ( 'NONE', ( #50 ), #47, .F. ) ;
#15 = ORIENTED_EDGE ( 'NONE', *, *, #19, .T. ) ;
#16 = VERTEX_POINT ( 'NONE', #48 ) ;
#17 = EDGE_CURVE ( 'NONE', #11, #3, #43, .T. ) ;
#18 = ORIENTED_EDGE ( 'NONE', *, *, #20, .F. ) ;
#19 = EDGE_CURVE ( 'NONE', #16, #27, #104, .T. ) ;
#20 = EDGE_CURVE ( 'NONE', #4, #11, #105, .T. ) ;
#21 = EDGE_CURVE ( 'NONE', #27, #24, #69, .T. ) ;
#22 = EDGE_CURVE ( 'NONE', #16, #35, #65, .T. ) ;
#23 = ORIENTED_EDGE ( 'NONE', *, *, #19, .F. ) ;
#24 = VERTEX_POINT ( 'NONE', #61 ) ;
#25 = ORIENTED_EDGE ( 'NONE', *, *, #21, .T. ) ;
#26 = ORIENTED_EDGE ( 'NONE', *, *, #36, .F. ) ;
#27 = VERTEX_POINT ( 'NONE', #95 ) ;
#28 = EDGE_LOOP ( 'NONE', ( #23, #151, #150, #149 ) ) ;
#29 = CC_DESIGN_PERSON_AND_ORGANIZATION_ASSIGNMENT ( #31, #30, ( #217 ) ) ;
#30 = PERSON_AND_ORGANIZATION_ROLE ( 'creator' ) ;
#31 = PERSON_AND_ORGANIZATION ( #232, #226 ) ;
#32 = ORIENTED_EDGE ( 'NONE', *, *, #130, .T. ) ;
#33 = ORIENTED_EDGE ( 'NONE', *, *, #22, .T. ) ;
#34 = EDGE_CURVE ( 'NONE', #27, #131, #94, .T. ) ;
#35 = VERTEX_POINT ( 'NONE', #90 ) ;
#36 = EDGE_CURVE ( 'NONE', #35, #24, #88, .T. ) ;
#37 = ORIENTED_EDGE ( 'NONE', *, *, #22, .F. ) ;
#38 = ADVANCED_FACE ( 'NONE', ( #89 ), #163, .F. ) ;
#39 = DIRECTION ( 'NONE',  ( 0.0000000000000000000, -1.000000000000000000, 6.938893903907228400E-017 ) ) ;
#40 = DIRECTION ( 'NONE',  ( -0.0000000000000000000, 9.876183864091557800E-017, 1.000000000000000000 ) ) ;
#41 = CARTESIAN_POINT ( 'NONE',  ( 0.0000000000000000000, 1.530808498934191500E-015, 15.50000000000000200 ) ) ;
#42 = AXIS2_PLACEMENT_3D ( 'NONE', #41, #40, #39 ) ;
#43 = CIRCLE ( 'NONE', #42, 25.00000000000000000 ) ;
#44 = DIRECTION ( 'NONE',  ( 0.0000000000000000000, 1.000000000000000000, -8.278327253528070800E-017 ) ) ;
#45 = DIRECTION ( 'NONE',  ( 0.0000000000000000000, -9.876183864091557800E-017, -1.000000000000000000 ) ) ;
#46 = AXIS2_PLACEMENT_3D ( 'NONE', #49, #45, #44 ) ;
#47 = CONICAL_SURFACE ( 'NONE', #46, 20.95499999999999800, 0.7853981633974530500 ) ;
#48 = CARTESIAN_POINT ( 'NONE',  ( 2.566162614434791200E-015, 20.95499999999999800, -14.76823527530057600 ) ) ;
#49 = CARTESIAN_POINT ( 'NONE',  ( 0.0000000000000000000, -1.458538069270312500E-015, -14.76823527530057400 ) ) ;
#50 = FACE_OUTER_BOUND ( 'NONE', #12, .T. ) ;
#51 = DIRECTION ( 'NONE',  ( 0.0000000000000000000, -1.000000000000000000, 9.876183864091559000E-017 ) ) ;
#52 = DIRECTION ( 'NONE',  ( -0.0000000000000000000, 9.876183864091557800E-017, 1.000000000000000000 ) ) ;
#53 = AXIS2_PLACEMENT_3D ( 'NONE', #56, #52, #51 ) ;
#54 = CYLINDRICAL_SURFACE ( 'NONE', #53, 25.00000000000000000 ) ;
#55 = CARTESIAN_POINT ( 'NONE',  ( 0.0000000000000000000, -25.00000000000000000, 15.50000000000000400 ) ) ;
#56 = CARTESIAN_POINT ( 'NONE',  ( 0.0000000000000000000, 0.0000000000000000000, 0.0000000000000000000 ) ) ;
#57 = FACE_OUTER_BOUND ( 'NONE', #10, .T. ) ;
#58 = CARTESIAN_POINT ( 'NONE',  ( 3.061515884555943100E-015, 25.00000000000000000, -15.50000000000000000 ) ) ;
#59 = DIRECTION ( 'NONE',  ( -0.0000000000000000000, 9.876183864091557800E-017, 1.000000000000000000 ) ) ;
#60 = ADVANCED_FACE ( 'NONE', ( #165 ), #159, .F. ) ;
#61 = CARTESIAN_POINT ( 'NONE',  ( 2.655774987571791900E-015, -21.68676472469943000, -15.49999999999999600 ) ) ;
#62 = DIRECTION ( 'NONE',  ( 0.0000000000000000000, 0.7071067811865507900, -0.7071067811865441300 ) ) ;
#63 = VECTOR ( 'NONE', #62, 1000.000000000000100 ) ;
#64 = CARTESIAN_POINT ( 'NONE',  ( 0.0000000000000000000, 20.95499999999999800, -14.76823527530057600 ) ) ;
#65 = LINE ( 'NONE', #64, #63 ) ;
#66 = DIRECTION ( 'NONE',  ( 8.659274570719397300E-017, -0.7071067811865510100, -0.7071067811865441300 ) ) ;
#67 = VECTOR ( 'NONE', #66, 999.9999999999998900 ) ;
#68 = CARTESIAN_POINT ( 'NONE',  ( 2.566162614434791200E-015, -20.95499999999999800, -14.76823527530057200 ) ) ;
#69 = LINE ( 'NONE', #68, #67 ) ;
#70 = ORIENTED_EDGE ( 'NONE', *, *, #34, .T. ) ;
#71 = ORIENTED_EDGE ( 'NONE', *, *, #127, .T. ) ;
#72 = CALENDAR_DATE ( 2015, 11, 8 ) ;
#73 = LOCAL_TIME ( 16, 7, 28.00000000000000000, #74 ) ;
#74 = COORDINATED_UNIVERSAL_TIME_OFFSET ( 1, 0, .AHEAD. ) ;
#75 = ORIENTED_EDGE ( 'NONE', *, *, #76, .F. ) ;
#76 = EDGE_CURVE ( 'NONE', #3, #11, #174, .T. ) ;
#77 = EDGE_LOOP ( 'NONE', ( #138, #139 ) ) ;
#78 = ORIENTED_EDGE ( 'NONE', *, *, #144, .T. ) ;
#79 = ORIENTED_EDGE ( 'NONE', *, *, #20, .T. ) ;
#80 = ADVANCED_FACE ( 'NONE', ( #169 ), #168, .T. ) ;
#81 = ORIENTED_EDGE ( 'NONE', *, *, #6, .F. ) ;
#82 = ADVANCED_FACE ( 'NONE', ( #126, #123 ), #122, .F. ) ;
#83 = CARTESIAN_POINT ( 'NONE',  ( 0.0000000000000000000, 0.0000000000000000000, 0.0000000000000000000 ) ) ;
#84 = DIRECTION ( 'NONE',  ( 0.0000000000000000000, -1.000000000000000000, 7.998996152713828800E-017 ) ) ;
#85 = DIRECTION ( 'NONE',  ( -0.0000000000000000000, 9.876183864091557800E-017, 1.000000000000000000 ) ) ;
#86 = CARTESIAN_POINT ( 'NONE',  ( 0.0000000000000000000, -1.530808498934191100E-015, -15.49999999999999800 ) ) ;
#87 = AXIS2_PLACEMENT_3D ( 'NONE', #86, #85, #84 ) ;
#88 = CIRCLE ( 'NONE', #87, 21.68676472469943000 ) ;
#89 = FACE_OUTER_BOUND ( 'NONE', #28, .T. ) ;
#90 = CARTESIAN_POINT ( 'NONE',  ( 0.0000000000000000000, 21.68676472469943000, -15.50000000000000000 ) ) ;
#91 = DIRECTION ( 'NONE',  ( -0.0000000000000000000, 9.876183864091557800E-017, 1.000000000000000000 ) ) ;
#92 = VECTOR ( 'NONE', #91, 1000.000000000000000 ) ;
#93 = CARTESIAN_POINT ( 'NONE',  ( 0.0000000000000000000, -20.95499999999999500, 2.069554328720385500E-015 ) ) ;
#94 = LINE ( 'NONE', #93, #92 ) ;
#95 = CARTESIAN_POINT ( 'NONE',  ( 0.0000000000000000000, -20.95499999999999800, -14.76823527530057200 ) ) ;
#96 = EDGE_LOOP ( 'NONE', ( #187, #32, #33, #147 ) ) ;
#97 = DIRECTION ( 'NONE',  ( -0.0000000000000000000, 9.876183864091557800E-017, 1.000000000000000000 ) ) ;
#98 = VECTOR ( 'NONE', #97, 1000.000000000000000 ) ;
#99 = CARTESIAN_POINT ( 'NONE',  ( 0.0000000000000000000, -25.00000000000000000, 2.469045966022889600E-015 ) ) ;
#100 = DIRECTION ( 'NONE',  ( 0.0000000000000000000, -1.000000000000000000, 8.278327253528070800E-017 ) ) ;
#101 = DIRECTION ( 'NONE',  ( -0.0000000000000000000, 9.876183864091557800E-017, 1.000000000000000000 ) ) ;
#102 = CARTESIAN_POINT ( 'NONE',  ( 0.0000000000000000000, -1.458538069270312500E-015, -14.76823527530057400 ) ) ;
#103 = AXIS2_PLACEMENT_3D ( 'NONE', #102, #101, #100 ) ;
#104 = CIRCLE ( 'NONE', #103, 20.95499999999999800 ) ;
#105 = LINE ( 'NONE', #99, #98 ) ;
#106 = CARTESIAN_POINT ( 'NONE',  ( 2.566162614434790800E-015, 20.95499999999999500, 9.999999999999998200 ) ) ;
#107 = CARTESIAN_POINT ( 'NONE',  ( 0.0000000000000000000, -20.95499999999999500, 10.00000000000000200 ) ) ;
#108 = DIRECTION ( 'NONE',  ( 0.0000000000000000000, -1.000000000000000000, 8.278327253528070800E-017 ) ) ;
#109 = DIRECTION ( 'NONE',  ( -0.0000000000000000000, 9.876183864091557800E-017, 1.000000000000000000 ) ) ;
#110 = CARTESIAN_POINT ( 'NONE',  ( 0.0000000000000000000, -1.458538069270312500E-015, -14.76823527530057400 ) ) ;
#111 = AXIS2_PLACEMENT_3D ( 'NONE', #110, #109, #108 ) ;
#112 = CIRCLE ( 'NONE', #111, 20.95499999999999800 ) ;
#113 = DIRECTION ( 'NONE',  ( 0.0000000000000000000, -1.000000000000000000, 8.278327253528072000E-017 ) ) ;
#114 = DIRECTION ( 'NONE',  ( -0.0000000000000000000, 9.876183864091557800E-017, 1.000000000000000000 ) ) ;
#115 = AXIS2_PLACEMENT_3D ( 'NONE', #120, #114, #113 ) ;
#116 = CIRCLE ( 'NONE', #115, 20.95499999999999500 ) ;
#117 = DIRECTION ( 'NONE',  ( 0.0000000000000000000, -1.000000000000000000, 9.876183864091557800E-017 ) ) ;
#118 = DIRECTION ( 'NONE',  ( -0.0000000000000000000, 9.876183864091557800E-017, 1.000000000000000000 ) ) ;
#119 = AXIS2_PLACEMENT_3D ( 'NONE', #121, #118, #117 ) ;
#120 = CARTESIAN_POINT ( 'NONE',  ( 0.0000000000000000000, 9.876183864091558000E-016, 10.00000000000000000 ) ) ;
#121 = CARTESIAN_POINT ( 'NONE',  ( 0.0000000000000000000, 25.00000000000000000, -15.50000000000000000 ) ) ;
#122 = PLANE ( 'NONE',  #119 ) ;
#123 = FACE_BOUND ( 'NONE', #134, .T. ) ;
#124 = DIRECTION ( 'NONE',  ( 0.0000000000000000000, -1.000000000000000000, 9.876183864091559000E-017 ) ) ;
#125 = DIRECTION ( 'NONE',  ( -0.0000000000000000000, 9.876183864091557800E-017, 1.000000000000000000 ) ) ;
#126 = FACE_OUTER_BOUND ( 'NONE', #146, .T. ) ;
#127 = EDGE_CURVE ( 'NONE', #131, #132, #116, .T. ) ;
#128 = ORIENTED_EDGE ( 'NONE', *, *, #133, .F. ) ;
#129 = ORIENTED_EDGE ( 'NONE', *, *, #130, .F. ) ;
#130 = EDGE_CURVE ( 'NONE', #27, #16, #112, .T. ) ;
#131 = VERTEX_POINT ( 'NONE', #107 ) ;
#132 = VERTEX_POINT ( 'NONE', #106 ) ;
#133 = EDGE_CURVE ( 'NONE', #16, #132, #222, .T. ) ;
#134 = EDGE_LOOP ( 'NONE', ( #135, #136 ) ) ;
#135 = ORIENTED_EDGE ( 'NONE', *, *, #36, .T. ) ;
#136 = ORIENTED_EDGE ( 'NONE', *, *, #142, .T. ) ;
#137 = ADVANCED_FACE ( 'NONE', ( #239 ), #238, .F. ) ;
#138 = ORIENTED_EDGE ( 'NONE', *, *, #17, .T. ) ;
#139 = ORIENTED_EDGE ( 'NONE', *, *, #76, .T. ) ;
#140 = CLOSED_SHELL ( 'NONE', ( #8, #14, #38, #156, #153, #60, #82, #80, #137 ) ) ;
#141 = ORIENTED_EDGE ( 'NONE', *, *, #5, .F. ) ;
#142 = EDGE_CURVE ( 'NONE', #24, #35, #236, .T. ) ;
#143 = ORIENTED_EDGE ( 'NONE', *, *, #144, .F. ) ;
#144 = EDGE_CURVE ( 'NONE', #7, #4, #256, .T. ) ;
#145 = EDGE_LOOP ( 'NONE', ( #81, #78, #79, #75 ) ) ;
#146 = EDGE_LOOP ( 'NONE', ( #141, #143 ) ) ;
#147 = ORIENTED_EDGE ( 'NONE', *, *, #142, .F. ) ;
#148 = EDGE_CURVE ( 'NONE', #132, #131, #252, .T. ) ;
#149 = ORIENTED_EDGE ( 'NONE', *, *, #34, .F. ) ;
#150 = ORIENTED_EDGE ( 'NONE', *, *, #148, .T. ) ;
#151 = ORIENTED_EDGE ( 'NONE', *, *, #133, .T. ) ;
#152 = ORIENTED_EDGE ( 'NONE', *, *, #148, .F. ) ;
#153 = ADVANCED_FACE ( 'NONE', ( #253 ), #247, .F. ) ;
#154 = EDGE_LOOP ( 'NONE', ( #128, #129, #70, #71 ) ) ;
#155 = EDGE_LOOP ( 'NONE', ( #157, #152 ) ) ;
#156 = ADVANCED_FACE ( 'NONE', ( #205 ), #204, .F. ) ;
#157 = ORIENTED_EDGE ( 'NONE', *, *, #127, .F. ) ;
#158 = AXIS2_PLACEMENT_3D ( 'NONE', #164, #176, #175 ) ;
#159 = CONICAL_SURFACE ( 'NONE', #158, 20.95499999999999800, 0.7853981633974530500 ) ;
#160 = DIRECTION ( 'NONE',  ( 0.0000000000000000000, -1.000000000000000000, 9.876183864091557800E-017 ) ) ;
#161 = DIRECTION ( 'NONE',  ( -0.0000000000000000000, 9.876183864091557800E-017, 1.000000000000000000 ) ) ;
#162 = AXIS2_PLACEMENT_3D ( 'NONE', #83, #161, #160 ) ;
#163 = CYLINDRICAL_SURFACE ( 'NONE', #162, 20.95499999999999500 ) ;
#164 = CARTESIAN_POINT ( 'NONE',  ( 0.0000000000000000000, -1.458538069270312500E-015, -14.76823527530057400 ) ) ;
#165 = FACE_OUTER_BOUND ( 'NONE', #96, .T. ) ;
#166 = CARTESIAN_POINT ( 'NONE',  ( 0.0000000000000000000, 0.0000000000000000000, 0.0000000000000000000 ) ) ;
#167 = AXIS2_PLACEMENT_3D ( 'NONE', #166, #125, #124 ) ;
#168 = CYLINDRICAL_SURFACE ( 'NONE', #167, 25.00000000000000000 ) ;
#169 = FACE_OUTER_BOUND ( 'NONE', #145, .T. ) ;
#170 = DIRECTION ( 'NONE',  ( 0.0000000000000000000, -1.000000000000000000, 6.938893903907228400E-017 ) ) ;
#171 = DIRECTION ( 'NONE',  ( -0.0000000000000000000, 9.876183864091557800E-017, 1.000000000000000000 ) ) ;
#172 = CARTESIAN_POINT ( 'NONE',  ( 0.0000000000000000000, 1.530808498934191500E-015, 15.50000000000000200 ) ) ;
#173 = AXIS2_PLACEMENT_3D ( 'NONE', #172, #171, #170 ) ;
#174 = CIRCLE ( 'NONE', #173, 25.00000000000000000 ) ;
#175 = DIRECTION ( 'NONE',  ( 0.0000000000000000000, 1.000000000000000000, -8.278327253528070800E-017 ) ) ;
#176 = DIRECTION ( 'NONE',  ( 0.0000000000000000000, -9.876183864091557800E-017, -1.000000000000000000 ) ) ;
#177 = VECTOR ( 'NONE', #59, 1000.000000000000000 ) ;
#178 = CARTESIAN_POINT ( 'NONE',  ( 3.061515884555943100E-015, 25.00000000000000000, -2.469045966022889600E-015 ) ) ;
#179 = DIRECTION ( 'NONE',  ( 0.0000000000000000000, -1.000000000000000000, 6.938893903907228400E-017 ) ) ;
#180 = DIRECTION ( 'NONE',  ( -0.0000000000000000000, 9.876183864091557800E-017, 1.000000000000000000 ) ) ;
#181 = CARTESIAN_POINT ( 'NONE',  ( 0.0000000000000000000, -1.530808498934191100E-015, -15.49999999999999800 ) ) ;
#182 = AXIS2_PLACEMENT_3D ( 'NONE', #181, #180, #179 ) ;
#183 = CIRCLE ( 'NONE', #182, 25.00000000000000000 ) ;
#184 = LINE ( 'NONE', #178, #177 ) ;
#185 = CARTESIAN_POINT ( 'NONE',  ( 0.0000000000000000000, -25.00000000000000000, -15.49999999999999600 ) ) ;
#186 = CARTESIAN_POINT ( 'NONE',  ( 3.061515884555943100E-015, 25.00000000000000000, 15.50000000000000000 ) ) ;
#187 = ORIENTED_EDGE ( 'NONE', *, *, #21, .F. ) ;
#188 = DIRECTION ( 'NONE',  ( 0.0000000000000000000, 0.0000000000000000000, 1.000000000000000000 ) ) ;
#189 = CARTESIAN_POINT ( 'NONE',  ( 0.0000000000000000000, 0.0000000000000000000, 0.0000000000000000000 ) ) ;
#190 = APPLICATION_CONTEXT ( 'configuration controlled 3d designs of mechanical parts and assemblies' ) ;
#191 = ADVANCED_BREP_SHAPE_REPRESENTATION ( '11-0232-07_outokumpu', ( #13, #201 ), #192 ) ;
#192 =( GEOMETRIC_REPRESENTATION_CONTEXT ( 3 ) GLOBAL_UNCERTAINTY_ASSIGNED_CONTEXT ( ( #229 ) ) GLOBAL_UNIT_ASSIGNED_CONTEXT ( ( #196, #231, #230 ) ) REPRESENTATION_CONTEXT ( 'NONE', 'WORKASPACE' ) );
#193 = DIRECTION ( 'NONE',  ( 0.0000000000000000000, 1.000000000000000000, -9.876183864091557800E-017 ) ) ;
#194 = DIRECTION ( 'NONE',  ( 0.0000000000000000000, -9.876183864091557800E-017, -1.000000000000000000 ) ) ;
#195 = AXIS2_PLACEMENT_3D ( 'NONE', #237, #194, #193 ) ;
#196 =( LENGTH_UNIT ( ) NAMED_UNIT ( * ) SI_UNIT ( .MILLI., .METRE. ) );
#197 = DIRECTION ( 'NONE',  ( 0.0000000000000000000, -1.000000000000000000, 9.876183864091557800E-017 ) ) ;
#198 = DIRECTION ( 'NONE',  ( -0.0000000000000000000, 9.876183864091557800E-017, 1.000000000000000000 ) ) ;
#199 = CARTESIAN_POINT ( 'NONE',  ( 0.0000000000000000000, 20.95499999999999500, 9.999999999999994700 ) ) ;
#200 = AXIS2_PLACEMENT_3D ( 'NONE', #199, #198, #197 ) ;
#201 = AXIS2_PLACEMENT_3D ( 'NONE', #189, #188, #258 ) ;
#202 = DIRECTION ( 'NONE',  ( 0.0000000000000000000, -1.000000000000000000, 9.876183864091557800E-017 ) ) ;
#203 = DIRECTION ( 'NONE',  ( -0.0000000000000000000, 9.876183864091557800E-017, 1.000000000000000000 ) ) ;
#204 = PLANE ( 'NONE',  #200 ) ;
#205 = FACE_OUTER_BOUND ( 'NONE', #155, .T. ) ;
#206 = CC_DESIGN_APPROVAL ( #214, ( #217 ) ) ;
#207 = APPROVAL_DATE_TIME ( #208, #214 ) ;
#208 = DATE_AND_TIME ( #209, #210 ) ;
#209 = CALENDAR_DATE ( 2015, 11, 8 ) ;
#210 = LOCAL_TIME ( 16, 7, 28.00000000000000000, #211 ) ;
#211 = COORDINATED_UNIVERSAL_TIME_OFFSET ( 1, 0, .AHEAD. ) ;
#212 = APPROVAL_PERSON_ORGANIZATION ( #216, #214, #213 ) ;
#213 = APPROVAL_ROLE ( '' ) ;
#214 = APPROVAL ( #215, 'UNSPECIFIED' ) ;
#215 = APPROVAL_STATUS ( 'not_yet_approved' ) ;
#216 = PERSON_AND_ORGANIZATION ( #232, #226 ) ;
#217 = PRODUCT_DEFINITION ( 'UNKNOWN', '', #304, #218 ) ;
#218 = DESIGN_CONTEXT ( 'detailed design', #220, 'design' ) ;
#219 = APPLICATION_PROTOCOL_DEFINITION ( 'international standard', 'config_control_design', 1994, #220 ) ;
#220 = APPLICATION_CONTEXT ( 'configuration controlled 3d designs of mechanical parts and assemblies' ) ;
#221 = CARTESIAN_POINT ( 'NONE',  ( 2.566162614434790800E-015, 20.95499999999999500, -2.069554328720385500E-015 ) ) ;
#222 = LINE ( 'NONE', #221, #245 ) ;
#223 = CC_DESIGN_PERSON_AND_ORGANIZATION_ASSIGNMENT ( #225, #224, ( #233 ) ) ;
#224 = PERSON_AND_ORGANIZATION_ROLE ( 'design_owner' ) ;
#225 = PERSON_AND_ORGANIZATION ( #232, #226 ) ;
#226 = ORGANIZATION ( 'UNSPECIFIED', 'UNSPECIFIED', '' ) ;
#227 = DIRECTION ( 'NONE',  ( 0.0000000000000000000, -1.000000000000000000, 6.938893903907228400E-017 ) ) ;
#228 = DIRECTION ( 'NONE',  ( -0.0000000000000000000, 9.876183864091557800E-017, 1.000000000000000000 ) ) ;
#229 = UNCERTAINTY_MEASURE_WITH_UNIT (LENGTH_MEASURE( 1.000000000000000100E-005 ), #196, 'distance_accuracy_value', 'NONE');
#230 =( NAMED_UNIT ( * ) SI_UNIT ( $, .STERADIAN. ) SOLID_ANGLE_UNIT ( ) );
#231 =( NAMED_UNIT ( * ) PLANE_ANGLE_UNIT ( ) SI_UNIT ( $, .RADIAN. ) );
#232 = PERSON ( 'UNSPECIFIED', 'UNSPECIFIED', 'UNSPECIFIED', ('UNSPECIFIED'), ('UNSPECIFIED'), ('UNSPECIFIED') ) ;
#233 = PRODUCT ( '11-0232-07_outokumpu', '11-0232-07_outokumpu', '', ( #234 ) ) ;
#234 = MECHANICAL_CONTEXT ( 'NONE', #190, 'mechanical' ) ;
#235 = APPLICATION_PROTOCOL_DEFINITION ( 'international standard', 'config_control_design', 1994, #190 ) ;
#236 = CIRCLE ( 'NONE', #244, 21.68676472469943000 ) ;
#237 = CARTESIAN_POINT ( 'NONE',  ( 0.0000000000000000000, -1.530808498934191700E-015, 15.50000000000000400 ) ) ;
#238 = PLANE ( 'NONE',  #195 ) ;
#239 = FACE_OUTER_BOUND ( 'NONE', #77, .T. ) ;
#240 = DIRECTION ( 'NONE',  ( -0.0000000000000000000, 9.876183864091557800E-017, 1.000000000000000000 ) ) ;
#241 = DIRECTION ( 'NONE',  ( 0.0000000000000000000, -1.000000000000000000, 7.998996152713828800E-017 ) ) ;
#242 = DIRECTION ( 'NONE',  ( -0.0000000000000000000, 9.876183864091557800E-017, 1.000000000000000000 ) ) ;
#243 = CARTESIAN_POINT ( 'NONE',  ( 0.0000000000000000000, -1.530808498934191100E-015, -15.49999999999999800 ) ) ;
#244 = AXIS2_PLACEMENT_3D ( 'NONE', #243, #242, #241 ) ;
#245 = VECTOR ( 'NONE', #240, 1000.000000000000000 ) ;
#246 = AXIS2_PLACEMENT_3D ( 'NONE', #248, #203, #202 ) ;
#247 = CYLINDRICAL_SURFACE ( 'NONE', #246, 20.95499999999999500 ) ;
#248 = CARTESIAN_POINT ( 'NONE',  ( 0.0000000000000000000, 0.0000000000000000000, 0.0000000000000000000 ) ) ;
#249 = DIRECTION ( 'NONE',  ( 0.0000000000000000000, -1.000000000000000000, 8.278327253528072000E-017 ) ) ;
#250 = DIRECTION ( 'NONE',  ( -0.0000000000000000000, 9.876183864091557800E-017, 1.000000000000000000 ) ) ;
#251 = AXIS2_PLACEMENT_3D ( 'NONE', #257, #250, #249 ) ;
#252 = CIRCLE ( 'NONE', #251, 20.95499999999999500 ) ;
#253 = FACE_OUTER_BOUND ( 'NONE', #154, .T. ) ;
#254 = CARTESIAN_POINT ( 'NONE',  ( 0.0000000000000000000, -1.530808498934191100E-015, -15.49999999999999800 ) ) ;
#255 = AXIS2_PLACEMENT_3D ( 'NONE', #254, #228, #227 ) ;
#256 = CIRCLE ( 'NONE', #255, 25.00000000000000000 ) ;
#257 = CARTESIAN_POINT ( 'NONE',  ( 0.0000000000000000000, 9.876183864091558000E-016, 10.00000000000000000 ) ) ;
#258 = DIRECTION ( 'NONE',  ( 1.000000000000000000, 0.0000000000000000000, 0.0000000000000000000 ) ) ;
#259 = APPROVAL ( #303, 'UNSPECIFIED' ) ;
#260 = APPROVAL_PERSON_ORGANIZATION ( #264, #259, #261 ) ;
#261 = APPROVAL_ROLE ( '' ) ;
#262 = PERSON_AND_ORGANIZATION_ROLE ( 'design_supplier' ) ;
#263 = PERSON_AND_ORGANIZATION ( #232, #226 ) ;
#264 = PERSON_AND_ORGANIZATION ( #232, #226 ) ;
#265 = PERSON_AND_ORGANIZATION_ROLE ( 'creator' ) ;
#266 = PERSON_AND_ORGANIZATION ( #232, #226 ) ;
#267 = PRODUCT_DEFINITION_SHAPE ( 'NONE', 'NONE',  #217 ) ;
#268 = PRODUCT_RELATED_PRODUCT_CATEGORY ( 'detail', '', ( #233 ) ) ;
#269 = CC_DESIGN_SECURITY_CLASSIFICATION ( #286, ( #304 ) ) ;
#270 = PERSON_AND_ORGANIZATION ( #232, #226 ) ;
#271 = CC_DESIGN_DATE_AND_TIME_ASSIGNMENT ( #279, #272, ( #286 ) ) ;
#272 = DATE_TIME_ROLE ( 'classification_date' ) ;
#273 = CC_DESIGN_DATE_AND_TIME_ASSIGNMENT ( #305, #274, ( #217 ) ) ;
#274 = DATE_TIME_ROLE ( 'creation_date' ) ;
#275 = CC_DESIGN_APPROVAL ( #296, ( #286 ) ) ;
#276 = APPROVAL_DATE_TIME ( #277, #296 ) ;
#277 = DATE_AND_TIME ( #278, #292 ) ;
#278 = CALENDAR_DATE ( 2015, 11, 8 ) ;
#279 = DATE_AND_TIME ( #280, #281 ) ;
#280 = CALENDAR_DATE ( 2015, 11, 8 ) ;
#281 = LOCAL_TIME ( 16, 7, 28.00000000000000000, #282 ) ;
#282 = COORDINATED_UNIVERSAL_TIME_OFFSET ( 1, 0, .AHEAD. ) ;
#283 = CC_DESIGN_PERSON_AND_ORGANIZATION_ASSIGNMENT ( #285, #284, ( #286 ) ) ;
#284 = PERSON_AND_ORGANIZATION_ROLE ( 'classification_officer' ) ;
#285 = PERSON_AND_ORGANIZATION ( #232, #226 ) ;
#286 = SECURITY_CLASSIFICATION ( '', '', #289 ) ;
#287 = LOCAL_TIME ( 16, 7, 28.00000000000000000, #288 ) ;
#288 = COORDINATED_UNIVERSAL_TIME_OFFSET ( 1, 0, .AHEAD. ) ;
#289 = SECURITY_CLASSIFICATION_LEVEL ( 'unclassified' ) ;
#290 = CC_DESIGN_PERSON_AND_ORGANIZATION_ASSIGNMENT ( #263, #262, ( #304 ) ) ;
#291 = SHAPE_DEFINITION_REPRESENTATION ( #267, #191 ) ;
#292 = LOCAL_TIME ( 16, 7, 28.00000000000000000, #293 ) ;
#293 = COORDINATED_UNIVERSAL_TIME_OFFSET ( 1, 0, .AHEAD. ) ;
#294 = APPROVAL_PERSON_ORGANIZATION ( #270, #296, #295 ) ;
#295 = APPROVAL_ROLE ( '' ) ;
#296 = APPROVAL ( #297, 'UNSPECIFIED' ) ;
#297 = APPROVAL_STATUS ( 'not_yet_approved' ) ;
#298 = APPROVAL_DATE_TIME ( #299, #259 ) ;
#299 = DATE_AND_TIME ( #300, #287 ) ;
#300 = CALENDAR_DATE ( 2015, 11, 8 ) ;
#301 = CC_DESIGN_PERSON_AND_ORGANIZATION_ASSIGNMENT ( #266, #265, ( #304 ) ) ;
#302 = CC_DESIGN_APPROVAL ( #259, ( #304 ) ) ;
#303 = APPROVAL_STATUS ( 'not_yet_approved' ) ;
#304 = PRODUCT_DEFINITION_FORMATION_WITH_SPECIFIED_SOURCE ( 'ANY', '', #233, .NOT_KNOWN. ) ;
#305 = DATE_AND_TIME ( #72, #73 ) ;
ENDSEC;
END-ISO-10303-21;
