ISO-10303-21;
HEADER;
FILE_DESCRIPTION (( 'STEP AP203' ),
    '1' );
FILE_NAME ('11-0232-10_outokumpu.step',
    '2015-08-11T14:09:18',
    ( '' ),
    ( '' ),
    'SwSTEP 2.0',
    'SolidWorks 2008',
    '' );
FILE_SCHEMA (( 'CONFIG_CONTROL_DESIGN' ));
ENDSEC;

DATA;
#1 = MANIFOLD_SOLID_BREP ( 'NONE', #188 ) ;
#2 = ORIENTED_EDGE ( 'NONE', *, *, #7, .F. ) ;
#3 = ORIENTED_EDGE ( 'NONE', *, *, #8, .T. ) ;
#4 = VERTEX_POINT ( 'NONE', #85 ) ;
#5 = ORIENTED_EDGE ( 'NONE', *, *, #16, .F. ) ;
#6 = VERTEX_POINT ( 'NONE', #84 ) ;
#7 = EDGE_CURVE ( 'NONE', #9, #6, #193, .T. ) ;
#8 = EDGE_CURVE ( 'NONE', #10, #4, #189, .T. ) ;
#9 = VERTEX_POINT ( 'NONE', #80 ) ;
#10 = VERTEX_POINT ( 'NONE', #79 ) ;
#11 = EDGE_CURVE ( 'NONE', #9, #10, #77, .T. ) ;
#12 = ORIENTED_EDGE ( 'NONE', *, *, #38, .T. ) ;
#13 = EDGE_LOOP ( 'NONE', ( #17, #12, #22, #24 ) ) ;
#14 = ADVANCED_FACE ( 'NONE', ( #78 ), #70, .F. ) ;
#15 = VERTEX_POINT ( 'NONE', #71 ) ;
#16 = EDGE_CURVE ( 'NONE', #6, #4, #65, .T. ) ;
#17 = ORIENTED_EDGE ( 'NONE', *, *, #18, .T. ) ;
#18 = EDGE_CURVE ( 'NONE', #15, #39, #90, .T. ) ;
#19 = ADVANCED_FACE ( 'NONE', ( #91 ), #149, .T. ) ;
#20 = ORIENTED_EDGE ( 'NONE', *, *, #11, .T. ) ;
#21 = EDGE_LOOP ( 'NONE', ( #20, #3, #5, #2 ) ) ;
#22 = ORIENTED_EDGE ( 'NONE', *, *, #23, .F. ) ;
#23 = EDGE_CURVE ( 'NONE', #34, #35, #144, .T. ) ;
#24 = ORIENTED_EDGE ( 'NONE', *, *, #28, .F. ) ;
#25 = ADVANCED_FACE ( 'NONE', ( #145 ), #136, .F. ) ;
#26 = ADVANCED_FACE ( 'NONE', ( #138 ), #132, .F. ) ;
#27 = EDGE_CURVE ( 'NONE', #53, #52, #127, .T. ) ;
#28 = EDGE_CURVE ( 'NONE', #15, #34, #122, .T. ) ;
#29 = EDGE_LOOP ( 'NONE', ( #45, #42, #44, #120 ) ) ;
#30 = EDGE_LOOP ( 'NONE', ( #46, #32, #37, #51 ) ) ;
#31 = EDGE_LOOP ( 'NONE', ( #49, #33 ) ) ;
#32 = ORIENTED_EDGE ( 'NONE', *, *, #50, .T. ) ;
#33 = ORIENTED_EDGE ( 'NONE', *, *, #36, .F. ) ;
#34 = VERTEX_POINT ( 'NONE', #180 ) ;
#35 = VERTEX_POINT ( 'NONE', #179 ) ;
#36 = EDGE_CURVE ( 'NONE', #52, #53, #178, .T. ) ;
#37 = ORIENTED_EDGE ( 'NONE', *, *, #36, .T. ) ;
#38 = EDGE_CURVE ( 'NONE', #39, #35, #173, .T. ) ;
#39 = VERTEX_POINT ( 'NONE', #169 ) ;
#40 = EDGE_CURVE ( 'NONE', #10, #9, #168, .T. ) ;
#41 = EDGE_CURVE ( 'NONE', #35, #34, #163, .T. ) ;
#42 = ORIENTED_EDGE ( 'NONE', *, *, #43, .F. ) ;
#43 = EDGE_CURVE ( 'NONE', #39, #15, #158, .T. ) ;
#44 = ORIENTED_EDGE ( 'NONE', *, *, #47, .T. ) ;
#45 = ORIENTED_EDGE ( 'NONE', *, *, #50, .F. ) ;
#46 = ORIENTED_EDGE ( 'NONE', *, *, #18, .F. ) ;
#47 = EDGE_CURVE ( 'NONE', #39, #53, #116, .T. ) ;
#48 = ADVANCED_FACE ( 'NONE', ( #112 ), #111, .F. ) ;
#49 = ORIENTED_EDGE ( 'NONE', *, *, #27, .F. ) ;
#50 = EDGE_CURVE ( 'NONE', #15, #52, #109, .T. ) ;
#51 = ORIENTED_EDGE ( 'NONE', *, *, #47, .F. ) ;
#52 = VERTEX_POINT ( 'NONE', #63 ) ;
#53 = VERTEX_POINT ( 'NONE', #62 ) ;
#54 = FACE_OUTER_BOUND ( 'NONE', #150, .T. ) ;
#55 = DIRECTION ( 'NONE',  ( 0.0000000000000000000, -1.000000000000000000, 1.049697256412017300E-016 ) ) ;
#56 = DIRECTION ( 'NONE',  ( -0.0000000000000000000, 1.049697256412017200E-016, 1.000000000000000000 ) ) ;
#57 = AXIS2_PLACEMENT_3D ( 'NONE', #60, #56, #55 ) ;
#58 = CYLINDRICAL_SURFACE ( 'NONE', #57, 42.25000000000000700 ) ;
#59 = FACE_BOUND ( 'NONE', #118, .T. ) ;
#60 = CARTESIAN_POINT ( 'NONE',  ( 0.0000000000000000000, 0.0000000000000000000, 0.0000000000000000000 ) ) ;
#61 = FACE_OUTER_BOUND ( 'NONE', #102, .T. ) ;
#62 = CARTESIAN_POINT ( 'NONE',  ( 0.0000000000000000000, -37.59199999999999900, 13.50000000000000900 ) ) ;
#63 = CARTESIAN_POINT ( 'NONE',  ( 4.603540205289080300E-015, 37.59199999999999900, 13.50000000000000200 ) ) ;
#64 = DIRECTION ( 'NONE',  ( -0.0000000000000000000, 1.049697256412017200E-016, 1.000000000000000000 ) ) ;
#65 = CIRCLE ( 'NONE', #95, 42.25000000000000700 ) ;
#66 = CARTESIAN_POINT ( 'NONE',  ( 0.0000000000000000000, -2.066566116367417300E-015, -19.68725843326648200 ) ) ;
#67 = DIRECTION ( 'NONE',  ( 0.0000000000000000000, 1.000000000000000000, -9.229216194811700000E-017 ) ) ;
#68 = DIRECTION ( 'NONE',  ( 0.0000000000000000000, -1.049697256412017200E-016, -1.000000000000000000 ) ) ;
#69 = AXIS2_PLACEMENT_3D ( 'NONE', #72, #68, #67 ) ;
#70 = CONICAL_SURFACE ( 'NONE', #69, 37.59199999999999900, 0.7853981633974418400 ) ;
#71 = CARTESIAN_POINT ( 'NONE',  ( 4.603540205289080300E-015, 37.59199999999999900, -19.68725843326648600 ) ) ;
#72 = CARTESIAN_POINT ( 'NONE',  ( 0.0000000000000000000, -2.066566116367417300E-015, -19.68725843326648200 ) ) ;
#73 = DIRECTION ( 'NONE',  ( 0.0000000000000000000, -1.000000000000000000, 8.211708762020387400E-017 ) ) ;
#74 = DIRECTION ( 'NONE',  ( -0.0000000000000000000, 1.049697256412017200E-016, 1.000000000000000000 ) ) ;
#75 = CARTESIAN_POINT ( 'NONE',  ( 0.0000000000000000000, -2.204364238465236200E-015, -21.00000000000000000 ) ) ;
#76 = AXIS2_PLACEMENT_3D ( 'NONE', #75, #74, #73 ) ;
#77 = CIRCLE ( 'NONE', #76, 42.25000000000000700 ) ;
#78 = FACE_OUTER_BOUND ( 'NONE', #13, .T. ) ;
#79 = CARTESIAN_POINT ( 'NONE',  ( 5.173961844899544700E-015, 42.25000000000000700, -21.00000000000000400 ) ) ;
#80 = CARTESIAN_POINT ( 'NONE',  ( 0.0000000000000000000, -42.25000000000000700, -20.99999999999999600 ) ) ;
#81 = DIRECTION ( 'NONE',  ( -0.0000000000000000000, 1.049697256412017200E-016, 1.000000000000000000 ) ) ;
#82 = VECTOR ( 'NONE', #81, 1000.000000000000000 ) ;
#83 = CARTESIAN_POINT ( 'NONE',  ( 5.173961844899544700E-015, 42.25000000000000700, -4.434970908340774100E-015 ) ) ;
#84 = CARTESIAN_POINT ( 'NONE',  ( 0.0000000000000000000, -42.25000000000000700, 21.00000000000001100 ) ) ;
#85 = CARTESIAN_POINT ( 'NONE',  ( 5.173961844899544700E-015, 42.25000000000000700, 21.00000000000000400 ) ) ;
#86 = CARTESIAN_POINT ( 'NONE',  ( 0.0000000000000000000, 0.0000000000000000000, 0.0000000000000000000 ) ) ;
#87 = DIRECTION ( 'NONE',  ( 0.0000000000000000000, -1.000000000000000000, 9.229216194811700000E-017 ) ) ;
#88 = DIRECTION ( 'NONE',  ( -0.0000000000000000000, 1.049697256412017200E-016, 1.000000000000000000 ) ) ;
#89 = AXIS2_PLACEMENT_3D ( 'NONE', #66, #88, #87 ) ;
#90 = CIRCLE ( 'NONE', #89, 37.59199999999999900 ) ;
#91 = FACE_OUTER_BOUND ( 'NONE', #21, .T. ) ;
#92 = DIRECTION ( 'NONE',  ( 0.0000000000000000000, -1.000000000000000000, 8.211708762020387400E-017 ) ) ;
#93 = DIRECTION ( 'NONE',  ( -0.0000000000000000000, 1.049697256412017200E-016, 1.000000000000000000 ) ) ;
#94 = CARTESIAN_POINT ( 'NONE',  ( 0.0000000000000000000, 2.204364238465237000E-015, 21.00000000000000700 ) ) ;
#95 = AXIS2_PLACEMENT_3D ( 'NONE', #94, #93, #92 ) ;
#96 = ORIENTED_EDGE ( 'NONE', *, *, #7, .T. ) ;
#97 = ORIENTED_EDGE ( 'NONE', *, *, #16, .T. ) ;
#98 = ORIENTED_EDGE ( 'NONE', *, *, #11, .F. ) ;
#99 = ORIENTED_EDGE ( 'NONE', *, *, #43, .T. ) ;
#100 = ORIENTED_EDGE ( 'NONE', *, *, #38, .F. ) ;
#101 = ADVANCED_FACE ( 'NONE', ( #61 ), #58, .T. ) ;
#102 = EDGE_LOOP ( 'NONE', ( #103, #195, #96, #196 ) ) ;
#103 = ORIENTED_EDGE ( 'NONE', *, *, #8, .F. ) ;
#104 = VECTOR ( 'NONE', #64, 1000.000000000000000 ) ;
#105 = CARTESIAN_POINT ( 'NONE',  ( 4.603540205289080300E-015, 37.59199999999999900, -3.946021926304055500E-015 ) ) ;
#106 = DIRECTION ( 'NONE',  ( 0.0000000000000000000, -1.000000000000000000, 1.049697256412017200E-016 ) ) ;
#107 = DIRECTION ( 'NONE',  ( -0.0000000000000000000, 1.049697256412017200E-016, 1.000000000000000000 ) ) ;
#108 = AXIS2_PLACEMENT_3D ( 'NONE', #110, #107, #106 ) ;
#109 = LINE ( 'NONE', #105, #104 ) ;
#110 = CARTESIAN_POINT ( 'NONE',  ( 0.0000000000000000000, 37.59199999999999900, 13.50000000000000000 ) ) ;
#111 = PLANE ( 'NONE',  #108 ) ;
#112 = FACE_OUTER_BOUND ( 'NONE', #31, .T. ) ;
#113 = DIRECTION ( 'NONE',  ( -0.0000000000000000000, 1.049697256412017200E-016, 1.000000000000000000 ) ) ;
#114 = VECTOR ( 'NONE', #113, 1000.000000000000000 ) ;
#115 = CARTESIAN_POINT ( 'NONE',  ( 0.0000000000000000000, -37.59199999999999900, 3.946021926304055500E-015 ) ) ;
#116 = LINE ( 'NONE', #115, #114 ) ;
#117 = ORIENTED_EDGE ( 'NONE', *, *, #40, .F. ) ;
#118 = EDGE_LOOP ( 'NONE', ( #183, #153 ) ) ;
#119 = ADVANCED_FACE ( 'NONE', ( #54, #59 ), #225, .F. ) ;
#120 = ORIENTED_EDGE ( 'NONE', *, *, #27, .T. ) ;
#121 = ORIENTED_EDGE ( 'NONE', *, *, #28, .T. ) ;
#122 = LINE ( 'NONE', #128, #182 ) ;
#123 = DIRECTION ( 'NONE',  ( 0.0000000000000000000, -1.000000000000000000, 9.229216194811700000E-017 ) ) ;
#124 = DIRECTION ( 'NONE',  ( -0.0000000000000000000, 1.049697256412017200E-016, 1.000000000000000000 ) ) ;
#125 = CARTESIAN_POINT ( 'NONE',  ( 0.0000000000000000000, 1.417091296156223800E-015, 13.50000000000000500 ) ) ;
#126 = AXIS2_PLACEMENT_3D ( 'NONE', #125, #124, #123 ) ;
#127 = CIRCLE ( 'NONE', #126, 37.59199999999999900 ) ;
#128 = CARTESIAN_POINT ( 'NONE',  ( 0.0000000000000000000, 37.59199999999999900, -19.68725843326648600 ) ) ;
#129 = DIRECTION ( 'NONE',  ( 0.0000000000000000000, -1.000000000000000000, 1.049697256412017300E-016 ) ) ;
#130 = DIRECTION ( 'NONE',  ( -0.0000000000000000000, 1.049697256412017200E-016, 1.000000000000000000 ) ) ;
#131 = AXIS2_PLACEMENT_3D ( 'NONE', #137, #130, #129 ) ;
#132 = CYLINDRICAL_SURFACE ( 'NONE', #131, 37.59199999999999900 ) ;
#133 = DIRECTION ( 'NONE',  ( 0.0000000000000000000, -1.000000000000000000, 1.049697256412017300E-016 ) ) ;
#134 = DIRECTION ( 'NONE',  ( -0.0000000000000000000, 1.049697256412017200E-016, 1.000000000000000000 ) ) ;
#135 = AXIS2_PLACEMENT_3D ( 'NONE', #139, #134, #133 ) ;
#136 = CYLINDRICAL_SURFACE ( 'NONE', #135, 37.59199999999999900 ) ;
#137 = CARTESIAN_POINT ( 'NONE',  ( 0.0000000000000000000, 0.0000000000000000000, 0.0000000000000000000 ) ) ;
#138 = FACE_OUTER_BOUND ( 'NONE', #30, .T. ) ;
#139 = CARTESIAN_POINT ( 'NONE',  ( 0.0000000000000000000, 0.0000000000000000000, 0.0000000000000000000 ) ) ;
#140 = DIRECTION ( 'NONE',  ( 0.0000000000000000000, -1.000000000000000000, 8.917799764849881800E-017 ) ) ;
#141 = DIRECTION ( 'NONE',  ( -0.0000000000000000000, 1.049697256412017200E-016, 1.000000000000000000 ) ) ;
#142 = CARTESIAN_POINT ( 'NONE',  ( 0.0000000000000000000, -2.204364238465235800E-015, -20.99999999999999600 ) ) ;
#143 = AXIS2_PLACEMENT_3D ( 'NONE', #142, #141, #140 ) ;
#144 = CIRCLE ( 'NONE', #143, 38.90474156673349900 ) ;
#145 = FACE_OUTER_BOUND ( 'NONE', #29, .T. ) ;
#146 = DIRECTION ( 'NONE',  ( 0.0000000000000000000, -1.000000000000000000, 1.049697256412017300E-016 ) ) ;
#147 = DIRECTION ( 'NONE',  ( -0.0000000000000000000, 1.049697256412017200E-016, 1.000000000000000000 ) ) ;
#148 = AXIS2_PLACEMENT_3D ( 'NONE', #86, #147, #146 ) ;
#149 = CYLINDRICAL_SURFACE ( 'NONE', #148, 42.25000000000000700 ) ;
#150 = EDGE_LOOP ( 'NONE', ( #98, #117 ) ) ;
#151 = EDGE_CURVE ( 'NONE', #4, #6, #294, .T. ) ;
#152 = ADVANCED_FACE ( 'NONE', ( #290 ), #295, .F. ) ;
#153 = ORIENTED_EDGE ( 'NONE', *, *, #41, .T. ) ;
#154 = DIRECTION ( 'NONE',  ( 0.0000000000000000000, -1.000000000000000000, 9.229216194811700000E-017 ) ) ;
#155 = DIRECTION ( 'NONE',  ( -0.0000000000000000000, 1.049697256412017200E-016, 1.000000000000000000 ) ) ;
#156 = CARTESIAN_POINT ( 'NONE',  ( 0.0000000000000000000, -2.066566116367417300E-015, -19.68725843326648200 ) ) ;
#157 = AXIS2_PLACEMENT_3D ( 'NONE', #156, #155, #154 ) ;
#158 = CIRCLE ( 'NONE', #157, 37.59199999999999900 ) ;
#159 = DIRECTION ( 'NONE',  ( 0.0000000000000000000, -1.000000000000000000, 8.917799764849881800E-017 ) ) ;
#160 = DIRECTION ( 'NONE',  ( -0.0000000000000000000, 1.049697256412017200E-016, 1.000000000000000000 ) ) ;
#161 = CARTESIAN_POINT ( 'NONE',  ( 0.0000000000000000000, -2.204364238465235800E-015, -20.99999999999999600 ) ) ;
#162 = AXIS2_PLACEMENT_3D ( 'NONE', #161, #160, #159 ) ;
#163 = CIRCLE ( 'NONE', #162, 38.90474156673349900 ) ;
#164 = DIRECTION ( 'NONE',  ( 0.0000000000000000000, -1.000000000000000000, 8.211708762020387400E-017 ) ) ;
#165 = DIRECTION ( 'NONE',  ( -0.0000000000000000000, 1.049697256412017200E-016, 1.000000000000000000 ) ) ;
#166 = CARTESIAN_POINT ( 'NONE',  ( 0.0000000000000000000, -2.204364238465236200E-015, -21.00000000000000000 ) ) ;
#167 = AXIS2_PLACEMENT_3D ( 'NONE', #166, #165, #164 ) ;
#168 = CIRCLE ( 'NONE', #167, 42.25000000000000700 ) ;
#169 = CARTESIAN_POINT ( 'NONE',  ( 0.0000000000000000000, -37.59199999999999900, -19.68725843326647900 ) ) ;
#170 = DIRECTION ( 'NONE',  ( 8.659274570719299900E-017, -0.7071067811865431300, -0.7071067811865520100 ) ) ;
#171 = VECTOR ( 'NONE', #170, 999.9999999999998900 ) ;
#172 = CARTESIAN_POINT ( 'NONE',  ( 4.603540205289080300E-015, -37.59199999999999900, -19.68725843326647900 ) ) ;
#173 = LINE ( 'NONE', #172, #171 ) ;
#174 = DIRECTION ( 'NONE',  ( 0.0000000000000000000, -1.000000000000000000, 9.229216194811700000E-017 ) ) ;
#175 = DIRECTION ( 'NONE',  ( -0.0000000000000000000, 1.049697256412017200E-016, 1.000000000000000000 ) ) ;
#176 = CARTESIAN_POINT ( 'NONE',  ( 0.0000000000000000000, 1.417091296156223800E-015, 13.50000000000000500 ) ) ;
#177 = AXIS2_PLACEMENT_3D ( 'NONE', #176, #175, #174 ) ;
#178 = CIRCLE ( 'NONE', #177, 37.59199999999999900 ) ;
#179 = CARTESIAN_POINT ( 'NONE',  ( 4.764299371643938600E-015, -38.90474156673349900, -20.99999999999999300 ) ) ;
#180 = CARTESIAN_POINT ( 'NONE',  ( 0.0000000000000000000, 38.90474156673349900, -21.00000000000000000 ) ) ;
#181 = DIRECTION ( 'NONE',  ( 0.0000000000000000000, 0.7071067811865428000, -0.7071067811865522400 ) ) ;
#182 = VECTOR ( 'NONE', #181, 1000.000000000000000 ) ;
#183 = ORIENTED_EDGE ( 'NONE', *, *, #23, .T. ) ;
#184 = EDGE_LOOP ( 'NONE', ( #100, #99, #121, #186 ) ) ;
#185 = ADVANCED_FACE ( 'NONE', ( #288 ), #284, .F. ) ;
#186 = ORIENTED_EDGE ( 'NONE', *, *, #41, .F. ) ;
#187 = ORIENTED_EDGE ( 'NONE', *, *, #151, .T. ) ;
#188 = CLOSED_SHELL ( 'NONE', ( #19, #14, #26, #48, #25, #185, #119, #101, #152 ) ) ;
#189 = LINE ( 'NONE', #83, #82 ) ;
#190 = DIRECTION ( 'NONE',  ( -0.0000000000000000000, 1.049697256412017200E-016, 1.000000000000000000 ) ) ;
#191 = VECTOR ( 'NONE', #190, 1000.000000000000000 ) ;
#192 = CARTESIAN_POINT ( 'NONE',  ( 0.0000000000000000000, -42.25000000000000700, 4.434970908340774100E-015 ) ) ;
#193 = LINE ( 'NONE', #192, #191 ) ;
#194 = EDGE_LOOP ( 'NONE', ( #97, #187 ) ) ;
#195 = ORIENTED_EDGE ( 'NONE', *, *, #40, .T. ) ;
#196 = ORIENTED_EDGE ( 'NONE', *, *, #151, .F. ) ;
#197 = DIRECTION ( 'NONE',  ( 1.000000000000000000, 0.0000000000000000000, 0.0000000000000000000 ) ) ;
#198 = DIRECTION ( 'NONE',  ( 0.0000000000000000000, -1.000000000000000000, 1.049697256412017200E-016 ) ) ;
#199 = DIRECTION ( 'NONE',  ( -0.0000000000000000000, 1.049697256412017200E-016, 1.000000000000000000 ) ) ;
#200 = CARTESIAN_POINT ( 'NONE',  ( 0.0000000000000000000, 42.25000000000000700, -21.00000000000000400 ) ) ;
#201 = AXIS2_PLACEMENT_3D ( 'NONE', #200, #199, #198 ) ;
#202 = CC_DESIGN_APPROVAL ( #210, ( #213 ) ) ;
#203 = APPROVAL_DATE_TIME ( #204, #210 ) ;
#204 = DATE_AND_TIME ( #205, #206 ) ;
#205 = CALENDAR_DATE ( 2015, 11, 8 ) ;
#206 = LOCAL_TIME ( 16, 9, 18.00000000000000000, #207 ) ;
#207 = COORDINATED_UNIVERSAL_TIME_OFFSET ( 1, 0, .AHEAD. ) ;
#208 = APPROVAL_PERSON_ORGANIZATION ( #212, #210, #209 ) ;
#209 = APPROVAL_ROLE ( '' ) ;
#210 = APPROVAL ( #211, 'UNSPECIFIED' ) ;
#211 = APPROVAL_STATUS ( 'not_yet_approved' ) ;
#212 = PERSON_AND_ORGANIZATION ( #221, #220 ) ;
#213 = PRODUCT_DEFINITION ( 'UNKNOWN', '', #259, #214 ) ;
#214 = DESIGN_CONTEXT ( 'detailed design', #216, 'design' ) ;
#215 = APPLICATION_PROTOCOL_DEFINITION ( 'international standard', 'config_control_design', 1994, #216 ) ;
#216 = APPLICATION_CONTEXT ( 'configuration controlled 3d designs of mechanical parts and assemblies' ) ;
#217 = CC_DESIGN_PERSON_AND_ORGANIZATION_ASSIGNMENT ( #219, #218, ( #222 ) ) ;
#218 = PERSON_AND_ORGANIZATION_ROLE ( 'design_owner' ) ;
#219 = PERSON_AND_ORGANIZATION ( #221, #220 ) ;
#220 = ORGANIZATION ( 'UNSPECIFIED', 'UNSPECIFIED', '' ) ;
#221 = PERSON ( 'UNSPECIFIED', 'UNSPECIFIED', 'UNSPECIFIED', ('UNSPECIFIED'), ('UNSPECIFIED'), ('UNSPECIFIED') ) ;
#222 = PRODUCT ( '11-0232-10_outokumpu', '11-0232-10_outokumpu', '', ( #223 ) ) ;
#223 = MECHANICAL_CONTEXT ( 'NONE', #271, 'mechanical' ) ;
#224 = APPLICATION_PROTOCOL_DEFINITION ( 'international standard', 'config_control_design', 1994, #271 ) ;
#225 = PLANE ( 'NONE',  #201 ) ;
#226 = CARTESIAN_POINT ( 'NONE',  ( 0.0000000000000000000, 2.204364238465237000E-015, 21.00000000000000700 ) ) ;
#227 = APPROVAL_ROLE ( '' ) ;
#228 = APPROVAL ( #229, 'UNSPECIFIED' ) ;
#229 = APPROVAL_STATUS ( 'not_yet_approved' ) ;
#230 = PERSON_AND_ORGANIZATION ( #221, #220 ) ;
#231 = CC_DESIGN_DATE_AND_TIME_ASSIGNMENT ( #233, #232, ( #240 ) ) ;
#232 = DATE_TIME_ROLE ( 'classification_date' ) ;
#233 = DATE_AND_TIME ( #234, #235 ) ;
#234 = CALENDAR_DATE ( 2015, 11, 8 ) ;
#235 = LOCAL_TIME ( 16, 9, 18.00000000000000000, #236 ) ;
#236 = COORDINATED_UNIVERSAL_TIME_OFFSET ( 1, 0, .AHEAD. ) ;
#237 = CC_DESIGN_PERSON_AND_ORGANIZATION_ASSIGNMENT ( #239, #238, ( #240 ) ) ;
#238 = PERSON_AND_ORGANIZATION_ROLE ( 'classification_officer' ) ;
#239 = PERSON_AND_ORGANIZATION ( #221, #220 ) ;
#240 = SECURITY_CLASSIFICATION ( '', '', #241 ) ;
#241 = SECURITY_CLASSIFICATION_LEVEL ( 'unclassified' ) ;
#242 = CC_DESIGN_PERSON_AND_ORGANIZATION_ASSIGNMENT ( #244, #243, ( #259 ) ) ;
#243 = PERSON_AND_ORGANIZATION_ROLE ( 'design_supplier' ) ;
#244 = PERSON_AND_ORGANIZATION ( #221, #220 ) ;
#245 = CC_DESIGN_PERSON_AND_ORGANIZATION_ASSIGNMENT ( #247, #246, ( #259 ) ) ;
#246 = PERSON_AND_ORGANIZATION_ROLE ( 'creator' ) ;
#247 = PERSON_AND_ORGANIZATION ( #221, #220 ) ;
#248 = CC_DESIGN_APPROVAL ( #256, ( #259 ) ) ;
#249 = APPROVAL_DATE_TIME ( #250, #256 ) ;
#250 = DATE_AND_TIME ( #251, #252 ) ;
#251 = CALENDAR_DATE ( 2015, 11, 8 ) ;
#252 = LOCAL_TIME ( 16, 9, 18.00000000000000000, #253 ) ;
#253 = COORDINATED_UNIVERSAL_TIME_OFFSET ( 1, 0, .AHEAD. ) ;
#254 = APPROVAL_PERSON_ORGANIZATION ( #258, #256, #255 ) ;
#255 = APPROVAL_ROLE ( '' ) ;
#256 = APPROVAL ( #257, 'UNSPECIFIED' ) ;
#257 = APPROVAL_STATUS ( 'not_yet_approved' ) ;
#258 = PERSON_AND_ORGANIZATION ( #221, #220 ) ;
#259 = PRODUCT_DEFINITION_FORMATION_WITH_SPECIFIED_SOURCE ( 'ANY', '', #222, .NOT_KNOWN. ) ;
#260 = CC_DESIGN_DATE_AND_TIME_ASSIGNMENT ( #262, #261, ( #213 ) ) ;
#261 = DATE_TIME_ROLE ( 'creation_date' ) ;
#262 = DATE_AND_TIME ( #263, #264 ) ;
#263 = CALENDAR_DATE ( 2015, 11, 8 ) ;
#264 = LOCAL_TIME ( 16, 9, 18.00000000000000000, #265 ) ;
#265 = COORDINATED_UNIVERSAL_TIME_OFFSET ( 1, 0, .AHEAD. ) ;
#266 = CC_DESIGN_PERSON_AND_ORGANIZATION_ASSIGNMENT ( #268, #267, ( #213 ) ) ;
#267 = PERSON_AND_ORGANIZATION_ROLE ( 'creator' ) ;
#268 = PERSON_AND_ORGANIZATION ( #221, #220 ) ;
#269 = DIRECTION ( 'NONE',  ( 0.0000000000000000000, 0.0000000000000000000, 1.000000000000000000 ) ) ;
#270 = CARTESIAN_POINT ( 'NONE',  ( 0.0000000000000000000, 0.0000000000000000000, 0.0000000000000000000 ) ) ;
#271 = APPLICATION_CONTEXT ( 'configuration controlled 3d designs of mechanical parts and assemblies' ) ;
#272 = SHAPE_DEFINITION_REPRESENTATION ( #296, #273 ) ;
#273 = ADVANCED_BREP_SHAPE_REPRESENTATION ( '11-0232-10_outokumpu', ( #1, #283 ), #274 ) ;
#274 =( GEOMETRIC_REPRESENTATION_CONTEXT ( 3 ) GLOBAL_UNCERTAINTY_ASSIGNED_CONTEXT ( ( #275 ) ) GLOBAL_UNIT_ASSIGNED_CONTEXT ( ( #278, #277, #276 ) ) REPRESENTATION_CONTEXT ( 'NONE', 'WORKASPACE' ) );
#275 = UNCERTAINTY_MEASURE_WITH_UNIT (LENGTH_MEASURE( 1.000000000000000100E-005 ), #278, 'distance_accuracy_value', 'NONE');
#276 =( NAMED_UNIT ( * ) SI_UNIT ( $, .STERADIAN. ) SOLID_ANGLE_UNIT ( ) );
#277 =( NAMED_UNIT ( * ) PLANE_ANGLE_UNIT ( ) SI_UNIT ( $, .RADIAN. ) );
#278 =( LENGTH_UNIT ( ) NAMED_UNIT ( * ) SI_UNIT ( .MILLI., .METRE. ) );
#279 = DIRECTION ( 'NONE',  ( 0.0000000000000000000, 1.000000000000000000, -9.229216194811700000E-017 ) ) ;
#280 = DIRECTION ( 'NONE',  ( 0.0000000000000000000, -1.049697256412017200E-016, -1.000000000000000000 ) ) ;
#281 = CARTESIAN_POINT ( 'NONE',  ( 0.0000000000000000000, -2.066566116367417300E-015, -19.68725843326648200 ) ) ;
#282 = AXIS2_PLACEMENT_3D ( 'NONE', #281, #280, #279 ) ;
#283 = AXIS2_PLACEMENT_3D ( 'NONE', #270, #269, #197 ) ;
#284 = CONICAL_SURFACE ( 'NONE', #282, 37.59199999999999900, 0.7853981633974418400 ) ;
#285 = DIRECTION ( 'NONE',  ( 0.0000000000000000000, 1.000000000000000000, -1.049697256412017200E-016 ) ) ;
#286 = DIRECTION ( 'NONE',  ( 0.0000000000000000000, -1.049697256412017200E-016, -1.000000000000000000 ) ) ;
#287 = CARTESIAN_POINT ( 'NONE',  ( 0.0000000000000000000, -2.204364238465237000E-015, 21.00000000000000700 ) ) ;
#288 = FACE_OUTER_BOUND ( 'NONE', #184, .T. ) ;
#289 = AXIS2_PLACEMENT_3D ( 'NONE', #287, #286, #285 ) ;
#290 = FACE_OUTER_BOUND ( 'NONE', #194, .T. ) ;
#291 = DIRECTION ( 'NONE',  ( 0.0000000000000000000, -1.000000000000000000, 8.211708762020387400E-017 ) ) ;
#292 = DIRECTION ( 'NONE',  ( -0.0000000000000000000, 1.049697256412017200E-016, 1.000000000000000000 ) ) ;
#293 = AXIS2_PLACEMENT_3D ( 'NONE', #226, #292, #291 ) ;
#294 = CIRCLE ( 'NONE', #293, 42.25000000000000700 ) ;
#295 = PLANE ( 'NONE',  #289 ) ;
#296 = PRODUCT_DEFINITION_SHAPE ( 'NONE', 'NONE',  #213 ) ;
#297 = PRODUCT_RELATED_PRODUCT_CATEGORY ( 'detail', '', ( #222 ) ) ;
#298 = CC_DESIGN_SECURITY_CLASSIFICATION ( #240, ( #259 ) ) ;
#299 = CC_DESIGN_APPROVAL ( #228, ( #240 ) ) ;
#300 = APPROVAL_DATE_TIME ( #301, #228 ) ;
#301 = DATE_AND_TIME ( #302, #303 ) ;
#302 = CALENDAR_DATE ( 2015, 11, 8 ) ;
#303 = LOCAL_TIME ( 16, 9, 18.00000000000000000, #304 ) ;
#304 = COORDINATED_UNIVERSAL_TIME_OFFSET ( 1, 0, .AHEAD. ) ;
#305 = APPROVAL_PERSON_ORGANIZATION ( #230, #228, #227 ) ;
ENDSEC;
END-ISO-10303-21;
