ISO-10303-21;
HEADER;
FILE_DESCRIPTION (( 'STEP AP203' ),
    '1' );
FILE_NAME ('3D_R243_114.3_17386570.STEP',
    '2024-08-06T10:05:54',
    ( '' ),
    ( '' ),
    'SwSTEP 2.0',
    'SolidWorks 2024',
    '' );
FILE_SCHEMA (( 'CONFIG_CONTROL_DESIGN' ));
ENDSEC;

DATA;
#1 = DIRECTION ( 'NONE',  ( 0.000000000000000000, 0.000000000000000000, -1.000000000000000000 ) ) ;
#2 =( LENGTH_UNIT ( ) NAMED_UNIT ( * ) SI_UNIT ( .MILLI., .METRE. ) );
#3 = DIRECTION ( 'NONE',  ( 0.000000000000000000, 1.000000000000000000, 0.000000000000000000 ) ) ;
#4 = DATE_TIME_ROLE ( 'classification_date' ) ;
#5 = PERSON_AND_ORGANIZATION ( #110, #40 ) ;
#6 = VECTOR ( 'NONE', #55, 1000.000000000000000 ) ;
#7 = ORIENTED_EDGE ( 'NONE', *, *, #171, .T. ) ;
#8 = PERSON_AND_ORGANIZATION ( #110, #40 ) ;
#9 = ORIENTED_EDGE ( 'NONE', *, *, #238, .F. ) ;
#10 = CIRCLE ( 'NONE', #78, 57.75000000000000000 ) ;
#11 = VERTEX_POINT ( 'NONE', #111 ) ;
#12 =( GEOMETRIC_REPRESENTATION_CONTEXT ( 3 ) GLOBAL_UNCERTAINTY_ASSIGNED_CONTEXT ( ( #51 ) ) GLOBAL_UNIT_ASSIGNED_CONTEXT ( ( #2, #33, #59 ) ) REPRESENTATION_CONTEXT ( 'NONE', 'WORKASPACE' ) );
#13 = DIRECTION ( 'NONE',  ( -0.000000000000000000, -1.000000000000000000, -0.000000000000000000 ) ) ;
#14 = APPROVAL_PERSON_ORGANIZATION ( #139, #160, #163 ) ;
#15 = CARTESIAN_POINT ( 'NONE',  ( 0.000000000000000000, 4.000000000000000000, 0.000000000000000000 ) ) ;
#16 = DIRECTION ( 'NONE',  ( -0.000000000000000000, -1.000000000000000000, -0.000000000000000000 ) ) ;
#17 = FACE_OUTER_BOUND ( 'NONE', #84, .T. ) ;
#18 = CIRCLE ( 'NONE', #190, 57.75000000000000000 ) ;
#19 = PLANE ( 'NONE',  #129 ) ;
#20 = ADVANCED_FACE ( 'NONE', ( #187 ), #131, .F. ) ;
#21 = MECHANICAL_CONTEXT ( 'NONE', #224, 'mechanical' ) ;
#22 = DIRECTION ( 'NONE',  ( 1.000000000000000000, 0.000000000000000000, 0.000000000000000000 ) ) ;
#23 = EDGE_LOOP ( 'NONE', ( #202, #203, #65, #42 ) ) ;
#24 = VERTEX_POINT ( 'NONE', #178 ) ;
#25 = VERTEX_POINT ( 'NONE', #161 ) ;
#26 = ORIENTED_EDGE ( 'NONE', *, *, #39, .T. ) ;
#27 = ADVANCED_FACE ( 'NONE', ( #194, #94 ), #19, .T. ) ;
#28 = DIRECTION ( 'NONE',  ( -0.000000000000000000, -1.000000000000000000, -0.000000000000000000 ) ) ;
#29 = CIRCLE ( 'NONE', #170, 87.75000000000000000 ) ;
#30 = DIRECTION ( 'NONE',  ( 0.000000000000000000, 1.000000000000000000, 0.000000000000000000 ) ) ;
#31 = CARTESIAN_POINT ( 'NONE',  ( 0.000000000000000000, 4.000000000000000000, 0.000000000000000000 ) ) ;
#32 = APPROVAL_PERSON_ORGANIZATION ( #37, #63, #235 ) ;
#33 =( NAMED_UNIT ( * ) PLANE_ANGLE_UNIT ( ) SI_UNIT ( $, .RADIAN. ) );
#34 = CARTESIAN_POINT ( 'NONE',  ( 0.000000000000000000, 4.000000000000000000, 0.000000000000000000 ) ) ;
#35 = DATE_AND_TIME ( #101, #185 ) ;
#36 = CC_DESIGN_PERSON_AND_ORGANIZATION_ASSIGNMENT ( #117, #179, ( #192 ) ) ;
#37 = PERSON_AND_ORGANIZATION ( #110, #40 ) ;
#38 = COORDINATED_UNIVERSAL_TIME_OFFSET ( 1, 0, .AHEAD. ) ;
#39 = EDGE_CURVE ( 'NONE', #225, #11, #147, .T. ) ;
#40 = ORGANIZATION ( 'UNSPECIFIED', 'UNSPECIFIED', '' ) ;
#41 = APPLICATION_CONTEXT ( 'configuration controlled 3d designs of mechanical parts and assemblies' ) ;
#42 = ORIENTED_EDGE ( 'NONE', *, *, #54, .F. ) ;
#43 = EDGE_LOOP ( 'NONE', ( #66, #107 ) ) ;
#44 = ORIENTED_EDGE ( 'NONE', *, *, #189, .T. ) ;
#45 = EDGE_CURVE ( 'NONE', #24, #225, #113, .T. ) ;
#46 = CARTESIAN_POINT ( 'NONE',  ( 0.000000000000000000, 4.000000000000000000, 0.000000000000000000 ) ) ;
#47 = CC_DESIGN_PERSON_AND_ORGANIZATION_ASSIGNMENT ( #5, #201, ( #83 ) ) ;
#48 = AXIS2_PLACEMENT_3D ( 'NONE', #195, #133, #112 ) ;
#49 = CARTESIAN_POINT ( 'NONE',  ( 1.074627566251802345E-14, 4.000000000000000000, 87.75000000000000000 ) ) ;
#50 = APPROVAL_DATE_TIME ( #164, #160 ) ;
#51 = UNCERTAINTY_MEASURE_WITH_UNIT (LENGTH_MEASURE( 1.000000000000000082E-05 ), #2, 'distance_accuracy_value', 'NONE');
#52 = CARTESIAN_POINT ( 'NONE',  ( 0.000000000000000000, 4.000000000000000000, 0.000000000000000000 ) ) ;
#53 = DIRECTION ( 'NONE',  ( 0.000000000000000000, 1.000000000000000000, 0.000000000000000000 ) ) ;
#54 = EDGE_CURVE ( 'NONE', #25, #104, #144, .T. ) ;
#55 = DIRECTION ( 'NONE',  ( -0.000000000000000000, -1.000000000000000000, -0.000000000000000000 ) ) ;
#56 = DIRECTION ( 'NONE',  ( 0.000000000000000000, 0.000000000000000000, 1.000000000000000000 ) ) ;
#57 = APPROVAL ( #124, 'UNSPECIFIED' ) ;
#58 = CYLINDRICAL_SURFACE ( 'NONE', #159, 87.75000000000000000 ) ;
#59 =( NAMED_UNIT ( * ) SI_UNIT ( $, .STERADIAN. ) SOLID_ANGLE_UNIT ( ) );
#60 = DIRECTION ( 'NONE',  ( 0.000000000000000000, 1.000000000000000000, 0.000000000000000000 ) ) ;
#61 = COORDINATED_UNIVERSAL_TIME_OFFSET ( 1, 0, .AHEAD. ) ;
#62 = PERSON_AND_ORGANIZATION_ROLE ( 'design_owner' ) ;
#63 = APPROVAL ( #81, 'UNSPECIFIED' ) ;
#64 = COORDINATED_UNIVERSAL_TIME_OFFSET ( 1, 0, .AHEAD. ) ;
#65 = ORIENTED_EDGE ( 'NONE', *, *, #211, .T. ) ;
#66 = ORIENTED_EDGE ( 'NONE', *, *, #105, .T. ) ;
#67 = CC_DESIGN_APPROVAL ( #63, ( #83 ) ) ;
#68 = PRODUCT_RELATED_PRODUCT_CATEGORY ( 'detail', '', ( #217 ) ) ;
#69 = DIRECTION ( 'NONE',  ( 0.000000000000000000, 0.000000000000000000, 1.000000000000000000 ) ) ;
#70 = LOCAL_TIME ( 12, 5, 54.00000000000000000, #100 ) ;
#71 = DIRECTION ( 'NONE',  ( 0.000000000000000000, 1.000000000000000000, 0.000000000000000000 ) ) ;
#72 = CARTESIAN_POINT ( 'NONE',  ( 0.000000000000000000, 0.000000000000000000, -57.75000000000000000 ) ) ;
#73 = DIRECTION ( 'NONE',  ( -0.000000000000000000, -1.000000000000000000, -0.000000000000000000 ) ) ;
#74 = CARTESIAN_POINT ( 'NONE',  ( 0.000000000000000000, 0.000000000000000000, 0.000000000000000000 ) ) ;
#75 = APPROVAL_STATUS ( 'not_yet_approved' ) ;
#76 = FACE_OUTER_BOUND ( 'NONE', #126, .T. ) ;
#77 = SECURITY_CLASSIFICATION_LEVEL ( 'unclassified' ) ;
#78 = AXIS2_PLACEMENT_3D ( 'NONE', #15, #53, #56 ) ;
#79 = MANIFOLD_SOLID_BREP ( 'Aufsatz-Linear austragen1', #216 ) ;
#80 = CC_DESIGN_SECURITY_CLASSIFICATION ( #237, ( #192 ) ) ;
#81 = APPROVAL_STATUS ( 'not_yet_approved' ) ;
#82 = ORIENTED_EDGE ( 'NONE', *, *, #39, .F. ) ;
#83 = PRODUCT_DEFINITION ( 'UNKNOWN', '', #192, #108 ) ;
#84 = EDGE_LOOP ( 'NONE', ( #82, #9 ) ) ;
#85 = ORIENTED_EDGE ( 'NONE', *, *, #105, .F. ) ;
#86 = VECTOR ( 'NONE', #138, 1000.000000000000000 ) ;
#87 = ADVANCED_FACE ( 'NONE', ( #76 ), #58, .T. ) ;
#88 = DIRECTION ( 'NONE',  ( 0.000000000000000000, 0.000000000000000000, 1.000000000000000000 ) ) ;
#89 = CARTESIAN_POINT ( 'NONE',  ( 0.000000000000000000, 4.000000000000000000, 0.000000000000000000 ) ) ;
#90 = AXIS2_PLACEMENT_3D ( 'NONE', #246, #69, #22 ) ;
#91 = LOCAL_TIME ( 12, 5, 54.00000000000000000, #64 ) ;
#92 = CARTESIAN_POINT ( 'NONE',  ( 0.000000000000000000, 0.000000000000000000, 0.000000000000000000 ) ) ;
#93 = DIRECTION ( 'NONE',  ( -0.000000000000000000, -1.000000000000000000, -0.000000000000000000 ) ) ;
#94 = FACE_BOUND ( 'NONE', #145, .T. ) ;
#95 = FACE_BOUND ( 'NONE', #43, .T. ) ;
#96 = SHAPE_DEFINITION_REPRESENTATION ( #245, #156 ) ;
#97 = CIRCLE ( 'NONE', #48, 87.75000000000000000 ) ;
#98 = DIRECTION ( 'NONE',  ( 0.000000000000000000, 1.000000000000000000, 0.000000000000000000 ) ) ;
#99 = CALENDAR_DATE ( 2024, 6, 8 ) ;
#100 = COORDINATED_UNIVERSAL_TIME_OFFSET ( 1, 0, .AHEAD. ) ;
#101 = CALENDAR_DATE ( 2024, 6, 8 ) ;
#102 = VERTEX_POINT ( 'NONE', #137 ) ;
#103 = AXIS2_PLACEMENT_3D ( 'NONE', #46, #28, #1 ) ;
#104 = VERTEX_POINT ( 'NONE', #72 ) ;
#105 = EDGE_CURVE ( 'NONE', #104, #25, #18, .T. ) ;
#106 = VERTEX_POINT ( 'NONE', #116 ) ;
#107 = ORIENTED_EDGE ( 'NONE', *, *, #54, .T. ) ;
#108 = DESIGN_CONTEXT ( 'detailed design', #41, 'design' ) ;
#109 = EDGE_CURVE ( 'NONE', #106, #102, #10, .T. ) ;
#110 = PERSON ( 'UNSPECIFIED', 'UNSPECIFIED', 'UNSPECIFIED', ('UNSPECIFIED'), ('UNSPECIFIED'), ('UNSPECIFIED') ) ;
#111 = CARTESIAN_POINT ( 'NONE',  ( 1.074627566251802345E-14, 0.000000000000000000, 87.75000000000000000 ) ) ;
#112 = DIRECTION ( 'NONE',  ( 0.000000000000000000, 0.000000000000000000, 1.000000000000000000 ) ) ;
#113 = LINE ( 'NONE', #249, #6 ) ;
#114 = DIRECTION ( 'NONE',  ( 0.000000000000000000, 0.000000000000000000, 1.000000000000000000 ) ) ;
#115 = DIRECTION ( 'NONE',  ( 0.000000000000000000, -0.000000000000000000, 1.000000000000000000 ) ) ;
#116 = CARTESIAN_POINT ( 'NONE',  ( 7.072335265075964272E-15, 4.000000000000000000, 57.75000000000000000 ) ) ;
#117 = PERSON_AND_ORGANIZATION ( #110, #40 ) ;
#118 = AXIS2_PLACEMENT_3D ( 'NONE', #31, #73, #233 ) ;
#119 = CARTESIAN_POINT ( 'NONE',  ( 0.000000000000000000, 4.000000000000000000, 0.000000000000000000 ) ) ;
#120 = DATE_AND_TIME ( #165, #70 ) ;
#121 = EDGE_CURVE ( 'NONE', #106, #25, #135, .T. ) ;
#122 = APPROVAL_ROLE ( '' ) ;
#123 = AXIS2_PLACEMENT_3D ( 'NONE', #136, #30, #210 ) ;
#124 = APPROVAL_STATUS ( 'not_yet_approved' ) ;
#125 = ORIENTED_EDGE ( 'NONE', *, *, #109, .F. ) ;
#126 = EDGE_LOOP ( 'NONE', ( #182, #244, #223, #26 ) ) ;
#127 = CC_DESIGN_DATE_AND_TIME_ASSIGNMENT ( #177, #4, ( #237 ) ) ;
#128 = ORIENTED_EDGE ( 'NONE', *, *, #189, .F. ) ;
#129 = AXIS2_PLACEMENT_3D ( 'NONE', #119, #98, #157 ) ;
#130 = LOCAL_TIME ( 12, 5, 54.00000000000000000, #38 ) ;
#131 = CYLINDRICAL_SURFACE ( 'NONE', #103, 57.75000000000000000 ) ;
#132 = EDGE_CURVE ( 'NONE', #222, #24, #29, .T. ) ;
#133 = DIRECTION ( 'NONE',  ( 0.000000000000000000, 1.000000000000000000, 0.000000000000000000 ) ) ;
#134 = DIRECTION ( 'NONE',  ( -0.000000000000000000, -1.000000000000000000, -0.000000000000000000 ) ) ;
#135 = LINE ( 'NONE', #212, #209 ) ;
#136 = CARTESIAN_POINT ( 'NONE',  ( 0.000000000000000000, 0.000000000000000000, 0.000000000000000000 ) ) ;
#137 = CARTESIAN_POINT ( 'NONE',  ( 0.000000000000000000, 4.000000000000000000, -57.75000000000000000 ) ) ;
#138 = DIRECTION ( 'NONE',  ( -0.000000000000000000, -1.000000000000000000, -0.000000000000000000 ) ) ;
#139 = PERSON_AND_ORGANIZATION ( #110, #40 ) ;
#140 = LOCAL_TIME ( 12, 5, 54.00000000000000000, #61 ) ;
#141 = COORDINATED_UNIVERSAL_TIME_OFFSET ( 1, 0, .AHEAD. ) ;
#142 = APPROVAL_DATE_TIME ( #242, #57 ) ;
#143 = CALENDAR_DATE ( 2024, 6, 8 ) ;
#144 = CIRCLE ( 'NONE', #205, 57.75000000000000000 ) ;
#145 = EDGE_LOOP ( 'NONE', ( #128, #125 ) ) ;
#146 = ORIENTED_EDGE ( 'NONE', *, *, #184, .T. ) ;
#147 = CIRCLE ( 'NONE', #228, 87.75000000000000000 ) ;
#148 = CC_DESIGN_APPROVAL ( #160, ( #237 ) ) ;
#149 = EDGE_LOOP ( 'NONE', ( #44, #243, #85, #240 ) ) ;
#150 = CC_DESIGN_DATE_AND_TIME_ASSIGNMENT ( #120, #166, ( #83 ) ) ;
#151 = CYLINDRICAL_SURFACE ( 'NONE', #180, 87.75000000000000000 ) ;
#152 = DIRECTION ( 'NONE',  ( 0.000000000000000000, 0.000000000000000000, -1.000000000000000000 ) ) ;
#153 = CARTESIAN_POINT ( 'NONE',  ( 0.000000000000000000, 0.000000000000000000, 0.000000000000000000 ) ) ;
#154 = PLANE ( 'NONE',  #204 ) ;
#155 = ADVANCED_FACE ( 'NONE', ( #173 ), #248, .F. ) ;
#156 = ADVANCED_BREP_SHAPE_REPRESENTATION ( '3D_R243_114.3_17386570', ( #79, #90 ), #12 ) ;
#157 = DIRECTION ( 'NONE',  ( 0.000000000000000000, -0.000000000000000000, 1.000000000000000000 ) ) ;
#158 = CARTESIAN_POINT ( 'NONE',  ( 0.000000000000000000, 0.000000000000000000, -87.75000000000000000 ) ) ;
#159 = AXIS2_PLACEMENT_3D ( 'NONE', #52, #134, #191 ) ;
#160 = APPROVAL ( #75, 'UNSPECIFIED' ) ;
#161 = CARTESIAN_POINT ( 'NONE',  ( 7.072335265075964272E-15, 0.000000000000000000, 57.75000000000000000 ) ) ;
#162 = CARTESIAN_POINT ( 'NONE',  ( 0.000000000000000000, 4.000000000000000000, 0.000000000000000000 ) ) ;
#163 = APPROVAL_ROLE ( '' ) ;
#164 = DATE_AND_TIME ( #199, #140 ) ;
#165 = CALENDAR_DATE ( 2024, 6, 8 ) ;
#166 = DATE_TIME_ROLE ( 'creation_date' ) ;
#167 = EDGE_LOOP ( 'NONE', ( #7, #169 ) ) ;
#168 = PERSON_AND_ORGANIZATION ( #110, #40 ) ;
#169 = ORIENTED_EDGE ( 'NONE', *, *, #132, .T. ) ;
#170 = AXIS2_PLACEMENT_3D ( 'NONE', #89, #193, #208 ) ;
#171 = EDGE_CURVE ( 'NONE', #24, #222, #97, .T. ) ;
#172 = CC_DESIGN_PERSON_AND_ORGANIZATION_ASSIGNMENT ( #213, #239, ( #192 ) ) ;
#173 = FACE_OUTER_BOUND ( 'NONE', #23, .T. ) ;
#174 = DIRECTION ( 'NONE',  ( 0.000000000000000000, 0.000000000000000000, 1.000000000000000000 ) ) ;
#175 = CARTESIAN_POINT ( 'NONE',  ( 0.000000000000000000, 4.000000000000000000, -57.75000000000000000 ) ) ;
#176 = FACE_OUTER_BOUND ( 'NONE', #220, .T. ) ;
#177 = DATE_AND_TIME ( #99, #130 ) ;
#178 = CARTESIAN_POINT ( 'NONE',  ( 0.000000000000000000, 4.000000000000000000, -87.75000000000000000 ) ) ;
#179 = PERSON_AND_ORGANIZATION_ROLE ( 'design_supplier' ) ;
#180 = AXIS2_PLACEMENT_3D ( 'NONE', #34, #93, #152 ) ;
#181 = CC_DESIGN_APPROVAL ( #57, ( #192 ) ) ;
#182 = ORIENTED_EDGE ( 'NONE', *, *, #184, .F. ) ;
#183 = ORIENTED_EDGE ( 'NONE', *, *, #238, .T. ) ;
#184 = EDGE_CURVE ( 'NONE', #222, #11, #229, .T. ) ;
#185 = LOCAL_TIME ( 12, 5, 54.00000000000000000, #141 ) ;
#186 = APPLICATION_PROTOCOL_DEFINITION ( 'international standard', 'config_control_design', 1994, #224 ) ;
#187 = FACE_OUTER_BOUND ( 'NONE', #149, .T. ) ;
#188 = DIRECTION ( 'NONE',  ( 0.000000000000000000, 1.000000000000000000, 0.000000000000000000 ) ) ;
#189 = EDGE_CURVE ( 'NONE', #102, #106, #226, .T. ) ;
#190 = AXIS2_PLACEMENT_3D ( 'NONE', #153, #188, #88 ) ;
#191 = DIRECTION ( 'NONE',  ( 0.000000000000000000, 0.000000000000000000, -1.000000000000000000 ) ) ;
#192 = PRODUCT_DEFINITION_FORMATION_WITH_SPECIFIED_SOURCE ( 'ANY', '', #217, .NOT_KNOWN. ) ;
#193 = DIRECTION ( 'NONE',  ( 0.000000000000000000, 1.000000000000000000, 0.000000000000000000 ) ) ;
#194 = FACE_OUTER_BOUND ( 'NONE', #167, .T. ) ;
#195 = CARTESIAN_POINT ( 'NONE',  ( 0.000000000000000000, 4.000000000000000000, 0.000000000000000000 ) ) ;
#196 = PERSON_AND_ORGANIZATION ( #110, #40 ) ;
#197 = AXIS2_PLACEMENT_3D ( 'NONE', #162, #71, #114 ) ;
#198 = CC_DESIGN_PERSON_AND_ORGANIZATION_ASSIGNMENT ( #196, #236, ( #237 ) ) ;
#199 = CALENDAR_DATE ( 2024, 6, 8 ) ;
#200 = ORIENTED_EDGE ( 'NONE', *, *, #132, .F. ) ;
#201 = PERSON_AND_ORGANIZATION_ROLE ( 'creator' ) ;
#202 = ORIENTED_EDGE ( 'NONE', *, *, #121, .F. ) ;
#203 = ORIENTED_EDGE ( 'NONE', *, *, #109, .T. ) ;
#204 = AXIS2_PLACEMENT_3D ( 'NONE', #74, #230, #115 ) ;
#205 = AXIS2_PLACEMENT_3D ( 'NONE', #234, #60, #214 ) ;
#206 = CARTESIAN_POINT ( 'NONE',  ( 1.074627566251802345E-14, 4.000000000000000000, 87.75000000000000000 ) ) ;
#207 = ADVANCED_FACE ( 'NONE', ( #176 ), #151, .T. ) ;
#208 = DIRECTION ( 'NONE',  ( 0.000000000000000000, 0.000000000000000000, 1.000000000000000000 ) ) ;
#209 = VECTOR ( 'NONE', #13, 1000.000000000000000 ) ;
#210 = DIRECTION ( 'NONE',  ( 0.000000000000000000, 0.000000000000000000, 1.000000000000000000 ) ) ;
#211 = EDGE_CURVE ( 'NONE', #102, #104, #231, .T. ) ;
#212 = CARTESIAN_POINT ( 'NONE',  ( 7.072335265075964272E-15, 4.000000000000000000, 57.75000000000000000 ) ) ;
#213 = PERSON_AND_ORGANIZATION ( #110, #40 ) ;
#214 = DIRECTION ( 'NONE',  ( 0.000000000000000000, 0.000000000000000000, 1.000000000000000000 ) ) ;
#215 = APPROVAL_DATE_TIME ( #35, #63 ) ;
#216 = CLOSED_SHELL ( 'NONE', ( #20, #207, #27, #221, #87, #155 ) ) ;
#217 = PRODUCT ( '3D_R243_114.3_17386570', '3D_R243_114.3_17386570', '', ( #21 ) ) ;
#218 = CC_DESIGN_PERSON_AND_ORGANIZATION_ASSIGNMENT ( #8, #62, ( #217 ) ) ;
#219 = APPLICATION_PROTOCOL_DEFINITION ( 'international standard', 'config_control_design', 1994, #41 ) ;
#220 = EDGE_LOOP ( 'NONE', ( #200, #146, #183, #241 ) ) ;
#221 = ADVANCED_FACE ( 'NONE', ( #17, #95 ), #154, .F. ) ;
#222 = VERTEX_POINT ( 'NONE', #49 ) ;
#223 = ORIENTED_EDGE ( 'NONE', *, *, #45, .T. ) ;
#224 = APPLICATION_CONTEXT ( 'configuration controlled 3d designs of mechanical parts and assemblies' ) ;
#225 = VERTEX_POINT ( 'NONE', #158 ) ;
#226 = CIRCLE ( 'NONE', #197, 57.75000000000000000 ) ;
#227 = APPROVAL_PERSON_ORGANIZATION ( #168, #57, #122 ) ;
#228 = AXIS2_PLACEMENT_3D ( 'NONE', #92, #3, #174 ) ;
#229 = LINE ( 'NONE', #206, #247 ) ;
#230 = DIRECTION ( 'NONE',  ( 0.000000000000000000, 1.000000000000000000, 0.000000000000000000 ) ) ;
#231 = LINE ( 'NONE', #175, #86 ) ;
#232 = CIRCLE ( 'NONE', #123, 87.75000000000000000 ) ;
#233 = DIRECTION ( 'NONE',  ( 0.000000000000000000, 0.000000000000000000, -1.000000000000000000 ) ) ;
#234 = CARTESIAN_POINT ( 'NONE',  ( 0.000000000000000000, 0.000000000000000000, 0.000000000000000000 ) ) ;
#235 = APPROVAL_ROLE ( '' ) ;
#236 = PERSON_AND_ORGANIZATION_ROLE ( 'classification_officer' ) ;
#237 = SECURITY_CLASSIFICATION ( '', '', #77 ) ;
#238 = EDGE_CURVE ( 'NONE', #11, #225, #232, .T. ) ;
#239 = PERSON_AND_ORGANIZATION_ROLE ( 'creator' ) ;
#240 = ORIENTED_EDGE ( 'NONE', *, *, #211, .F. ) ;
#241 = ORIENTED_EDGE ( 'NONE', *, *, #45, .F. ) ;
#242 = DATE_AND_TIME ( #143, #91 ) ;
#243 = ORIENTED_EDGE ( 'NONE', *, *, #121, .T. ) ;
#244 = ORIENTED_EDGE ( 'NONE', *, *, #171, .F. ) ;
#245 = PRODUCT_DEFINITION_SHAPE ( 'NONE', 'NONE',  #83 ) ;
#246 = CARTESIAN_POINT ( 'NONE',  ( 0.000000000000000000, 0.000000000000000000, 0.000000000000000000 ) ) ;
#247 = VECTOR ( 'NONE', #16, 1000.000000000000000 ) ;
#248 = CYLINDRICAL_SURFACE ( 'NONE', #118, 57.75000000000000000 ) ;
#249 = CARTESIAN_POINT ( 'NONE',  ( 0.000000000000000000, 4.000000000000000000, -87.75000000000000000 ) ) ;
ENDSEC;
END-ISO-10303-21;
